  0
SECTION
  2
HEADER
  9
$ACADVER
  1
AC1027
  9
$ACADMAINTVER
 70
   106
  9
$DWGCODEPAGE
  3
ANSI_1252
  9
$LASTSAVEDBY
  1
quadiss
  9
$REQUIREDVERSIONS
160
                 0
  9
$INSBASE
 10
0.0
 20
0.0
 30
0.0
  9
$EXTMIN
 10
-0.0025126963419382
 20
-0.0014286379059882
 30
-0.0015258207003583
  9
$EXTMAX
 10
82.3448289364623
 20
46.81860757210301
 30
0.0000000349246037
  9
$LIMMIN
 10
0.0
 20
0.0
  9
$LIMMAX
 10
12.0
 20
9.0
  9
$ORTHOMODE
 70
     0
  9
$REGENMODE
 70
     1
  9
$FILLMODE
 70
     1
  9
$QTEXTMODE
 70
     0
  9
$MIRRTEXT
 70
     1
  9
$LTSCALE
 40
0.5
  9
$ATTMODE
 70
     1
  9
$TEXTSIZE
 40
0.25
  9
$TRACEWID
 40
0.05
  9
$TEXTSTYLE
  7
STANDARD
  9
$CLAYER
  8
0
  9
$CELTYPE
  6
BYLAYER
  9
$CECOLOR
 62
   256
  9
$CELTSCALE
 40
1.0
  9
$DISPSILH
 70
     0
  9
$DIMSCALE
 40
1.0
  9
$DIMASZ
 40
0.2
  9
$DIMEXO
 40
0.125
  9
$DIMDLI
 40
0.375
  9
$DIMRND
 40
0.0
  9
$DIMDLE
 40
0.0
  9
$DIMEXE
 40
0.125
  9
$DIMTP
 40
0.0
  9
$DIMTM
 40
0.0
  9
$DIMTXT
 40
0.25
  9
$DIMCEN
 40
0.0
  9
$DIMTSZ
 40
0.0
  9
$DIMTOL
 70
     0
  9
$DIMLIM
 70
     0
  9
$DIMTIH
 70
     0
  9
$DIMTOH
 70
     0
  9
$DIMSE1
 70
     0
  9
$DIMSE2
 70
     0
  9
$DIMTAD
 70
     1
  9
$DIMZIN
 70
     3
  9
$DIMBLK
  1

  9
$DIMASO
 70
     1
  9
$DIMSHO
 70
     1
  9
$DIMPOST
  1

  9
$DIMAPOST
  1

  9
$DIMALT
 70
     0
  9
$DIMALTD
 70
     2
  9
$DIMALTF
 40
25.4
  9
$DIMLFAC
 40
1.0
  9
$DIMTOFL
 70
     0
  9
$DIMTVP
 40
0.0
  9
$DIMTIX
 70
     0
  9
$DIMSOXD
 70
     0
  9
$DIMSAH
 70
     0
  9
$DIMBLK1
  1

  9
$DIMBLK2
  1

  9
$DIMSTYLE
  2
STANDARD
  9
$DIMCLRD
 70
     0
  9
$DIMCLRE
 70
     0
  9
$DIMCLRT
 70
     0
  9
$DIMTFAC
 40
1.0
  9
$DIMGAP
 40
0.125
  9
$DIMJUST
 70
     0
  9
$DIMSD1
 70
     0
  9
$DIMSD2
 70
     0
  9
$DIMTOLJ
 70
     1
  9
$DIMTZIN
 70
     3
  9
$DIMALTZ
 70
     3
  9
$DIMALTTZ
 70
     3
  9
$DIMUPT
 70
     0
  9
$DIMDEC
 70
     5
  9
$DIMTDEC
 70
     5
  9
$DIMALTU
 70
     4
  9
$DIMALTTD
 70
     2
  9
$DIMTXSTY
  7
STANDARD
  9
$DIMAUNIT
 70
     0
  9
$DIMADEC
 70
     0
  9
$DIMALTRND
 40
0.0
  9
$DIMAZIN
 70
     0
  9
$DIMDSEP
 70
    46
  9
$DIMATFIT
 70
     0
  9
$DIMFRAC
 70
     2
  9
$DIMLDRBLK
  1

  9
$DIMLUNIT
 70
     4
  9
$DIMLWD
 70
    -2
  9
$DIMLWE
 70
    -2
  9
$DIMTMOVE
 70
     0
  9
$DIMFXL
 40
1.0
  9
$DIMFXLON
 70
     0
  9
$DIMJOGANG
 40
0.7853981633974483
  9
$DIMTFILL
 70
     0
  9
$DIMTFILLCLR
 70
     0
  9
$DIMARCSYM
 70
     0
  9
$DIMLTYPE
  6

  9
$DIMLTEX1
  6

  9
$DIMLTEX2
  6

  9
$DIMTXTDIRECTION
 70
     0
  9
$LUNITS
 70
     2
  9
$LUPREC
 70
     5
  9
$SKETCHINC
 40
0.1
  9
$FILLETRAD
 40
0.0
  9
$AUNITS
 70
     0
  9
$AUPREC
 70
     0
  9
$MENU
  1
ACAD
  9
$ELEVATION
 40
0.0
  9
$PELEVATION
 40
0.0
  9
$THICKNESS
 40
0.0
  9
$LIMCHECK
 70
     0
  9
$CHAMFERA
 40
0.0
  9
$CHAMFERB
 40
0.0
  9
$CHAMFERC
 40
0.0
  9
$CHAMFERD
 40
0.0
  9
$SKPOLY
 70
     0
  9
$TDCREATE
 40
2450777.579237616
  9
$TDUCREATE
 40
2450777.745904282
  9
$TDUPDATE
 40
2458313.401305417
  9
$TDUUPDATE
 40
2458313.567972083
  9
$TDINDWG
 40
0.8084209491
  9
$TDUSRTIMER
 40
0.8084209491
  9
$USRTIMER
 70
     1
  9
$ANGBASE
 50
0.0
  9
$ANGDIR
 70
     0
  9
$PDMODE
 70
     0
  9
$PDSIZE
 40
0.0
  9
$PLINEWID
 40
0.0
  9
$SPLFRAME
 70
     0
  9
$SPLINETYPE
 70
     6
  9
$SPLINESEGS
 70
     8
  9
$HANDSEED
  5
CB1C
  9
$SURFTAB1
 70
     6
  9
$SURFTAB2
 70
     6
  9
$SURFTYPE
 70
     6
  9
$SURFU
 70
     6
  9
$SURFV
 70
     6
  9
$UCSBASE
  2

  9
$UCSNAME
  2

  9
$UCSORG
 10
0.0
 20
0.0
 30
0.0
  9
$UCSXDIR
 10
1.0
 20
0.0
 30
0.0
  9
$UCSYDIR
 10
0.0
 20
1.0
 30
0.0
  9
$UCSORTHOREF
  2

  9
$UCSORTHOVIEW
 70
     0
  9
$UCSORGTOP
 10
0.0
 20
0.0
 30
0.0
  9
$UCSORGBOTTOM
 10
0.0
 20
0.0
 30
0.0
  9
$UCSORGLEFT
 10
0.0
 20
0.0
 30
0.0
  9
$UCSORGRIGHT
 10
0.0
 20
0.0
 30
0.0
  9
$UCSORGFRONT
 10
0.0
 20
0.0
 30
0.0
  9
$UCSORGBACK
 10
0.0
 20
0.0
 30
0.0
  9
$PUCSBASE
  2

  9
$PUCSNAME
  2

  9
$PUCSORG
 10
0.0
 20
0.0
 30
0.0
  9
$PUCSXDIR
 10
1.0
 20
0.0
 30
0.0
  9
$PUCSYDIR
 10
0.0
 20
1.0
 30
0.0
  9
$PUCSORTHOREF
  2

  9
$PUCSORTHOVIEW
 70
     0
  9
$PUCSORGTOP
 10
0.0
 20
0.0
 30
0.0
  9
$PUCSORGBOTTOM
 10
0.0
 20
0.0
 30
0.0
  9
$PUCSORGLEFT
 10
0.0
 20
0.0
 30
0.0
  9
$PUCSORGRIGHT
 10
0.0
 20
0.0
 30
0.0
  9
$PUCSORGFRONT
 10
0.0
 20
0.0
 30
0.0
  9
$PUCSORGBACK
 10
0.0
 20
0.0
 30
0.0
  9
$USERI1
 70
     0
  9
$USERI2
 70
     0
  9
$USERI3
 70
     0
  9
$USERI4
 70
     0
  9
$USERI5
 70
     0
  9
$USERR1
 40
0.0
  9
$USERR2
 40
0.0
  9
$USERR3
 40
0.0
  9
$USERR4
 40
0.0
  9
$USERR5
 40
0.0
  9
$WORLDVIEW
 70
     1
  9
$SHADEDGE
 70
     3
  9
$SHADEDIF
 70
    70
  9
$TILEMODE
 70
     1
  9
$MAXACTVP
 70
    16
  9
$PINSBASE
 10
0.0
 20
0.0
 30
0.0
  9
$PLIMCHECK
 70
     0
  9
$PEXTMIN
 10
1.000000000000000E+20
 20
1.000000000000000E+20
 30
1.000000000000000E+20
  9
$PEXTMAX
 10
-1.000000000000000E+20
 20
-1.000000000000000E+20
 30
-1.000000000000000E+20
  9
$PLIMMIN
 10
0.0
 20
0.0
  9
$PLIMMAX
 10
12.0
 20
9.0
  9
$UNITMODE
 70
     0
  9
$VISRETAIN
 70
     1
  9
$PLINEGEN
 70
     0
  9
$PSLTSCALE
 70
     1
  9
$TREEDEPTH
 70
  3020
  9
$CMLSTYLE
  2
STANDARD
  9
$CMLJUST
 70
     0
  9
$CMLSCALE
 40
1.0
  9
$PROXYGRAPHICS
 70
     1
  9
$MEASUREMENT
 70
     0
  9
$CELWEIGHT
370
    -1
  9
$ENDCAPS
280
     0
  9
$JOINSTYLE
280
     0
  9
$LWDISPLAY
290
     0
  9
$INSUNITS
 70
     0
  9
$HYPERLINKBASE
  1

  9
$STYLESHEET
  1
monochrome2.ctb
  9
$XEDIT
290
     1
  9
$CEPSNTYPE
380
     0
  9
$PSTYLEMODE
290
     1
  9
$FINGERPRINTGUID
  2
{E59B5705-F463-11D5-8103-00A0C992F75F}
  9
$VERSIONGUID
  2
{AE225C42-A7AB-4C3D-AFCD-D74730B20A4C}
  9
$EXTNAMES
290
     1
  9
$PSVPSCALE
 40
0.0
  9
$OLESTARTUP
290
     0
  9
$SORTENTS
280
   127
  9
$INDEXCTL
280
     0
  9
$HIDETEXT
280
     0
  9
$XCLIPFRAME
280
     2
  9
$HALOGAP
280
     0
  9
$OBSCOLOR
 70
   257
  9
$OBSLTYPE
280
     0
  9
$INTERSECTIONDISPLAY
280
     0
  9
$INTERSECTIONCOLOR
 70
   257
  9
$DIMASSOC
280
     2
  9
$PROJECTNAME
  1

  9
$CAMERADISPLAY
290
     0
  9
$LENSLENGTH
 40
50.0
  9
$CAMERAHEIGHT
 40
0.0
  9
$STEPSPERSEC
 40
2.0
  9
$STEPSIZE
 40
6.0
  9
$3DDWFPREC
 40
2.0
  9
$PSOLWIDTH
 40
0.25
  9
$PSOLHEIGHT
 40
4.0
  9
$LOFTANG1
 40
1.570796326794896
  9
$LOFTANG2
 40
1.570796326794896
  9
$LOFTMAG1
 40
0.0
  9
$LOFTMAG2
 40
0.0
  9
$LOFTPARAM
 70
     7
  9
$LOFTNORMALS
280
     1
  9
$LATITUDE
 40
37.795
  9
$LONGITUDE
 40
-122.394
  9
$NORTHDIRECTION
 40
0.0
  9
$TIMEZONE
 70
 -8000
  9
$LIGHTGLYPHDISPLAY
280
     1
  9
$TILEMODELIGHTSYNCH
280
     1
  9
$CMATERIAL
347
C219
  9
$SOLIDHIST
280
     0
  9
$SHOWHIST
280
     1
  9
$DWFFRAME
280
     2
  9
$DGNFRAME
280
     0
  9
$REALWORLDSCALE
290
     1
  9
$INTERFERECOLOR
 62
     1
  9
$INTERFEREOBJVS
345
C233
  9
$INTERFEREVPVS
346
C28F
  9
$CSHADOW
280
     0
  9
$SHADOWPLANELOCATION
 40
0.0
  0
ENDSEC
  0
SECTION
  2
CLASSES
  0
CLASS
  1
DICTIONARYVAR
  2
AcDbDictionaryVar
  3
ObjectDBX Classes
 90
        0
 91
       14
280
     0
281
     0
  0
CLASS
  1
ACDBDICTIONARYWDFLT
  2
AcDbDictionaryWithDefault
  3
ObjectDBX Classes
 90
        0
 91
        1
280
     0
281
     0
  0
CLASS
  1
TABLESTYLE
  2
AcDbTableStyle
  3
ObjectDBX Classes
 90
     4095
 91
        1
280
     0
281
     0
  0
CLASS
  1
SORTENTSTABLE
  2
AcDbSortentsTable
  3
ObjectDBX Classes
 90
        0
 91
        2
280
     0
281
     0
  0
CLASS
  1
MATERIAL
  2
AcDbMaterial
  3
ObjectDBX Classes
 90
     1153
 91
        3
280
     0
281
     0
  0
CLASS
  1
VISUALSTYLE
  2
AcDbVisualStyle
  3
ObjectDBX Classes
 90
     4095
 91
       26
280
     0
281
     0
  0
CLASS
  1
SCALE
  2
AcDbScale
  3
ObjectDBX Classes
 90
     1153
 91
       33
280
     0
281
     0
  0
CLASS
  1
MLEADERSTYLE
  2
AcDbMLeaderStyle
  3
ACDB_MLEADERSTYLE_CLASS
 90
     4095
 91
        1
280
     0
281
     0
  0
CLASS
  1
CELLSTYLEMAP
  2
AcDbCellStyleMap
  3
ObjectDBX Classes
 90
     1152
 91
        1
280
     0
281
     0
  0
CLASS
  1
EXACXREFPANELOBJECT
  2
ExAcXREFPanelObject
  3
EXAC_ESW
 90
     1025
 91
        1
280
     0
281
     0
  0
CLASS
  1
NPOCOLLECTION
  2
AcDbImpNonPersistentObjectsCollection
  3
ObjectDBX Classes
 90
     1153
 91
        1
280
     0
281
     0
  0
CLASS
  1
ACAD_EVALUATION_GRAPH
  2
AcDbEvalGraph
  3
ObjectDBX Classes
 90
     1153
 91
        0
280
     0
281
     0
  0
CLASS
  1
ACAECUSTOBJ
  2
AcAeEditorObj
  3
AcAeEditorObj
 90
     1024
 91
        0
280
     0
281
     0
  0
CLASS
  1
ACDB_DYNAMICBLOCKPURGEPREVENTER_VERSION
  2
AcDbDynamicBlockPurgePreventer
  3
ObjectDBX Classes
 90
     1153
 91
        0
280
     0
281
     0
  0
CLASS
  1
ACDBSECTIONVIEWSTYLE
  2
AcDbSectionViewStyle
  3
ObjectDBX Classes
 90
     1025
 91
        1
280
     0
281
     0
  0
CLASS
  1
ACDBDETAILVIEWSTYLE
  2
AcDbDetailViewStyle
  3
ObjectDBX Classes
 90
     1025
 91
        1
280
     0
281
     0
  0
ENDSEC
  0
SECTION
  2
TABLES
  0
TABLE
  2
VPORT
  5
8
102
{ACAD_XDICTIONARY
360
C277
102
}
330
0
100
AcDbSymbolTable
 70
     1
  0
VPORT
  5
C210
330
8
100
AcDbSymbolTableRecord
100
AcDbViewportTableRecord
  2
*Active
 70
     0
 10
0.0
 20
0.0
 11
1.0
 21
1.0
 12
41.17115812006017
 22
23.40858946709852
 13
0.0
 23
0.0
 14
1.0
 24
1.0
 15
0.0
 25
0.0
 16
0.0
 26
0.0
 36
1.0
 17
0.0
 27
0.0
 37
0.0
 40
47.14975477486823
 41
1.836662749706228
 42
50.0
 43
0.0
 44
0.0
 50
0.0
 51
0.0
 71
     0
 72
  2000
 73
     1
 74
     0
 75
     0
 76
     0
 77
     0
 78
     1
281
     0
 65
     1
110
0.0
120
0.0
130
0.0
111
1.0
121
0.0
131
0.0
112
0.0
122
1.0
132
0.0
 79
     0
146
0.0
348
C22F
 60
     3
 61
     5
292
     1
282
     1
141
0.0
142
0.0
 63
   250
421
  3355443
1001
ACAD_NAV_VCDISPLAY
1070
     0
  0
ENDTAB
  0
TABLE
  2
LTYPE
  5
5
330
0
100
AcDbSymbolTable
 70
     5
  0
LTYPE
  5
11
330
5
100
AcDbSymbolTableRecord
100
AcDbLinetypeTableRecord
  2
BYBLOCK
 70
     0
  3

 72
    65
 73
     0
 40
0.0
  0
LTYPE
  5
12
330
5
100
AcDbSymbolTableRecord
100
AcDbLinetypeTableRecord
  2
BYLAYER
 70
     0
  3

 72
    65
 73
     0
 40
0.0
  0
LTYPE
  5
13
330
5
100
AcDbSymbolTableRecord
100
AcDbLinetypeTableRecord
  2
CONTINUOUS
 70
     0
  3
Solid line
 72
    65
 73
     0
 40
0.0
  0
LTYPE
  5
985C
330
5
100
AcDbSymbolTableRecord
100
AcDbLinetypeTableRecord
  2
HIDDEN
 70
     0
  3
Hidden __ __ __ __ __ __ __ __ __ __ __ __ __ _
 72
    65
 73
     2
 40
0.375
 49
0.25
 74
     0
 49
-0.125
 74
     0
  0
LTYPE
  5
98AB
330
5
100
AcDbSymbolTableRecord
100
AcDbLinetypeTableRecord
  2
CENTER
 70
     0
  3
CENTER LINE
 72
    65
 73
     4
 40
2.0
 49
1.25
 74
     0
 49
-0.25
 74
     0
 49
0.25
 74
     0
 49
-0.25
 74
     0
  0
LTYPE
  5
C8D9
330
5
100
AcDbSymbolTableRecord
100
AcDbLinetypeTableRecord
  2
DASHED
 70
     0
  3
Dashed __ __ __ __ __ __ __ __ __ __ __ __ __ _
 72
    65
 73
     2
 40
0.75
 49
0.5
 74
     0
 49
-0.25
 74
     0
  0
LTYPE
  5
C8DA
330
5
100
AcDbSymbolTableRecord
100
AcDbLinetypeTableRecord
  2
DOT
 70
     0
  3
Dot . . . . . . . . . . . . . . . . . . . . . .
 72
    65
 73
     2
 40
0.25
 49
0.0
 74
     0
 49
-0.25
 74
     0
  0
ENDTAB
  0
TABLE
  2
LAYER
  5
2
102
{ACAD_XDICTIONARY
360
C13B
102
}
330
0
100
AcDbSymbolTable
 70
    10
  0
LAYER
  5
E
102
{ACAD_XDICTIONARY
360
C261
102
}
330
2
100
AcDbSymbolTableRecord
100
AcDbLayerTableRecord
  2
0
 70
     0
 62
     7
  6
CONTINUOUS
370
    -3
390
ACB7
347
C1E2
348
0
  0
LAYER
  5
A48F
102
{ACAD_XDICTIONARY
360
C263
102
}
330
2
100
AcDbSymbolTableRecord
100
AcDbLayerTableRecord
  2
R-SWTS-DET1
 70
     0
 62
     1
  6
CONTINUOUS
370
    -3
390
ACB7
347
C1E2
348
0
  0
LAYER
  5
A491
102
{ACAD_XDICTIONARY
360
C265
102
}
330
2
100
AcDbSymbolTableRecord
100
AcDbLayerTableRecord
  2
R-SWTS-DET2
 70
     0
 62
     4
  6
CONTINUOUS
370
    -3
390
ACB7
347
C1E2
348
0
  0
LAYER
  5
A492
102
{ACAD_XDICTIONARY
360
C267
102
}
330
2
100
AcDbSymbolTableRecord
100
AcDbLayerTableRecord
  2
R-SWTS-DET3
 70
     0
 62
     5
  6
CONTINUOUS
370
    -3
390
ACB7
347
C1E2
348
0
  0
LAYER
  5
A682
102
{ACAD_XDICTIONARY
360
C269
102
}
330
2
100
AcDbSymbolTableRecord
100
AcDbLayerTableRecord
  2
R-ANNO-DIMS
 70
     0
 62
     3
  6
CONTINUOUS
370
    -3
390
ACB7
347
C1E2
348
0
  0
LAYER
  5
B401
102
{ACAD_XDICTIONARY
360
C26B
102
}
330
2
100
AcDbSymbolTableRecord
100
AcDbLayerTableRecord
  2
R-ANNO-TEXT
 70
     0
 62
     6
  6
CONTINUOUS
370
    -3
390
ACB7
347
C1E2
348
0
  0
LAYER
  5
C158
102
{ACAD_XDICTIONARY
360
C271
102
}
330
2
100
AcDbSymbolTableRecord
100
AcDbLayerTableRecord
  2
HIDDEN
 70
     0
 62
     3
  6
HIDDEN
370
    -3
390
ACB7
347
C1E2
348
0
  0
LAYER
  5
C328
330
2
100
AcDbSymbolTableRecord
100
AcDbLayerTableRecord
  2
filler
 70
     0
 62
     1
  6
HIDDEN
370
    -3
390
ACB7
347
C1E2
348
0
1001
AcAecLayerStandard
1000

1000

1001
AcCmTransparency
1071
        0
  0
LAYER
  5
C822
330
2
100
AcDbSymbolTableRecord
100
AcDbLayerTableRecord
  2
TEXT
 70
     0
 62
     3
  6
CONTINUOUS
370
    -3
390
ACB7
347
C1E2
348
0
1001
AcAecLayerStandard
1000

1000

1001
AcCmTransparency
1071
        0
  0
LAYER
  5
C8DB
330
2
100
AcDbSymbolTableRecord
100
AcDbLayerTableRecord
  2
Kawneer Logo-English
 70
     0
 62
     7
  6
CONTINUOUS
370
    -3
390
ACB7
347
C1E2
348
0
1001
AcAecLayerStandard
1000

1000

1001
AcCmTransparency
1071
        0
  0
ENDTAB
  0
TABLE
  2
STYLE
  5
3
330
0
100
AcDbSymbolTable
 70
     1
  0
STYLE
  5
F
330
3
100
AcDbSymbolTableRecord
100
AcDbTextStyleTableRecord
  2
STANDARD
 70
     0
 40
0.0
 41
1.0
 50
0.0
 71
     0
 42
0.25
  3
arial.ttf
  4

1001
ACAD
1000
Arial
1071
       34
  0
ENDTAB
  0
TABLE
  2
VIEW
  5
6
330
0
100
AcDbSymbolTable
 70
     1
  0
ENDTAB
  0
TABLE
  2
UCS
  5
7
330
0
100
AcDbSymbolTable
 70
     0
  0
ENDTAB
  0
TABLE
  2
APPID
  5
9
330
0
100
AcDbSymbolTable
 70
    15
  0
APPID
  5
10
330
9
100
AcDbSymbolTableRecord
100
AcDbRegAppTableRecord
  2
ACAD
 70
     0
  0
APPID
  5
C32E
330
9
100
AcDbSymbolTableRecord
100
AcDbRegAppTableRecord
  2
ACAD_NAV_VCDISPLAY
 70
     0
  0
APPID
  5
C331
330
9
100
AcDbSymbolTableRecord
100
AcDbRegAppTableRecord
  2
AcAecLayerStandard
 70
     0
  0
APPID
  5
C333
330
9
100
AcDbSymbolTableRecord
100
AcDbRegAppTableRecord
  2
AcCmTransparency
 70
     0
  0
ENDTAB
  0
TABLE
  2
DIMSTYLE
  5
A
330
0
100
AcDbSymbolTable
 70
     1
100
AcDbDimStyleTable
 71
     1
340
26C
  0
DIMSTYLE
105
26C
330
A
100
AcDbSymbolTableRecord
100
AcDbDimStyleTableRecord
  2
STANDARD
 70
     0
340
F
  0
ENDTAB
  0
TABLE
  2
BLOCK_RECORD
  5
1
330
0
100
AcDbSymbolTable
 70
     1
  0
BLOCK_RECORD
  5
17
102
{ACAD_XDICTIONARY
360
ACE4
102
}
330
1
100
AcDbSymbolTableRecord
100
AcDbBlockTableRecord
  2
*MODEL_SPACE
340
ACBA
 70
     0
280
     1
281
     0
  0
BLOCK_RECORD
  5
14
102
{ACAD_XDICTIONARY
360
ACE2
102
}
330
1
100
AcDbSymbolTableRecord
100
AcDbBlockTableRecord
  2
*PAPER_SPACE
340
ACBB
 70
     0
280
     1
281
     0
  0
BLOCK_RECORD
  5
C8E7
102
{ACAD_XDICTIONARY
360
C8F1
102
}
330
1
100
AcDbSymbolTableRecord
100
AcDbBlockTableRecord
  2
Kawneer Logo English
340
0
102
{BLKREFS
331
C8F5
102
}
 70
     1
280
     1
281
     0
  0
ENDTAB
  0
ENDSEC
  0
SECTION
  2
BLOCKS
  0
BLOCK
  5
3C
330
17
100
AcDbEntity
  8
0
100
AcDbBlockBegin
  2
*MODEL_SPACE
 70
     0
 10
0.0
 20
0.0
 30
0.0
  3
*MODEL_SPACE
  1

  0
ENDBLK
  5
3D
330
17
100
AcDbEntity
  8
0
100
AcDbBlockEnd
  0
BLOCK
  5
3A
330
14
100
AcDbEntity
 67
     1
  8
0
100
AcDbBlockBegin
  2
*PAPER_SPACE
 70
     0
 10
0.0
 20
0.0
 30
0.0
  3
*PAPER_SPACE
  1

  0
ENDBLK
  5
3B
330
14
100
AcDbEntity
 67
     1
  8
0
100
AcDbBlockEnd
  0
BLOCK
  5
C8F3
330
C8E7
100
AcDbEntity
  8
0
100
AcDbBlockBegin
  2
Kawneer Logo English
 70
     0
 10
0.0
 20
0.0
 30
0.0
  3
Kawneer Logo English
  1

  0
MTEXT
  5
C8E8
102
{ACAD_XDICTIONARY
360
C98C
102
}
330
C8E7
100
AcDbEntity
  8
Kawneer Logo-English
100
AcDbMText
 10
1.510096758583198
 20
0.0372523876656778
 30
0.0
 40
0.036
 41
0.6125900866323382
 46
0.0
 71
     3
 72
     5
  1
{\fArial TUR|b0|i0|c0|p34;\T1.05;AN ARCONIC COMPANY}
 73
     1
 44
1.0
1001
ACAD
1000
ACAD_MTEXT_COLUMN_INFO_BEGIN
1070
    75
1070
     2
1070
    79
1070
     0
1070
    76
1070
     1
1070
    78
1070
     0
1070
    48
1040
0.6125900866323382
1070
    49
1040
1.0
1070
    50
1070
     1
1040
0.0
1000
ACAD_MTEXT_COLUMN_INFO_END
  0
HATCH
  5
C8E9
330
C8E7
100
AcDbEntity
  8
Kawneer Logo-English
100
AcDbHatch
 10
0.0
 20
0.0
 30
0.0
210
0.0
220
0.0
230
1.0
  2
SOLID
 70
     1
 71
     0
 91
        1
 92
        1
 93
       81
 72
     1
 10
0.2706169776412204
 20
0.0336337282279411
 11
0.2687512969786691
 21
0.0350329887248546
 72
     1
 10
0.2687512969786696
 20
0.0350329887248547
 11
0.2633408230572721
 21
0.039137486182467
 72
     1
 10
0.2633408230572729
 20
0.0391374861824669
 11
0.2550385441089194
 21
0.0453875164020133
 72
     1
 10
0.2550385441089191
 20
0.0453875164020132
 11
0.2442175962661241
 21
0.053596511317238
 72
     1
 10
0.2442175962661235
 20
0.0535965113172379
 11
0.2314376837276472
 21
0.0632980507625037
 72
     1
 10
0.2314376837276479
 20
0.0632980507625037
 11
0.2172585106922595
 21
0.0741189986052996
 72
     1
 10
0.2172585106922598
 20
0.0741189986052996
 11
0.2019599292593419
 21
0.0856862187131167
 72
     1
 10
0.201959929259341
 20
0.0856862187131167
 11
0.1862882116939105
 21
0.0976265749534437
 72
     1
 10
0.1862882116939102
 20
0.0976265749534437
 11
0.1706164941284813
 21
0.1095669311937706
 72
     1
 10
0.1706164941284811
 20
0.1095669311937709
 11
0.1553179126955632
 21
0.1211341513015875
 72
     1
 10
0.1553179126955642
 20
0.1211341513015876
 11
0.1411387396601757
 21
0.131955099144384
 72
     1
 10
0.1411387396601755
 20
0.1319550991443839
 11
0.1284521111548274
 21
0.141749922622777
 72
     1
 10
0.1284521111548278
 20
0.1417499226227768
 11
0.117631163312031
 21
0.1499589175380016
 72
     1
 10
0.1176311633120304
 20
0.1499589175380017
 11
0.1094221683968068
 21
0.1563022317906752
 72
     1
 10
0.1094221683968062
 20
0.1563022317906754
 11
0.1041049785085351
 21
0.1604067292482882
 72
     1
 10
0.1041049785085351
 20
0.1604067292482878
 11
0.1023325818791119
 21
0.1618992737783286
 72
     1
 10
0.1023325818791116
 20
0.1618992737783289
 11
0.1043848306079176
 21
0.1636716704077524
 72
     1
 10
0.1043848306079194
 20
0.1636716704077524
 11
0.1100751566286996
 21
0.1683358720641301
 72
     1
 10
0.1100751566286986
 20
0.1683358720641301
 11
0.1189371397758159
 21
0.1757053106812067
 72
     1
 10
0.1189371397758161
 20
0.1757053106812067
 11
0.1304110758505067
 21
0.1851269980270901
 72
     1
 10
0.1304110758505059
 20
0.1851269980270902
 11
0.1439372606540007
 21
0.1963210820023967
 72
     1
 10
0.1439372606540017
 20
0.1963210820023967
 11
0.1589559899875385
 21
0.2087278584083611
 72
     1
 10
0.1589559899875379
 20
0.2087278584083611
 11
0.1750941277186041
 21
0.2220674751456017
 72
     1
 10
0.1750941277186047
 20
0.2220674751456017
 11
0.19169868561531
 21
0.2358735120484796
 72
     1
 10
0.1916986856153105
 20
0.2358735120484796
 11
0.208303243512014
 21
0.2495862649182301
 72
     1
 10
0.2083032435120131
 20
0.2495862649182304
 11
0.2244413812430811
 21
0.2628325976223432
 72
     1
 10
0.2244413812430812
 20
0.2628325976223429
 11
0.239460110576618
 21
0.2753326580614352
 72
     1
 10
0.2394601105766174
 20
0.2753326580614351
 11
0.2529862953801122
 21
0.2864334580036143
 72
     1
 10
0.2529862953801132
 20
0.2864334580036143
 11
0.2643669474216756
 21
0.2958551453494973
 72
     1
 10
0.2643669474216757
 20
0.2958551453494973
 11
0.2731356465356649
 21
0.3031312999334466
 72
     1
 10
0.273135646535664
 20
0.3031312999334466
 11
0.2788259725564443
 21
0.3077955015898243
 72
     1
 10
0.278825972556445
 20
0.3077955015898246
 11
0.2807849372521245
 21
0.3094746141861208
 72
     1
 10
0.2807849372521249
 20
0.3094746141861205
 11
0.2798520969208501
 21
0.3094746141861205
 72
     1
 10
0.2798520969208496
 20
0.3094746141861205
 11
0.2769602918938953
 21
0.3095678982192478
 72
     1
 10
0.2769602918938943
 20
0.3095678982192481
 11
0.2724826583037715
 21
0.3095678982192481
 72
     1
 10
0.2724826583037729
 20
0.3095678982192481
 11
0.2666057642167363
 21
0.3095678982192481
 72
     1
 10
0.266605764216735
 20
0.3095678982192481
 11
0.2597027457652953
 21
0.3095678982192481
 72
     1
 10
0.2597027457652956
 20
0.3095678982192481
 11
0.2519601710157094
 21
0.3095678982192481
 72
     1
 10
0.2519601710157104
 20
0.3095678982192481
 11
0.2437511761004851
 21
0.3095678982192481
 72
     1
 10
0.243751176100484
 20
0.3095678982192481
 11
0.2351690450527495
 21
0.3095678982192481
 72
     1
 10
0.2351690450527495
 20
0.3095678982192481
 11
0.2266801980381413
 21
0.3095678982192481
 72
     1
 10
0.2266801980381423
 20
0.3095678982192481
 11
0.2183779190897905
 21
0.3094746141861208
 72
     1
 10
0.2183779190897899
 20
0.3094746141861205
 11
0.2106353443402037
 21
0.3094746141861205
 72
     1
 10
0.2106353443402029
 20
0.3094746141861205
 11
0.2037323258887632
 21
0.3094746141861205
 72
     1
 10
0.203732325888764
 20
0.3094746141861205
 11
0.1978554318017273
 21
0.3094746141861205
 72
     1
 10
0.1978554318017278
 20
0.3094746141861205
 11
0.1932845141784786
 21
0.3094746141861205
 72
     1
 10
0.1932845141784787
 20
0.3094746141861205
 11
0.1903927091515244
 21
0.3094746141861205
 72
     1
 10
0.1903927091515234
 20
0.3094746141861205
 11
0.1893665847871204
 21
0.3094746141861205
 72
     1
 10
0.1893665847871206
 20
0.3094746141861205
 11
0.1879673242902067
 21
0.3077955015898243
 72
     1
 10
0.1879673242902076
 20
0.3077955015898246
 11
0.1841426789319786
 21
0.3030380159003196
 72
     1
 10
0.1841426789319787
 20
0.3030380159003192
 11
0.1780792167786874
 21
0.29576186131637
 72
     1
 10
0.1780792167786873
 20
0.29576186131637
 11
0.170243357995973
 21
0.2862468899373593
 72
     1
 10
0.170243357995973
 20
0.2862468899373593
 11
0.1610082387163447
 21
0.2750528059620528
 72
     1
 10
0.1610082387163438
 20
0.2750528059620528
 11
0.1507469950723126
 21
0.2624594614898328
 72
     1
 10
0.1507469950723133
 20
0.2624594614898328
 11
0.1396461951301336
 21
0.2491198447525922
 72
     1
 10
0.1396461951301333
 20
0.2491198447525922
 11
0.1282655430885727
 21
0.2352205238165866
 72
     1
 10
0.1282655430885726
 20
0.2352205238165868
 11
0.1168848910470102
 21
0.2214144869137089
 72
     1
 10
0.1168848910470102
 20
0.2214144869137087
 11
0.1058773751379587
 21
0.2079815861433408
 72
     1
 10
0.105877375137958
 20
0.2079815861433408
 11
0.0955228474608004
 21
0.1954815257042486
 72
     1
 10
0.0955228474608019
 20
0.1954815257042488
 11
0.0862877281811736
 21
0.1842874417289424
 72
     1
 10
0.0862877281811727
 20
0.1842874417289424
 11
0.0784518693984583
 21
0.1747724703499316
 72
     1
 10
0.0784518693984584
 20
0.1747724703499314
 11
0.0723884072451672
 21
0.1674963157659821
 72
     1
 10
0.0723884072451671
 20
0.1674963157659822
 11
0.0685637618869363
 21
0.1627388300764767
 72
     1
 10
0.0685637618869364
 20
0.1627388300764767
 11
0.0671645013900242
 21
0.1611530015133082
 72
     1
 10
0.0671645013900251
 20
0.1611530015133082
 11
0.0680040576881734
 21
0.1596604569832674
 72
     1
 10
0.0680040576881726
 20
0.1596604569832674
 11
0.0704294425494878
 21
0.1556492435587824
 72
     1
 10
0.0704294425494871
 20
0.1556492435587824
 11
0.0742540879077179
 21
0.1493059293061089
 72
     1
 10
0.0742540879077192
 20
0.1493059293061089
 11
0.0791048576303511
 21
0.1411902184240116
 72
     1
 10
0.0791048576303508
 20
0.1411902184240116
 11
0.0848884676842594
 21
0.1314886789787458
 72
     1
 10
0.0848884676842596
 20
0.1314886789787459
 11
0.0913250659700619
 21
0.1207610151690772
 72
     1
 10
0.0913250659700613
 20
0.1207610151690775
 11
0.0982280844214992
 21
0.1091937950612604
 72
     1
 10
0.0982280844214985
 20
0.1091937950612603
 11
0.1053176709391927
 21
0.0973467228540611
 72
     1
 10
0.105317670939193
 20
0.0973467228540612
 11
0.1124072574568872
 21
0.0854996506468619
 72
     1
 10
0.1124072574568871
 20
0.0854996506468617
 11
0.1193102759083267
 21
0.0739324305390446
 72
     1
 10
0.1193102759083278
 20
0.0739324305390448
 11
0.1257468741941283
 21
0.0632047667293762
 72
     1
 10
0.1257468741941277
 20
0.063204766729376
 11
0.1315304842480362
 21
0.0535032272841102
 72
     1
 10
0.1315304842480365
 20
0.0535032272841104
 11
0.1363812539706702
 21
0.0453875164020132
 72
     1
 10
0.1363812539706699
 20
0.0453875164020132
 11
0.1402058993288989
 21
0.0391374861824667
 72
     1
 10
0.1402058993288988
 20
0.0391374861824669
 11
0.1426312841902157
 21
0.0350329887248546
 72
     1
 10
0.1426312841902164
 20
0.0350329887248547
 11
0.1434708404883648
 21
0.0336337282279412
 72
     1
 10
0.143470840488364
 20
0.0336337282279411
 11
0.2706169776412211
 21
0.0336337282279411
 97
        0
 75
     0
 76
     1
 98
        1
 10
-0.3743130907707726
 20
-0.2500502867693841
450
        0
451
        0
460
0.0
461
0.0
452
        0
462
0.0
453
        0
470

1001
ACAD
1010
0.0
1020
0.0
1030
0.0
  0
HATCH
  5
C8EA
330
C8E7
100
AcDbEntity
  8
Kawneer Logo-English
100
AcDbHatch
 10
0.0
 20
0.0
 30
0.0
210
0.0
220
0.0
230
1.0
  2
SOLID
 70
     1
 71
     0
 91
        1
 92
        1
 93
       18
 72
     1
 10
0.0001865656044393
 20
0.2563959993365415
 11
-0.0000000024618153
 21
0.113671428651383
 72
     1
 10
-0.0000000024618159
 20
0.1136714286513832
 11
0.0012126899688416
 21
0.1152572572145516
 72
     1
 10
0.0012126899688421
 20
0.1152572572145516
 11
0.0045709151614355
 21
0.1197348908046738
 72
     1
 10
0.004570915161435
 20
0.119734890804674
 11
0.0098881050497044
 21
0.1268244773223682
 72
     1
 10
0.0098881050497044
 20
0.1268244773223682
 11
0.0166978394680158
 21
0.1359663125688683
 72
     1
 10
0.016697839468016
 20
0.1359663125688683
 11
0.0248135503501131
 21
0.1467872604116651
 72
     1
 10
0.024813550350113
 20
0.1467872604116652
 11
0.0338621015634867
 21
0.1588209006851195
 72
     1
 10
0.0338621015634872
 20
0.1588209006851194
 11
0.0434703569756247
 21
0.1716940972567221
 72
     1
 10
0.0434703569756247
 20
0.1716940972567224
 11
0.0534517485202732
 21
0.1850337139939626
 72
     1
 10
0.0534517485202724
 20
0.1850337139939624
 11
0.0634331400649208
 21
0.1983733307312025
 72
     1
 10
0.0634331400649222
 20
0.1983733307312024
 11
0.0730413954770597
 21
0.2112465273028051
 72
     1
 10
0.0730413954770595
 20
0.2112465273028053
 11
0.0820899466904331
 21
0.2233734516093873
 72
     1
 10
0.0820899466904321
 20
0.2233734516093873
 11
0.0902056575725293
 21
0.2341943994521837
 72
     1
 10
0.0902056575725308
 20
0.2341943994521837
 11
0.0970153919908422
 21
0.2433362346986839
 72
     1
 10
0.0970153919908405
 20
0.2433362346986839
 11
0.1022392978459834
 21
0.2503325371832507
 72
     1
 10
0.1022392978459843
 20
0.2503325371832508
 11
0.1056908070717041
 21
0.2549034548065008
 72
     1
 10
0.1056908070717046
 20
0.254903454806501
 11
0.1069034995023621
 21
0.2564892833696694
 72
     1
 10
0.1069034995023625
 20
0.2564892833696695
 11
0.0001865656044399
 21
0.2563959993365418
 97
        0
 75
     0
 76
     1
 98
        1
 10
-0.3743130907707726
 20
-0.2500502867693841
450
        0
451
        0
460
0.0
461
0.0
452
        0
462
0.0
453
        0
470

1001
ACAD
1010
0.0
1020
0.0
1030
0.0
  0
HATCH
  5
C8EB
330
C8E7
100
AcDbEntity
  8
Kawneer Logo-English
100
AcDbHatch
 10
0.0
 20
0.0
 30
0.0
210
0.0
220
0.0
230
1.0
  2
SOLID
 70
     1
 71
     0
 91
        2
 92
       16
 93
       76
 72
     1
 10
1.358402087941634
 20
0.1650709309046659
 11
1.358402087941634
 21
0.16796273593162
 72
     1
 10
1.358402087941634
 20
0.1679627359316202
 11
1.358402087941634
 21
0.1729067896873803
 72
     1
 10
1.358402087941634
 20
0.1729067896873803
 11
1.358402087941634
 21
0.1791568199069267
 72
     1
 10
1.358402087941634
 20
0.1791568199069267
 11
1.358402087941634
 21
0.1861531223914932
 72
     1
 10
1.358402087941634
 20
0.186153122391493
 11
1.358402087941634
 21
0.1931494248760595
 72
     1
 10
1.358402087941634
 20
0.1931494248760596
 11
1.358402087941634
 21
0.1994927391287338
 72
     1
 10
1.358402087941634
 20
0.1994927391287336
 11
1.358402087941634
 21
0.2044367928844937
 72
     1
 10
1.358402087941634
 20
0.2044367928844937
 11
1.358402087941634
 21
0.2072353138783208
 72
     1
 10
1.358402087941634
 20
0.2072353138783208
 11
1.359894632471676
 21
0.2072353138783208
 72
     1
 10
1.359894632471676
 20
0.2072353138783208
 11
1.362693153465502
 21
0.2072353138783208
 72
     1
 10
1.362693153465502
 20
0.2072353138783208
 11
1.366424514790605
 21
0.2072353138783208
 72
     1
 10
1.366424514790606
 20
0.2072353138783208
 11
1.371088716446983
 21
0.2072353138783208
 72
     1
 10
1.371088716446982
 20
0.2072353138783208
 11
1.376405906335254
 21
0.2072353138783208
 72
     1
 10
1.376405906335254
 20
0.2072353138783208
 11
1.382282800422289
 21
0.2072353138783208
 72
     1
 10
1.38228280042229
 20
0.2072353138783208
 11
1.388346262575581
 21
0.2072353138783208
 72
     1
 10
1.388346262575579
 20
0.2072353138783208
 11
1.394596292795125
 21
0.2072353138783208
 72
     1
 10
1.394596292795125
 20
0.2072353138783208
 11
1.400753038981545
 21
0.2072353138783208
 72
     1
 10
1.400753038981546
 20
0.2072353138783208
 11
1.406723217101709
 21
0.2072353138783208
 72
     1
 10
1.406723217101708
 20
0.2072353138783208
 11
1.412320259089362
 21
0.2072353138783208
 72
     1
 10
1.412320259089362
 20
0.2072353138783208
 11
1.417264312845122
 21
0.2072353138783208
 72
     1
 10
1.417264312845123
 20
0.2072353138783208
 11
1.421368810302735
 21
0.2072353138783208
 72
     1
 10
1.421368810302734
 20
0.2072353138783208
 11
1.424540467429071
 21
0.2072353138783208
 72
     1
 10
1.424540467429072
 20
0.2072353138783208
 11
1.426592716157878
 21
0.2072353138783208
 72
     1
 10
1.426592716157878
 20
0.2072353138783208
 11
1.427338988422898
 21
0.2072353138783208
 72
     1
 10
1.427338988422898
 20
0.2072353138783208
 11
1.430977065714873
 21
0.207142029845193
 72
     1
 10
1.430977065714872
 20
0.207142029845193
 11
1.434335290907465
 21
0.2068621777458102
 72
     1
 10
1.434335290907465
 20
0.2068621777458102
 11
1.435921119470633
 21
0.2066756096795552
 72
     1
 10
1.435921119470633
 20
0.206675609679555
 11
1.437413664000673
 21
0.2063957575801723
 72
     1
 10
1.437413664000674
 20
0.2063957575801723
 11
1.438906208530714
 21
0.2061159054807895
 72
     1
 10
1.438906208530714
 20
0.2061159054807898
 11
1.440398753060756
 21
0.2056494853151523
 72
     1
 10
1.440398753060756
 20
0.2056494853151521
 11
1.441704729524542
 21
0.2050897811163865
 72
     1
 10
1.441704729524542
 20
0.2050897811163866
 11
1.443010705988328
 21
0.204530076917621
 72
     1
 10
1.443010705988329
 20
0.204530076917621
 11
1.444223398418986
 21
0.2036905206194736
 72
     1
 10
1.444223398418985
 20
0.2036905206194736
 11
1.445436090849643
 21
0.2028509643213252
 72
     1
 10
1.445436090849643
 20
0.2028509643213252
 11
1.446555499247174
 21
0.2018248399569224
 72
     1
 10
1.446555499247173
 20
0.2018248399569223
 11
1.447581623611576
 21
0.2007054315593917
 72
     1
 10
1.447581623611578
 20
0.2007054315593915
 11
1.448607747975981
 21
0.1993061710624781
 72
     1
 10
1.448607747975981
 20
0.1993061710624781
 11
1.449540588307258
 21
0.1978136265324374
 72
     1
 10
1.449540588307256
 20
0.1978136265324373
 11
1.450380144605403
 21
0.1961345139361415
 72
     1
 10
1.450380144605404
 20
0.1961345139361415
 11
1.451126416870426
 21
0.1944554013398453
 72
     1
 10
1.451126416870426
 20
0.1944554013398454
 11
1.451592837036063
 21
0.1929628568098046
 72
     1
 10
1.451592837036062
 20
0.1929628568098046
 11
1.451965973168573
 21
0.1913770282466361
 72
     1
 10
1.451965973168574
 20
0.1913770282466361
 11
1.452245825267955
 21
0.1899777677497231
 72
     1
 10
1.452245825267954
 20
0.1899777677497231
 11
1.452432393334211
 21
0.188671791285937
 72
     1
 10
1.452432393334211
 20
0.1886717912859369
 11
1.452432393334211
 21
0.1874590988552789
 72
     1
 10
1.452432393334211
 20
0.1874590988552789
 11
1.452525677367338
 21
0.1863396904577482
 72
     1
 10
1.452525677367337
 20
0.1863396904577481
 11
1.452432393334211
 21
0.1844740097951972
 72
     1
 10
1.452432393334211
 20
0.1844740097951974
 11
1.452245825267955
 21
0.1827948971989012
 72
     1
 10
1.452245825267954
 20
0.1827948971989009
 11
1.451872689135445
 21
0.1810225005694773
 72
     1
 10
1.451872689135446
 20
0.1810225005694774
 11
1.451406268969809
 21
0.1794366720063093
 72
     1
 10
1.451406268969809
 20
0.1794366720063094
 11
1.450846564771043
 21
0.1779441274762682
 72
     1
 10
1.450846564771041
 20
0.1779441274762681
 11
1.450100292506021
 21
0.1764515829462274
 72
     1
 10
1.450100292506023
 20
0.1764515829462275
 11
1.449260736207875
 21
0.1750523224493141
 72
     1
 10
1.449260736207873
 20
0.1750523224493139
 11
1.448327895876597
 21
0.1737463459855283
 72
     1
 10
1.448327895876596
 20
0.1737463459855281
 11
1.44702191941281
 21
0.1723470854886151
 72
     1
 10
1.447021919412811
 20
0.1723470854886151
 11
1.445715942949025
 21
0.1711343930579568
 72
     1
 10
1.445715942949026
 20
0.1711343930579568
 11
1.444316682452114
 21
0.1700149846604262
 72
     1
 10
1.444316682452114
 20
0.1700149846604259
 11
1.442824137922072
 21
0.168988860296023
 72
     1
 10
1.442824137922072
 20
0.168988860296023
 11
1.441238309358904
 21
0.1682425880310024
 72
     1
 10
1.441238309358902
 20
0.1682425880310024
 11
1.439559196762608
 21
0.1674963157659821
 72
     1
 10
1.439559196762608
 20
0.1674963157659822
 11
1.437880084166311
 21
0.1669366115672166
 72
     1
 10
1.437880084166311
 20
0.1669366115672167
 11
1.436107687536888
 21
0.1664701914015788
 72
     1
 10
1.436107687536888
 20
0.1664701914015789
 11
1.434242006874337
 21
0.166003771235941
 72
     1
 10
1.434242006874337
 20
0.1660037712359412
 11
1.432376326211786
 21
0.1657239191365588
 72
     1
 10
1.432376326211785
 20
0.1657239191365585
 11
1.430417361516107
 21
0.1655373510703035
 72
     1
 10
1.430417361516108
 20
0.1655373510703037
 11
1.428458396820429
 21
0.1653507830040482
 72
     1
 10
1.428458396820428
 20
0.1653507830040482
 11
1.424353899362817
 21
0.1651642149377932
 72
     1
 10
1.424353899362817
 20
0.1651642149377932
 11
1.420156117872077
 21
0.1650709309046658
 72
     1
 10
1.420156117872076
 20
0.1650709309046659
 11
1.41773073301076
 21
0.1650709309046659
 72
     1
 10
1.417730733010761
 20
0.1650709309046659
 11
1.411107566658704
 21
0.1650709309046659
 72
     1
 10
1.411107566658702
 20
0.1650709309046659
 11
1.401779163345947
 21
0.1650709309046659
 72
     1
 10
1.401779163345949
 20
0.1650709309046659
 11
1.390958215503152
 21
0.1650709309046659
 72
     1
 10
1.390958215503152
 20
0.1650709309046659
 11
1.379950699594101
 21
0.1650709309046659
 72
     1
 10
1.379950699594099
 20
0.1650709309046659
 11
1.369969308049451
 21
0.1650709309046659
 72
     1
 10
1.369969308049451
 20
0.1650709309046659
 11
1.362320017332992
 21
0.1650709309046659
 72
     1
 10
1.362320017332992
 20
0.1650709309046659
 11
1.358402087941635
 21
0.1650709309046659
 97
        0
 92
        1
 93
      107
 72
     1
 10
1.443756978253348
 20
0.1485596570410883
 11
1.446928635379685
 21
0.1492126452729816
 72
     1
 10
1.446928635379685
 20
0.1492126452729817
 11
1.449540588307256
 21
0.1498656335048746
 72
     1
 10
1.449540588307256
 20
0.1498656335048745
 11
1.451872689135445
 21
0.1506119057698948
 72
     1
 10
1.451872689135446
 20
0.1506119057698946
 11
1.45401822189738
 21
0.1514514620680426
 72
     1
 10
1.45401822189738
 20
0.1514514620680425
 11
1.455883902559929
 21
0.1521977343330632
 72
     1
 10
1.455883902559929
 20
0.1521977343330631
 11
1.457563015156225
 21
0.1530372906312111
 72
     1
 10
1.457563015156225
 20
0.1530372906312111
 11
1.459148843719394
 21
0.1539701309624869
 72
     1
 10
1.459148843719394
 20
0.1539701309624866
 11
1.460641388249434
 21
0.1549029712937624
 72
     1
 10
1.460641388249434
 20
0.1549029712937622
 11
1.462133932779476
 21
0.155835811625038
 72
     1
 10
1.462133932779476
 20
0.155835811625038
 11
1.463439909243262
 21
0.1568619359894408
 72
     1
 10
1.463439909243262
 20
0.1568619359894408
 11
1.464745885707048
 21
0.1579813443869714
 72
     1
 10
1.464745885707047
 20
0.1579813443869716
 11
1.465865294104579
 21
0.1591007527845022
 72
     1
 10
1.465865294104579
 20
0.1591007527845025
 11
1.466984702502109
 21
0.1602201611820331
 72
     1
 10
1.466984702502108
 20
0.1602201611820328
 11
1.468010826866511
 21
0.1613395695795634
 72
     1
 10
1.468010826866511
 20
0.1613395695795637
 11
1.468943667197788
 21
0.1625522620102216
 72
     1
 10
1.468943667197788
 20
0.1625522620102216
 11
1.469876507529063
 21
0.1636716704077522
 72
     1
 10
1.469876507529063
 20
0.1636716704077524
 11
1.470622779794084
 21
0.1648843628384107
 72
     1
 10
1.470622779794084
 20
0.1648843628384107
 11
1.471462336092232
 21
0.1661903393021964
 72
     1
 10
1.471462336092232
 20
0.1661903393021967
 11
1.472115324324125
 21
0.1674030317328546
 72
     1
 10
1.472115324324124
 20
0.1674030317328546
 11
1.472768312556016
 21
0.1686157241635125
 72
     1
 10
1.472768312556017
 20
0.1686157241635125
 11
1.473328016754783
 21
0.1699217006272986
 72
     1
 10
1.473328016754782
 20
0.1699217006272989
 11
1.47379443692042
 21
0.1711343930579568
 72
     1
 10
1.47379443692042
 20
0.1711343930579568
 11
1.474260857086057
 21
0.1724403695217425
 72
     1
 10
1.474260857086058
 20
0.1724403695217424
 11
1.474727277251697
 21
0.1736530619524008
 72
     1
 10
1.474727277251697
 20
0.173653061952401
 11
1.475380265483589
 21
0.1760784468137175
 72
     1
 10
1.475380265483588
 20
0.1760784468137173
 11
1.475846685649225
 21
0.1785038316750338
 72
     1
 10
1.475846685649226
 20
0.1785038316750335
 11
1.476219821781737
 21
0.1808359325032223
 72
     1
 10
1.476219821781738
 20
0.1808359325032223
 11
1.47649967388112
 21
0.1830747492982838
 72
     1
 10
1.47649967388112
 20
0.1830747492982838
 11
1.476592957914248
 21
0.1851269980270901
 72
     1
 10
1.476592957914248
 20
0.1851269980270902
 11
1.476686241947374
 21
0.1870859627227688
 72
     1
 10
1.476686241947375
 20
0.1870859627227687
 11
1.476592957914249
 21
0.1888583593521923
 72
     1
 10
1.476592957914248
 20
0.1888583593521922
 11
1.476499673881119
 21
0.1906307559816158
 72
     1
 10
1.47649967388112
 20
0.1906307559816159
 11
1.476406389847991
 21
0.1924031526110394
 72
     1
 10
1.476406389847991
 20
0.1924031526110394
 11
1.476126537748608
 21
0.1940822652073352
 72
     1
 10
1.476126537748608
 20
0.1940822652073352
 11
1.475846685649226
 21
0.195761377803631
 72
     1
 10
1.475846685649226
 20
0.1957613778036309
 11
1.475566833549843
 21
0.1974404903999272
 72
     1
 10
1.475566833549843
 20
0.1974404903999272
 11
1.475100413384206
 21
0.1990263189630953
 72
     1
 10
1.475100413384205
 20
0.1990263189630952
 11
1.474633993218568
 21
0.2006121475262637
 72
     1
 10
1.474633993218568
 20
0.2006121475262639
 11
1.47416757305293
 21
0.2021046920563051
 72
     1
 10
1.474167573052932
 20
0.2021046920563049
 11
1.473514584821038
 21
0.2035972365863457
 72
     1
 10
1.473514584821037
 20
0.2035972365863459
 11
1.472954880622271
 21
0.2050897811163867
 72
     1
 10
1.472954880622272
 20
0.2050897811163866
 11
1.472208608357252
 21
0.2064890416133
 72
     1
 10
1.472208608357252
 20
0.2064890416133001
 11
1.471462336092232
 21
0.2078883021102135
 72
     1
 10
1.471462336092232
 20
0.2078883021102136
 11
1.470622779794083
 21
0.2091942785739993
 72
     1
 10
1.470622779794084
 20
0.2091942785739991
 11
1.469783223495935
 21
0.2105002550377848
 72
     1
 10
1.469783223495934
 20
0.2105002550377851
 11
1.468850383164659
 21
0.2118062315015707
 72
     1
 10
1.468850383164661
 20
0.2118062315015709
 11
1.467917542833386
 21
0.2130189239322288
 72
     1
 10
1.467917542833385
 20
0.2130189239322289
 11
1.466891418468982
 21
0.2141383323297595
 72
     1
 10
1.466891418468982
 20
0.2141383323297595
 11
1.465772010071451
 21
0.2153510247604178
 72
     1
 10
1.46577201007145
 20
0.215351024760418
 11
1.464652601673919
 21
0.2163771491248209
 72
     1
 10
1.46465260167392
 20
0.2163771491248209
 11
1.463533193276389
 21
0.2174032734892238
 72
     1
 10
1.463533193276389
 20
0.2174032734892238
 11
1.462227216812603
 21
0.2184293978536266
 72
     1
 10
1.462227216812602
 20
0.2184293978536266
 11
1.461014524381945
 21
0.2193622381849024
 72
     1
 10
1.461014524381946
 20
0.2193622381849023
 11
1.459615263885032
 21
0.2202950785161781
 72
     1
 10
1.459615263885031
 20
0.2202950785161782
 11
1.458309287421245
 21
0.2211346348143262
 72
     1
 10
1.458309287421246
 20
0.221134634814326
 11
1.456816742891206
 21
0.221974191112474
 72
     1
 10
1.456816742891206
 20
0.2219741911124738
 11
1.455417482394292
 21
0.2227204633774945
 72
     1
 10
1.455417482394291
 20
0.2227204633774944
 11
1.453831653831122
 21
0.2233734516093874
 72
     1
 10
1.453831653831123
 20
0.2233734516093873
 11
1.452339109301082
 21
0.2240264398412803
 72
     1
 10
1.452339109301082
 20
0.2240264398412803
 11
1.450659996704785
 21
0.2245861440400459
 72
     1
 10
1.450659996704787
 20
0.2245861440400457
 11
1.44907416814162
 21
0.2251458482388108
 72
     1
 10
1.449074168141619
 20
0.2251458482388109
 11
1.447301771512194
 21
0.2256122684044489
 72
     1
 10
1.447301771512194
 20
0.2256122684044488
 11
1.445249522783388
 21
0.2261719726032139
 72
     1
 10
1.445249522783388
 20
0.226171972603214
 11
1.44329055808771
 21
0.2265451087357246
 72
     1
 10
1.443290558087712
 20
0.2265451087357244
 11
1.441145025325778
 21
0.2269182448682345
 72
     1
 10
1.441145025325776
 20
0.2269182448682345
 11
1.438906208530714
 21
0.2271980969676173
 72
     1
 10
1.438906208530714
 20
0.2271980969676173
 11
1.436387539636271
 21
0.2273846650338724
 72
     1
 10
1.436387539636271
 20
0.2273846650338724
 11
1.433495734609316
 21
0.2275712331001274
 72
     1
 10
1.433495734609317
 20
0.2275712331001274
 11
1.430044225383597
 21
0.2276645171332552
 72
     1
 10
1.430044225383597
 20
0.2276645171332549
 11
1.42612629599224
 21
0.2277578011663822
 72
     1
 10
1.42612629599224
 20
0.2277578011663825
 11
1.426033011959112
 21
0.2277578011663825
 72
     1
 10
1.426033011959111
 20
0.2277578011663825
 11
1.33489451159349
 21
0.2277578011663825
 72
     1
 10
1.334894511593491
 20
0.2277578011663825
 11
1.334894511593491
 21
0.0926825211976832
 72
     1
 10
1.334894511593491
 20
0.0926825211976832
 11
1.358588656007891
 21
0.0926825211976832
 72
     1
 10
1.358588656007891
 20
0.0926825211976832
 11
1.358588656007891
 21
0.0947347699264896
 72
     1
 10
1.358588656007891
 20
0.0947347699264896
 11
1.358588656007891
 21
0.1001452438478876
 72
     1
 10
1.358588656007891
 20
0.1001452438478875
 11
1.358588656007891
 21
0.1079811026306024
 72
     1
 10
1.358588656007891
 20
0.1079811026306024
 11
1.358588656007891
 21
0.1170296538439752
 72
     1
 10
1.358588656007891
 20
0.1170296538439753
 11
1.358588656007891
 21
0.1262647731236032
 72
     1
 10
1.358588656007891
 20
0.1262647731236031
 11
1.358588656007891
 21
0.1347536201382103
 72
     1
 10
1.358588656007891
 20
0.1347536201382104
 11
1.358588656007891
 21
0.1412835024571394
 72
     1
 10
1.358588656007891
 20
0.1412835024571393
 11
1.358588656007891
 21
0.1448282957159864
 72
     1
 10
1.358588656007891
 20
0.1448282957159865
 11
1.362320017332992
 21
0.1448282957159865
 72
     1
 10
1.362320017332992
 20
0.1448282957159865
 11
1.369409603850688
 21
0.1448282957159865
 72
     1
 10
1.369409603850688
 20
0.1448282957159865
 11
1.378738007163443
 21
0.1448282957159865
 72
     1
 10
1.378738007163443
 20
0.1448282957159865
 11
1.388999250807475
 21
0.1448282957159865
 72
     1
 10
1.388999250807473
 20
0.1448282957159865
 11
1.399260494451505
 21
0.1448282957159865
 72
     1
 10
1.399260494451506
 20
0.1448282957159865
 11
1.408215761631749
 21
0.1448282957159865
 72
     1
 10
1.408215761631748
 20
0.1448282957159865
 11
1.414745643950677
 21
0.1448282957159865
 72
     1
 10
1.414745643950678
 20
0.1448282957159865
 11
1.41773073301076
 21
0.1448282957159865
 72
     1
 10
1.417730733010761
 20
0.1448282957159865
 11
1.420062833838949
 21
0.1420297747221594
 72
     1
 10
1.420062833838949
 20
0.1420297747221597
 11
1.425193455660966
 21
0.1359663125688683
 72
     1
 10
1.425193455660965
 20
0.1359663125688683
 11
1.432283042178659
 21
0.1275707495873888
 72
     1
 10
1.432283042178659
 20
0.1275707495873886
 11
1.440305469027628
 21
0.1180557782083779
 72
     1
 10
1.440305469027629
 20
0.1180557782083781
 11
1.448234611843471
 21
0.1087273748956225
 72
     1
 10
1.448234611843471
 20
0.1087273748956225
 11
1.455044346261782
 21
0.1006116640135252
 72
     1
 10
1.455044346261782
 20
0.1006116640135252
 11
1.459895115984414
 21
0.0948280539596167
 72
     1
 10
1.459895115984414
 20
0.0948280539596169
 11
1.461760796646965
 21
0.0926825211976832
 72
     1
 10
1.461760796646967
 20
0.0926825211976832
 11
1.49254452757906
 21
0.0926825211976832
 72
     1
 10
1.492544527579059
 20
0.0926825211976832
 11
1.490678846916508
 21
0.0948280539596169
 72
     1
 10
1.490678846916508
 20
0.0948280539596169
 11
1.48564150912762
 21
0.100518379980398
 72
     1
 10
1.48564150912762
 20
0.1005183799803981
 11
1.478458638576797
 21
0.1088206589287502
 72
     1
 10
1.478458638576798
 20
0.1088206589287502
 11
1.470063075595318
 21
0.1183356303077609
 72
     1
 10
1.470063075595317
 20
0.118335630307761
 11
1.461480944547582
 21
0.1282237378192818
 72
     1
 10
1.461480944547582
 20
0.1282237378192818
 11
1.453551801731739
 21
0.1372722890326546
 72
     1
 10
1.45355180173174
 20
0.1372722890326546
 11
1.447395055545323
 21
0.1444551595834761
 72
     1
 10
1.447395055545323
 20
0.1444551595834759
 11
1.443756978253349
 21
0.1485596570410882
 97
        0
 75
     0
 76
     1
 98
        1
 10
-0.3743130907707726
 20
-0.2500502867693841
450
        0
451
        0
460
0.0
461
0.0
452
        0
462
0.0
453
        0
470

1001
ACAD
1010
0.0
1020
0.0
1030
0.0
  0
HATCH
  5
C8EC
330
C8E7
100
AcDbEntity
  8
Kawneer Logo-English
100
AcDbHatch
 10
0.0
 20
0.0
 30
0.0
210
0.0
220
0.0
230
1.0
  2
SOLID
 70
     1
 71
     0
 91
        1
 92
        1
 93
       87
 72
     1
 10
1.205602841678699
 20
0.1525708704655737
 11
1.207468522341251
 21
0.1525708704655737
 72
     1
 10
1.207468522341252
 20
0.1525708704655737
 11
1.211199883666355
 21
0.1525708704655737
 72
     1
 10
1.211199883666355
 20
0.1525708704655737
 11
1.216517073554626
 21
0.1525708704655737
 72
     1
 10
1.216517073554626
 20
0.1525708704655737
 11
1.223046955873555
 21
0.1525708704655737
 72
     1
 10
1.223046955873553
 20
0.1525708704655737
 11
1.230602962556885
 21
0.1525708704655737
 72
     1
 10
1.230602962556885
 20
0.1525708704655737
 11
1.238998525538365
 21
0.1525708704655737
 72
     1
 10
1.238998525538365
 20
0.1525708704655737
 11
1.247767224652354
 21
0.1525708704655737
 72
     1
 10
1.247767224652355
 20
0.1525708704655737
 11
1.256815775865728
 21
0.1525708704655737
 72
     1
 10
1.256815775865729
 20
0.1525708704655737
 11
1.265771043045974
 21
0.1525708704655737
 72
     1
 10
1.265771043045973
 20
0.1525708704655737
 11
1.274446458126836
 21
0.1525708704655737
 72
     1
 10
1.274446458126837
 20
0.1525708704655737
 11
1.282562169008935
 21
0.1525708704655737
 72
     1
 10
1.282562169008935
 20
0.1525708704655737
 11
1.289745039559756
 21
0.1525708704655737
 72
     1
 10
1.289745039559755
 20
0.1525708704655737
 11
1.295808501713046
 21
0.1525708704655737
 72
     1
 10
1.295808501713046
 20
0.1525708704655737
 11
1.300472703369423
 21
0.1525708704655737
 72
     1
 10
1.300472703369423
 20
0.1525708704655737
 11
1.303457792429505
 21
0.1525708704655737
 72
     1
 10
1.303457792429505
 20
0.1525708704655737
 11
1.304483916793908
 21
0.1525708704655737
 72
     1
 10
1.304483916793908
 20
0.1525708704655737
 11
1.304483916793908
 21
0.1730000737205081
 72
     1
 10
1.304483916793908
 20
0.1730000737205078
 11
1.303457792429505
 21
0.1730000737205078
 72
     1
 10
1.303457792429505
 20
0.1730000737205078
 11
1.300472703369423
 21
0.1730000737205078
 72
     1
 10
1.300472703369423
 20
0.1730000737205078
 11
1.295808501713045
 21
0.1730000737205078
 72
     1
 10
1.295808501713046
 20
0.1730000737205078
 11
1.289745039559754
 21
0.1730000737205078
 72
     1
 10
1.289745039559755
 20
0.1730000737205078
 11
1.282562169008934
 21
0.1730000737205078
 72
     1
 10
1.282562169008935
 20
0.1730000737205078
 11
1.274446458126837
 21
0.1730000737205078
 72
     1
 10
1.274446458126837
 20
0.1730000737205078
 11
1.265771043045975
 21
0.1730000737205078
 72
     1
 10
1.265771043045973
 20
0.1730000737205078
 11
1.256815775865728
 21
0.1730000737205078
 72
     1
 10
1.256815775865729
 20
0.1730000737205078
 11
1.247767224652355
 21
0.1730000737205078
 72
     1
 10
1.247767224652355
 20
0.1730000737205078
 11
1.238998525538365
 21
0.1730000737205078
 72
     1
 10
1.238998525538365
 20
0.1730000737205078
 11
1.230602962556885
 21
0.1730000737205078
 72
     1
 10
1.230602962556885
 20
0.1730000737205078
 11
1.223046955873553
 21
0.1730000737205078
 72
     1
 10
1.223046955873553
 20
0.1730000737205078
 11
1.216517073554625
 21
0.1730000737205078
 72
     1
 10
1.216517073554626
 20
0.1730000737205078
 11
1.211199883666355
 21
0.1730000737205078
 72
     1
 10
1.211199883666355
 20
0.1730000737205078
 11
1.207468522341252
 21
0.1730000737205078
 72
     1
 10
1.207468522341252
 20
0.1730000737205078
 11
1.205602841678701
 21
0.1730000737205078
 72
     1
 10
1.205602841678699
 20
0.1730000737205078
 11
1.205602841678699
 21
0.1754254585818243
 72
     1
 10
1.205602841678699
 20
0.1754254585818245
 11
1.205602841678699
 21
0.1794366720063095
 72
     1
 10
1.205602841678699
 20
0.1794366720063094
 11
1.205602841678699
 21
0.1843807257620694
 72
     1
 10
1.205602841678699
 20
0.1843807257620694
 11
1.205602841678699
 21
0.1898844837165951
 72
     1
 10
1.205602841678699
 20
0.1898844837165951
 11
1.205602841678699
 21
0.1952949576379935
 72
     1
 10
1.205602841678699
 20
0.1952949576379937
 11
1.205602841678699
 21
0.2003322954268815
 72
     1
 10
1.205602841678699
 20
0.2003322954268814
 11
1.205602841678699
 21
0.2042502248182386
 72
     1
 10
1.205602841678699
 20
0.2042502248182386
 11
1.205602841678699
 21
0.206675609679555
 72
     1
 10
1.205602841678699
 20
0.206675609679555
 11
1.207468522341251
 21
0.206675609679555
 72
     1
 10
1.207468522341252
 20
0.206675609679555
 11
1.211293167699483
 21
0.206675609679555
 72
     1
 10
1.211293167699483
 20
0.206675609679555
 11
1.21670364162088
 21
0.206675609679555
 72
     1
 10
1.216703641620879
 20
0.206675609679555
 11
1.223420092006063
 21
0.206675609679555
 72
     1
 10
1.223420092006064
 20
0.206675609679555
 11
1.231255950788778
 21
0.206675609679555
 72
     1
 10
1.231255950788778
 20
0.206675609679555
 11
1.239744797803386
 21
0.206675609679555
 72
     1
 10
1.239744797803385
 20
0.206675609679555
 11
1.248886633049885
 21
0.206675609679555
 72
     1
 10
1.248886633049885
 20
0.206675609679555
 11
1.258121752329513
 21
0.206675609679555
 72
     1
 10
1.258121752329514
 20
0.206675609679555
 11
1.267356871609143
 21
0.206675609679555
 72
     1
 10
1.267356871609142
 20
0.206675609679555
 11
1.276218854756259
 21
0.206675609679555
 72
     1
 10
1.276218854756259
 20
0.206675609679555
 11
1.284521133704611
 21
0.206675609679555
 72
     1
 10
1.284521133704611
 20
0.206675609679555
 11
1.291890572321688
 21
0.206675609679555
 72
     1
 10
1.291890572321688
 20
0.206675609679555
 11
1.298140602541234
 21
0.206675609679555
 72
     1
 10
1.298140602541234
 20
0.206675609679555
 11
1.30289808823074
 21
0.206675609679555
 72
     1
 10
1.30289808823074
 20
0.206675609679555
 11
1.305976461323949
 21
0.206675609679555
 72
     1
 10
1.305976461323949
 20
0.206675609679555
 11
1.30709586972148
 21
0.206675609679555
 72
     1
 10
1.307095869721479
 20
0.206675609679555
 11
1.307095869721479
 21
0.2277578011663822
 72
     1
 10
1.307095869721479
 20
0.2277578011663825
 11
1.304577200827036
 21
0.2277578011663825
 72
     1
 10
1.304577200827037
 20
0.2277578011663825
 11
1.182188549363684
 21
0.2277578011663825
 72
     1
 10
1.182188549363684
 20
0.2277578011663825
 11
1.182188549363684
 21
0.0926825211976832
 72
     1
 10
1.182188549363684
 20
0.0926825211976832
 11
1.311853355410986
 21
0.0926825211976832
 72
     1
 10
1.311853355410985
 20
0.0926825211976832
 11
1.311853355410985
 21
0.113671428651383
 72
     1
 10
1.311853355410985
 20
0.1136714286513832
 11
1.310733947013454
 21
0.1136714286513832
 72
     1
 10
1.310733947013455
 20
0.1136714286513832
 11
1.307469005853991
 21
0.1136714286513832
 72
     1
 10
1.307469005853991
 20
0.1136714286513832
 11
1.302431668065102
 21
0.1136714286513832
 72
     1
 10
1.302431668065103
 20
0.1136714286513832
 11
1.295901785746174
 21
0.1136714286513832
 72
     1
 10
1.295901785746174
 20
0.1136714286513832
 11
1.288159210996586
 21
0.1136714286513832
 72
     1
 10
1.288159210996587
 20
0.1136714286513832
 11
1.279483795915724
 21
0.1136714286513832
 72
     1
 10
1.279483795915723
 20
0.1136714286513832
 11
1.270155392602968
 21
0.1136714286513832
 72
     1
 10
1.270155392602969
 20
0.1136714286513832
 11
1.260547137190832
 21
0.1136714286513832
 72
     1
 10
1.260547137190831
 20
0.1136714286513832
 11
1.250752313712437
 21
0.1136714286513832
 72
     1
 10
1.250752313712437
 20
0.1136714286513832
 11
1.241330626366554
 21
0.1136714286513832
 72
     1
 10
1.241330626366555
 20
0.1136714286513832
 11
1.23237535918631
 21
0.1136714286513832
 72
     1
 10
1.232375359186308
 20
0.1136714286513832
 11
1.224166364271082
 21
0.1136714286513832
 72
     1
 10
1.224166364271083
 20
0.1136714286513832
 11
1.217170061786517
 21
0.1136714286513832
 72
     1
 10
1.217170061786517
 20
0.1136714286513832
 11
1.211479735765737
 21
0.1136714286513832
 72
     1
 10
1.211479735765737
 20
0.1136714286513832
 11
1.20756180637438
 21
0.1136714286513832
 72
     1
 10
1.207561806374379
 20
0.1136714286513832
 11
1.2056028416787
 21
0.1136714286513832
 72
     1
 10
1.205602841678699
 20
0.1136714286513832
 11
1.205602841678699
 21
0.1163766656120825
 72
     1
 10
1.205602841678699
 20
0.1163766656120823
 11
1.205602841678699
 21
0.1209475832353323
 72
     1
 10
1.205602841678699
 20
0.1209475832353325
 11
1.205602841678699
 21
0.1267311932892411
 72
     1
 10
1.205602841678699
 20
0.1267311932892408
 11
1.205602841678699
 21
0.1330745075419143
 72
     1
 10
1.205602841678699
 20
0.1330745075419144
 11
1.205602841678699
 21
0.1395111058277156
 72
     1
 10
1.205602841678699
 20
0.1395111058277158
 11
1.205602841678699
 21
0.1452947158816239
 72
     1
 10
1.205602841678699
 20
0.145294715881624
 11
1.205602841678699
 21
0.1498656335048746
 72
     1
 10
1.205602841678699
 20
0.1498656335048745
 11
1.205602841678699
 21
0.1525708704655738
 97
        0
 75
     0
 76
     1
 98
        1
 10
-0.3743130907707726
 20
-0.2500502867693841
450
        0
451
        0
460
0.0
461
0.0
452
        0
462
0.0
453
        0
470

1001
ACAD
1010
0.0
1020
0.0
1030
0.0
  0
HATCH
  5
C8ED
330
C8E7
100
AcDbEntity
  8
Kawneer Logo-English
100
AcDbHatch
 10
0.0
 20
0.0
 30
0.0
210
0.0
220
0.0
230
1.0
  2
SOLID
 70
     1
 71
     0
 91
        1
 92
        1
 93
       87
 72
     1
 10
1.049352086190046
 20
0.1525708704655737
 11
1.051217766852597
 21
0.1525708704655737
 72
     1
 10
1.051217766852596
 20
0.1525708704655737
 11
1.054949128177699
 21
0.1525708704655737
 72
     1
 10
1.0549491281777
 20
0.1525708704655737
 11
1.060173034032843
 21
0.1525708704655737
 72
     1
 10
1.060173034032843
 20
0.1525708704655737
 11
1.0667962003849
 21
0.1525708704655737
 72
     1
 10
1.0667962003849
 20
0.1525708704655737
 11
1.074352207068231
 21
0.1525708704655737
 72
     1
 10
1.074352207068232
 20
0.1525708704655737
 11
1.082747770049711
 21
0.1525708704655737
 72
     1
 10
1.082747770049711
 20
0.1525708704655737
 11
1.0915164691637
 21
0.1525708704655737
 72
     1
 10
1.091516469163701
 20
0.1525708704655737
 11
1.100565020377075
 21
0.1525708704655737
 72
     1
 10
1.100565020377073
 20
0.1525708704655737
 11
1.109520287557319
 21
0.1525708704655737
 72
     1
 10
1.10952028755732
 20
0.1525708704655737
 11
1.118195702638183
 21
0.1525708704655737
 72
     1
 10
1.118195702638182
 20
0.1525708704655737
 11
1.126218129487151
 21
0.1525708704655737
 72
     1
 10
1.126218129487152
 20
0.1525708704655737
 11
1.133401000037974
 21
0.1525708704655737
 72
     1
 10
1.133401000037974
 20
0.1525708704655737
 11
1.139557746224391
 21
0.1525708704655737
 72
     1
 10
1.139557746224392
 20
0.1525708704655737
 11
1.14422194788077
 21
0.1525708704655737
 72
     1
 10
1.144221947880769
 20
0.1525708704655737
 11
1.147207036940851
 21
0.1525708704655737
 72
     1
 10
1.147207036940852
 20
0.1525708704655737
 11
1.148233161305255
 21
0.1525708704655737
 72
     1
 10
1.148233161305255
 20
0.1525708704655737
 11
1.148233161305255
 21
0.1730000737205081
 72
     1
 10
1.148233161305255
 20
0.1730000737205078
 11
1.147207036940852
 21
0.1730000737205078
 72
     1
 10
1.147207036940852
 20
0.1730000737205078
 11
1.14422194788077
 21
0.1730000737205078
 72
     1
 10
1.144221947880769
 20
0.1730000737205078
 11
1.139557746224391
 21
0.1730000737205078
 72
     1
 10
1.139557746224392
 20
0.1730000737205078
 11
1.133494284071101
 21
0.1730000737205078
 72
     1
 10
1.133494284071101
 20
0.1730000737205078
 11
1.126218129487152
 21
0.1730000737205078
 72
     1
 10
1.126218129487152
 20
0.1730000737205078
 11
1.118195702638183
 21
0.1730000737205078
 72
     1
 10
1.118195702638182
 20
0.1730000737205078
 11
1.10952028755732
 21
0.1730000737205078
 72
     1
 10
1.10952028755732
 20
0.1730000737205078
 11
1.100565020377074
 21
0.1730000737205078
 72
     1
 10
1.100565020377073
 20
0.1730000737205078
 11
1.0915164691637
 21
0.1730000737205078
 72
     1
 10
1.091516469163701
 20
0.1730000737205078
 11
1.082747770049712
 21
0.1730000737205078
 72
     1
 10
1.082747770049711
 20
0.1730000737205078
 11
1.074352207068231
 21
0.1730000737205078
 72
     1
 10
1.074352207068232
 20
0.1730000737205078
 11
1.0667962003849
 21
0.1730000737205078
 72
     1
 10
1.0667962003849
 20
0.1730000737205078
 11
1.060173034032843
 21
0.1730000737205078
 72
     1
 10
1.060173034032843
 20
0.1730000737205078
 11
1.054949128177701
 21
0.1730000737205078
 72
     1
 10
1.0549491281777
 20
0.1730000737205078
 11
1.051217766852597
 21
0.1730000737205078
 72
     1
 10
1.051217766852596
 20
0.1730000737205078
 11
1.049352086190045
 21
0.1730000737205078
 72
     1
 10
1.049352086190046
 20
0.1730000737205078
 11
1.049352086190046
 21
0.1754254585818243
 72
     1
 10
1.049352086190046
 20
0.1754254585818245
 11
1.049352086190046
 21
0.1794366720063095
 72
     1
 10
1.049352086190046
 20
0.1794366720063094
 11
1.049352086190046
 21
0.1843807257620694
 72
     1
 10
1.049352086190046
 20
0.1843807257620694
 11
1.049352086190046
 21
0.1898844837165951
 72
     1
 10
1.049352086190046
 20
0.1898844837165951
 11
1.049352086190046
 21
0.1952949576379935
 72
     1
 10
1.049352086190046
 20
0.1952949576379937
 11
1.049352086190046
 21
0.2003322954268815
 72
     1
 10
1.049352086190046
 20
0.2003322954268814
 11
1.049352086190046
 21
0.2042502248182386
 72
     1
 10
1.049352086190046
 20
0.2042502248182386
 11
1.049352086190046
 21
0.206675609679555
 72
     1
 10
1.049352086190046
 20
0.206675609679555
 11
1.051217766852597
 21
0.206675609679555
 72
     1
 10
1.051217766852596
 20
0.206675609679555
 11
1.055042412210825
 21
0.206675609679555
 72
     1
 10
1.055042412210827
 20
0.206675609679555
 11
1.060452886132226
 21
0.206675609679555
 72
     1
 10
1.060452886132225
 20
0.206675609679555
 11
1.067169336517409
 21
0.206675609679555
 72
     1
 10
1.06716933651741
 20
0.206675609679555
 11
1.075005195300124
 21
0.206675609679555
 72
     1
 10
1.075005195300123
 20
0.206675609679555
 11
1.083494042314731
 21
0.206675609679555
 72
     1
 10
1.083494042314732
 20
0.206675609679555
 11
1.092542593528105
 21
0.206675609679555
 72
     1
 10
1.092542593528106
 20
0.206675609679555
 11
1.10187099684086
 21
0.206675609679555
 72
     1
 10
1.101870996840861
 20
0.206675609679555
 11
1.111106116120489
 21
0.206675609679555
 72
     1
 10
1.111106116120488
 20
0.206675609679555
 11
1.119968099267605
 21
0.206675609679555
 72
     1
 10
1.119968099267605
 20
0.206675609679555
 11
1.128270378215957
 21
0.206675609679555
 72
     1
 10
1.128270378215957
 20
0.206675609679555
 11
1.135639816833034
 21
0.206675609679555
 72
     1
 10
1.135639816833034
 20
0.206675609679555
 11
1.14188984705258
 21
0.206675609679555
 72
     1
 10
1.141889847052581
 20
0.206675609679555
 11
1.146647332742086
 21
0.206675609679555
 72
     1
 10
1.146647332742086
 20
0.206675609679555
 11
1.149725705835295
 21
0.206675609679555
 72
     1
 10
1.149725705835296
 20
0.206675609679555
 11
1.150845114232827
 21
0.206675609679555
 72
     1
 10
1.150845114232826
 20
0.206675609679555
 11
1.150845114232826
 21
0.2277578011663822
 72
     1
 10
1.150845114232826
 20
0.2277578011663825
 11
1.148326445338383
 21
0.2277578011663825
 72
     1
 10
1.148326445338383
 20
0.2277578011663825
 11
1.025937793875031
 21
0.2277578011663825
 72
     1
 10
1.025937793875032
 20
0.2277578011663825
 11
1.025937793875032
 21
0.0926825211976832
 72
     1
 10
1.025937793875032
 20
0.0926825211976832
 11
1.155602599922332
 21
0.0926825211976832
 72
     1
 10
1.155602599922332
 20
0.0926825211976832
 11
1.155602599922332
 21
0.113671428651383
 72
     1
 10
1.155602599922332
 20
0.1136714286513832
 11
1.154483191524801
 21
0.1136714286513832
 72
     1
 10
1.154483191524799
 20
0.1136714286513832
 11
1.151218250365336
 21
0.1136714286513832
 72
     1
 10
1.151218250365338
 20
0.1136714286513832
 11
1.146180912576449
 21
0.1136714286513832
 72
     1
 10
1.146180912576449
 20
0.1136714286513832
 11
1.13965103025752
 21
0.1136714286513832
 72
     1
 10
1.13965103025752
 20
0.1136714286513832
 11
1.131908455507932
 21
0.1136714286513832
 72
     1
 10
1.131908455507931
 20
0.1136714286513832
 11
1.12323304042707
 21
0.1136714286513832
 72
     1
 10
1.123233040427071
 20
0.1136714286513832
 11
1.113904637114314
 21
0.1136714286513832
 72
     1
 10
1.113904637114314
 20
0.1136714286513832
 11
1.104296381702177
 21
0.1136714286513832
 72
     1
 10
1.104296381702177
 20
0.1136714286513832
 11
1.094501558223783
 21
0.1136714286513832
 72
     1
 10
1.094501558223784
 20
0.1136714286513832
 11
1.085079870877901
 21
0.1136714286513832
 72
     1
 10
1.085079870877899
 20
0.1136714286513832
 11
1.076124603697654
 21
0.1136714286513832
 72
     1
 10
1.076124603697655
 20
0.1136714286513832
 11
1.067915608782429
 21
0.1136714286513832
 72
     1
 10
1.067915608782429
 20
0.1136714286513832
 11
1.060919306297863
 21
0.1136714286513832
 72
     1
 10
1.060919306297863
 20
0.1136714286513832
 11
1.055228980277083
 21
0.1136714286513832
 72
     1
 10
1.055228980277082
 20
0.1136714286513832
 11
1.051311050885725
 21
0.1136714286513832
 72
     1
 10
1.051311050885726
 20
0.1136714286513832
 11
1.049352086190046
 21
0.1136714286513832
 72
     1
 10
1.049352086190046
 20
0.1136714286513832
 11
1.049352086190046
 21
0.1163766656120825
 72
     1
 10
1.049352086190046
 20
0.1163766656120823
 11
1.049352086190046
 21
0.1209475832353323
 72
     1
 10
1.049352086190046
 20
0.1209475832353325
 11
1.049352086190046
 21
0.1267311932892411
 72
     1
 10
1.049352086190046
 20
0.1267311932892408
 11
1.049352086190046
 21
0.1330745075419143
 72
     1
 10
1.049352086190046
 20
0.1330745075419144
 11
1.049352086190046
 21
0.1395111058277156
 72
     1
 10
1.049352086190046
 20
0.1395111058277158
 11
1.049352086190046
 21
0.1452947158816239
 72
     1
 10
1.049352086190046
 20
0.145294715881624
 11
1.049352086190046
 21
0.1498656335048746
 72
     1
 10
1.049352086190046
 20
0.1498656335048745
 11
1.049352086190046
 21
0.1525708704655738
 97
        0
 75
     0
 76
     1
 98
        1
 10
-0.3743130907707726
 20
-0.2500502867693841
450
        0
451
        0
460
0.0
461
0.0
452
        0
462
0.0
453
        0
470

1001
ACAD
1010
0.0
1020
0.0
1030
0.0
  0
HATCH
  5
C8EE
330
C8E7
100
AcDbEntity
  8
Kawneer Logo-English
100
AcDbHatch
 10
0.0
 20
0.0
 30
0.0
210
0.0
220
0.0
230
1.0
  2
SOLID
 70
     1
 71
     0
 91
        1
 92
        1
 93
       42
 72
     1
 10
0.9725793269260698
 20
0.2277578011663825
 11
0.9725793269260698
 21
0.1354998924032311
 72
     1
 10
0.9725793269260698
 20
0.1354998924032311
 11
0.9729524630585808
 21
0.1264513411898582
 72
     1
 10
0.9729524630585796
 20
0.1264513411898583
 11
0.9729524630585796
 21
0.1255185008585825
 72
     1
 10
0.9729524630585796
 20
0.1255185008585824
 11
0.9731390311248343
 21
0.1238393882622866
 72
     1
 10
0.9731390311248349
 20
0.1238393882622866
 11
0.9717397706279211
 21
0.1254252168254551
 72
     1
 10
0.97173977062792
 20
0.1254252168254551
 11
0.9710867823960281
 21
0.1262647731236031
 72
     1
 10
0.9710867823960294
 20
0.1262647731236031
 11
0.9641837639445897
 21
0.1339140638400625
 72
     1
 10
0.9641837639445899
 20
0.1339140638400624
 11
0.8755639324734129
 21
0.2277578011663823
 72
     1
 10
0.8755639324734115
 20
0.2277578011663825
 11
0.8529891964565429
 21
0.2277578011663825
 72
     1
 10
0.8529891964565434
 20
0.2277578011663825
 11
0.8529891964565434
 21
0.0926825211976832
 72
     1
 10
0.8529891964565434
 20
0.0926825211976832
 11
0.8756572165065401
 21
0.0926825211976832
 72
     1
 10
0.875657216506541
 20
0.0926825211976832
 11
0.875657216506541
 21
0.1927762887435495
 72
     1
 10
0.875657216506541
 20
0.1927762887435495
 11
0.875657216506541
 21
0.1931494248760597
 72
     1
 10
0.875657216506541
 20
0.1931494248760596
 11
0.8755639324734129
 21
0.193988981174208
 72
     1
 10
0.8755639324734115
 20
0.1939889811742079
 11
0.8754706484402849
 21
0.1952949576379935
 72
     1
 10
0.8754706484402859
 20
0.1952949576379937
 11
0.8753773644071577
 21
0.1967875021680344
 72
     1
 10
0.875377364407158
 20
0.1967875021680343
 11
0.8755639324734126
 21
0.1965076500686515
 72
     1
 10
0.8755639324734115
 20
0.1965076500686517
 11
0.8756572165065396
 21
0.1963210820023967
 72
     1
 10
0.875657216506541
 20
0.1963210820023967
 11
0.8764967728046894
 21
0.1954815257042487
 72
     1
 10
0.8764967728046887
 20
0.1954815257042488
 11
0.8781758854009835
 21
0.1936158450416976
 72
     1
 10
0.8781758854009842
 20
0.1936158450416973
 11
0.8797617139641527
 21
0.1917501643791464
 72
     1
 10
0.879761713964152
 20
0.1917501643791466
 11
0.8805079862291723
 21
0.1909106080809982
 72
     1
 10
0.8805079862291727
 20
0.190910608080998
 11
0.8816273946267036
 21
0.1897911996834678
 72
     1
 10
0.8816273946267028
 20
0.1897911996834681
 11
0.884519199653657
 21
0.1867128265902584
 72
     1
 10
0.8845191996536581
 20
0.1867128265902582
 11
0.8891834013100353
 21
0.1818620568676254
 72
     1
 10
0.889183401310035
 20
0.1818620568676252
 11
0.8951535794301982
 21
0.1756120266480794
 72
     1
 10
0.8951535794301985
 20
0.1756120266480794
 11
0.9021498819147662
 21
0.1681493039978751
 72
     1
 10
0.9021498819147669
 20
0.1681493039978752
 11
0.9099857406974814
 21
0.1598470250495227
 72
     1
 10
0.9099857406974813
 20
0.1598470250495225
 11
0.9183813036789613
 21
0.1509850419024051
 72
     1
 10
0.9183813036789612
 20
0.1509850419024052
 11
0.9271500027929521
 21
0.1418432066559046
 72
     1
 10
0.9271500027929509
 20
0.1418432066559046
 11
0.9358254178738118
 21
0.1326080873762767
 72
     1
 10
0.9358254178738132
 20
0.1326080873762767
 11
0.9442209808552931
 21
0.1237461042291589
 72
     1
 10
0.9442209808552931
 20
0.1237461042291589
 11
0.9520568396380092
 21
0.1154438252808068
 72
     1
 10
0.9520568396380092
 20
0.1154438252808068
 11
0.9590531421225751
 21
0.1079811026306025
 72
     1
 10
0.959053142122574
 20
0.1079811026306024
 11
0.9650233202427372
 21
0.101731072411056
 72
     1
 10
0.9650233202427376
 20
0.101731072411056
 11
0.9695942378659868
 21
0.0968803026884232
 72
     1
 10
0.9695942378659871
 20
0.096880302688423
 11
0.9725793269260696
 21
0.0938019295952138
 72
     1
 10
0.9725793269260698
 20
0.093801929595214
 11
0.9736054512904727
 21
0.0926825211976834
 72
     1
 10
0.9736054512904726
 20
0.0926825211976832
 11
0.9952473469760661
 21
0.0926825211976832
 72
     1
 10
0.9952473469760651
 20
0.0926825211976832
 11
0.9952473469760651
 21
0.2277578011663825
 72
     1
 10
0.9952473469760651
 20
0.2277578011663825
 11
0.9927286780816201
 21
0.2277578011663825
 72
     1
 10
0.9927286780816203
 20
0.2277578011663825
 11
0.9725793269260686
 21
0.2277578011663825
 97
        0
 75
     0
 76
     1
 98
        1
 10
-0.3743130907707726
 20
-0.2500502867693841
450
        0
451
        0
460
0.0
461
0.0
452
        0
462
0.0
453
        0
470

1001
ACAD
1010
0.0
1020
0.0
1030
0.0
  0
HATCH
  5
C8EF
330
C8E7
100
AcDbEntity
  8
Kawneer Logo-English
100
AcDbHatch
 10
0.0
 20
0.0
 30
0.0
210
0.0
220
0.0
230
1.0
  2
SOLID
 70
     1
 71
     0
 91
        2
 92
       16
 93
       32
 72
     1
 10
0.5269615006757409
 20
0.144641727649731
 11
0.5290137494045469
 21
0.148652941074216
 72
     1
 10
0.5290137494045464
 20
0.1486529410742159
 11
0.5322786905640116
 21
0.1551828233931449
 72
     1
 10
0.532278690564012
 20
0.1551828233931452
 11
0.5364764720547521
 21
0.1633918183083696
 72
     1
 10
0.5364764720547526
 20
0.1633918183083696
 11
0.5409541056448736
 21
0.1722538014554874
 72
     1
 10
0.5409541056448726
 20
0.1722538014554873
 11
0.545338455201869
 21
0.1808359325032223
 72
     1
 10
0.5453384552018701
 20
0.1808359325032223
 11
0.5490698165269726
 21
0.1882053711202994
 72
     1
 10
0.549069816526973
 20
0.1882053711202996
 11
0.5515884854214162
 21
0.1932427089091875
 72
     1
 10
0.5515884854214148
 20
0.1932427089091872
 11
0.5526146097858177
 21
0.1952016736048658
 72
     1
 10
0.5526146097858194
 20
0.1952016736048658
 11
0.552801177852074
 21
0.195761377803631
 72
     1
 10
0.5528011778520723
 20
0.1957613778036309
 11
0.5533608820508379
 21
0.1970673542674166
 72
     1
 10
0.5533608820508378
 20
0.1970673542674169
 11
0.5542004383489863
 21
0.1990263189630955
 72
     1
 10
0.5542004383489872
 20
0.1990263189630952
 11
0.5550399946471356
 21
0.2012651357581567
 72
     1
 10
0.5550399946471352
 20
0.2012651357581567
 11
0.5555064148127727
 21
0.2001457273606265
 72
     1
 10
0.5555064148127729
 20
0.2001457273606264
 11
0.5560661190115385
 21
0.198933034929968
 72
     1
 10
0.5560661190115379
 20
0.198933034929968
 11
0.5567191072434298
 21
0.197533774433055
 72
     1
 10
0.5567191072434304
 20
0.197533774433055
 11
0.5574653795084506
 21
0.1959479458698865
 72
     1
 10
0.557465379508451
 20
0.1959479458698865
 11
0.5583049358065995
 21
0.1942688332735902
 72
     1
 10
0.5583049358065986
 20
0.1942688332735903
 11
0.5606370366347874
 21
0.1896046316172126
 72
     1
 10
0.5606370366347871
 20
0.1896046316172126
 11
0.5639952618273804
 21
0.1828881812320289
 72
     1
 10
0.5639952618273814
 20
0.1828881812320287
 11
0.5680064752518651
 21
0.1748657543830587
 72
     1
 10
0.5680064752518637
 20
0.1748657543830589
 11
0.57239082480886
 21
0.1661903393021966
 72
     1
 10
0.5723908248088612
 20
0.1661903393021967
 11
0.5765886062996012
 21
0.1577947763207168
 72
     1
 10
0.5765886062996
 20
0.1577947763207165
 11
0.5803199676247008
 21
0.1503320536705122
 72
     1
 10
0.5803199676247015
 20
0.1503320536705122
 11
0.5831184886185295
 21
0.144641727649731
 72
     1
 10
0.5831184886185295
 20
0.144641727649731
 11
0.5791072751940441
 21
0.144641727649731
 72
     1
 10
0.5791072751940436
 20
0.144641727649731
 11
0.5724841088419869
 21
0.144641727649731
 72
     1
 10
0.5724841088419872
 20
0.144641727649731
 11
0.5641818298936356
 21
0.144641727649731
 72
     1
 10
0.5641818298936352
 20
0.144641727649731
 11
0.5550399946471351
 21
0.144641727649731
 72
     1
 10
0.5550399946471352
 20
0.144641727649731
 11
0.5458981594006351
 21
0.144641727649731
 72
     1
 10
0.5458981594006352
 20
0.144641727649731
 11
0.5375958804522815
 21
0.144641727649731
 72
     1
 10
0.5375958804522814
 20
0.144641727649731
 11
0.5310659981333528
 21
0.144641727649731
 72
     1
 10
0.5310659981333524
 20
0.144641727649731
 11
0.5269615006757405
 21
0.144641727649731
 97
        0
 92
        1
 93
      141
 72
     1
 10
0.5656743744236757
 20
0.2277578011663825
 11
0.544405614870593
 21
0.2277578011663825
 72
     1
 10
0.544405614870593
 20
0.2277578011663825
 11
0.4748157261574382
 21
0.0934287934627039
 72
     1
 10
0.4748157261574378
 20
0.0934287934627039
 11
0.4729500454948865
 21
0.0955743262246376
 72
     1
 10
0.4729500454948874
 20
0.0955743262246376
 11
0.4699649564348049
 21
0.0991191194834847
 72
     1
 10
0.4699649564348043
 20
0.0991191194834847
 11
0.4661403110765752
 21
0.1036900371067346
 72
     1
 10
0.4661403110765754
 20
0.1036900371067347
 11
0.4615693934533244
 21
0.1091005110281331
 72
     1
 10
0.461569393453325
 20
0.109100511028133
 11
0.456345487598182
 21
0.1152572572145517
 72
     1
 10
0.4563454875981812
 20
0.1152572572145516
 11
0.4506551615774008
 21
0.1219737075997353
 72
     1
 10
0.4506551615774015
 20
0.1219737075997354
 11
0.4447782674903648
 21
0.1290632941174296
 72
     1
 10
0.4447782674903636
 20
0.1290632941174296
 11
0.4387148053370722
 21
0.1362461646682511
 72
     1
 10
0.4387148053370727
 20
0.1362461646682512
 11
0.4326513431837832
 21
0.1433357511859454
 72
     1
 10
0.4326513431837844
 20
0.1433357511859453
 11
0.4268677331298759
 21
0.1502387696373844
 72
     1
 10
0.4268677331298756
 20
0.1502387696373844
 11
0.4214572592084763
 21
0.1566753679231857
 72
     1
 10
0.4214572592084754
 20
0.1566753679231858
 11
0.4165132054527153
 21
0.1625522620102216
 72
     1
 10
0.4165132054527163
 20
0.1625522620102216
 11
0.4123154239619763
 21
0.1674963157659821
 72
     1
 10
0.4123154239619753
 20
0.1674963157659822
 11
0.4088639147362555
 21
0.1715075291904667
 72
     1
 10
0.4088639147362568
 20
0.1715075291904669
 11
0.4065318139080681
 21
0.1743993342174211
 72
     1
 10
0.4065318139080665
 20
0.1743993342174211
 11
0.405319121477409
 21
0.1757985947143345
 72
     1
 10
0.4053191214774104
 20
0.1757985947143345
 11
0.4067183819743243
 21
0.1769180031118651
 72
     1
 10
0.4067183819743235
 20
0.1769180031118651
 11
0.4094236189350213
 21
0.1788769678075437
 72
     1
 10
0.4094236189350218
 20
0.1788769678075437
 11
0.4132482642932526
 21
0.1816754888013702
 72
     1
 10
0.4132482642932525
 20
0.1816754888013703
 11
0.4179124659496298
 21
0.1852202820602174
 72
     1
 10
0.417912465949629
 20
0.1852202820602174
 11
0.4232296558379
 21
0.189138211451575
 72
     1
 10
0.4232296558379001
 20
0.1891382114515751
 11
0.4291065499249351
 21
0.1935225610085696
 72
     1
 10
0.4291065499249367
 20
0.1935225610085698
 11
0.4352632961113562
 21
0.1981867626649482
 72
     1
 10
0.4352632961113554
 20
0.1981867626649479
 11
0.4416066103640296
 21
0.2028509643213252
 72
     1
 10
0.4416066103640293
 20
0.2028509643213252
 11
0.4479499246167016
 21
0.2076084500108307
 72
     1
 10
0.4479499246167018
 20
0.2076084500108307
 11
0.4540133867699932
 21
0.2120860836009535
 72
     1
 10
0.4540133867699927
 20
0.2120860836009535
 11
0.4596104287576467
 21
0.2162838650916932
 72
     1
 10
0.4596104287576468
 20
0.216283865091693
 11
0.4646477665465351
 21
0.2200152264167952
 72
     1
 10
0.464647766546535
 20
0.2200152264167951
 11
0.4689388320704013
 21
0.223186883543132
 72
     1
 10
0.4689388320704016
 20
0.2231868835431323
 11
0.4721104891967386
 21
0.2256122684044488
 72
     1
 10
0.4721104891967376
 20
0.2256122684044488
 11
0.4742560219586717
 21
0.2271980969676172
 72
     1
 10
0.4742560219586727
 20
0.2271980969676173
 11
0.475002294223693
 21
0.2277578011663825
 72
     1
 10
0.4750022942236929
 20
0.2277578011663825
 11
0.4674462875403612
 21
0.2277578011663825
 72
     1
 10
0.4674462875403611
 20
0.2277578011663825
 11
0.4395543616352215
 21
0.2277578011663825
 72
     1
 10
0.439554361635222
 20
0.2277578011663825
 11
0.4386215213039473
 21
0.2270115289013622
 72
     1
 10
0.4386215213039466
 20
0.2270115289013622
 11
0.4359162843432469
 21
0.2250525642056836
 72
     1
 10
0.4359162843432465
 20
0.2250525642056836
 11
0.4318117868856346
 21
0.2220674751456017
 72
     1
 10
0.4318117868856351
 20
0.2220674751456017
 11
0.4264013129642376
 21
0.2180562617211167
 72
     1
 10
0.4264013129642379
 20
0.2180562617211168
 11
0.4200579987115638
 21
0.2132987760316117
 72
     1
 10
0.4200579987115641
 20
0.2132987760316114
 11
0.4128751281607416
 21
0.2079815861433408
 72
     1
 10
0.4128751281607408
 20
0.2079815861433408
 11
0.4051325534111546
 21
0.20229126012256
 72
     1
 10
0.4051325534111552
 20
0.20229126012256
 11
0.397016842529058
 21
0.1963210820023964
 72
     1
 10
0.3970168425290583
 20
0.1963210820023967
 11
0.3889011316469611
 21
0.1903509038822331
 72
     1
 10
0.3889011316469611
 20
0.190350903882233
 11
0.3808787047979902
 21
0.1844740097951972
 72
     1
 10
0.3808787047979898
 20
0.1844740097951974
 11
0.3733226981146581
 21
0.1787836837744166
 72
     1
 10
0.373322698114658
 20
0.1787836837744166
 11
0.3663263956300919
 21
0.173653061952401
 72
     1
 10
0.3663263956300931
 20
0.173653061952401
 11
0.3601696494436735
 21
0.169082144329151
 72
     1
 10
0.3601696494436726
 20
0.1690821443291508
 11
0.3550390276216579
 21
0.1653507830040483
 72
     1
 10
0.3550390276216584
 20
0.1653507830040482
 11
0.3513076662965558
 21
0.1625522620102218
 72
     1
 10
0.3513076662965551
 20
0.1625522620102216
 11
0.3490688495014928
 21
0.1609664334470531
 72
     1
 10
0.3490688495014926
 20
0.1609664334470531
 11
0.3490688495014926
 21
0.1631119662089868
 72
     1
 10
0.3490688495014926
 20
0.1631119662089868
 11
0.3490688495014926
 21
0.1662836233353237
 72
     1
 10
0.3490688495014926
 20
0.1662836233353238
 11
0.3490688495014926
 21
0.1702948367598088
 72
     1
 10
0.3490688495014926
 20
0.1702948367598088
 11
0.3490688495014926
 21
0.1749590384161865
 72
     1
 10
0.3490688495014926
 20
0.1749590384161865
 11
0.3490688495014926
 21
0.1801829442713294
 72
     1
 10
0.3490688495014926
 20
0.1801829442713296
 11
0.3490688495014926
 21
0.185779986258983
 72
     1
 10
0.3490688495014926
 20
0.1857799862589829
 11
0.3490688495014926
 21
0.1916568803460187
 72
     1
 10
0.3490688495014926
 20
0.1916568803460186
 11
0.3490688495014926
 21
0.1975337744330549
 72
     1
 10
0.3490688495014926
 20
0.197533774433055
 11
0.3490688495014926
 21
0.2033173844869632
 72
     1
 10
0.3490688495014926
 20
0.2033173844869631
 11
0.3490688495014926
 21
0.2088211424414888
 72
     1
 10
0.3490688495014926
 20
0.2088211424414888
 11
0.3490688495014926
 21
0.2139517642635044
 72
     1
 10
0.3490688495014926
 20
0.2139517642635044
 11
0.3490688495014926
 21
0.2185226818867544
 72
     1
 10
0.3490688495014926
 20
0.2185226818867545
 11
0.3490688495014926
 21
0.2222540432118567
 72
     1
 10
0.3490688495014926
 20
0.2222540432118567
 11
0.3490688495014926
 21
0.2252391322719387
 72
     1
 10
0.3490688495014926
 20
0.2252391322719387
 11
0.3490688495014926
 21
0.2271048129344895
 72
     1
 10
0.3490688495014926
 20
0.2271048129344895
 11
0.3490688495014926
 21
0.2277578011663825
 72
     1
 10
0.3490688495014926
 20
0.2277578011663825
 11
0.3258411252527322
 21
0.2277578011663825
 72
     1
 10
0.3258411252527336
 20
0.2277578011663825
 11
0.3258411252527336
 21
0.0926825211976832
 72
     1
 10
0.3258411252527336
 20
0.0926825211976832
 11
0.3486957133689848
 21
0.0926825211976832
 72
     1
 10
0.3486957133689845
 20
0.0926825211976832
 11
0.3486957133689845
 21
0.0943616337939795
 72
     1
 10
0.3486957133689845
 20
0.0943616337939795
 11
0.3486957133689845
 21
0.0988392673841017
 72
     1
 10
0.3486957133689845
 20
0.0988392673841017
 11
0.3486957133689845
 21
0.1051825816367752
 72
     1
 10
0.3486957133689845
 20
0.1051825816367753
 11
0.3486957133689845
 21
0.1125520202538523
 72
     1
 10
0.3486957133689845
 20
0.1125520202538524
 11
0.3486957133689845
 21
0.1200147429040567
 72
     1
 10
0.3486957133689845
 20
0.1200147429040567
 11
0.3486957133689845
 21
0.1267311932892408
 72
     1
 10
0.3486957133689845
 20
0.1267311932892408
 11
0.3486957133689845
 21
0.1317685310781287
 72
     1
 10
0.3486957133689845
 20
0.1317685310781289
 11
0.3486957133689845
 21
0.1342871999725727
 72
     1
 10
0.3486957133689845
 20
0.1342871999725725
 11
0.3507479620977905
 21
0.1356864604694859
 72
     1
 10
0.35074796209779
 20
0.1356864604694859
 11
0.3548524595554018
 21
0.1387648335626952
 72
     1
 10
0.3548524595554015
 20
0.1387648335626952
 11
0.3605427855761835
 21
0.1428693310203079
 72
     1
 10
0.3605427855761842
 20
0.1428693310203079
 11
0.3668860998288565
 21
0.1476268167098129
 72
     1
 10
0.3668860998288568
 20
0.1476268167098129
 11
0.373322698114659
 21
0.1522910183661906
 72
     1
 10
0.373322698114658
 20
0.1522910183661908
 11
0.3791995922016947
 21
0.1565820838900582
 72
     1
 10
0.3791995922016946
 20
0.1565820838900582
 11
0.3836772257918156
 21
0.1599403090826502
 72
     1
 10
0.3836772257918159
 20
0.1599403090826503
 11
0.386195894686261
 21
0.1618059897452011
 72
     1
 10
0.3861958946862609
 20
0.1618059897452011
 11
0.3873153030837921
 21
0.1604067292482882
 72
     1
 10
0.3873153030837915
 20
0.1604067292482878
 11
0.3894608358457238
 21
0.1577947763207163
 72
     1
 10
0.3894608358457248
 20
0.1577947763207165
 11
0.3925392089389353
 21
0.1541566990287417
 72
     1
 10
0.3925392089389348
 20
0.1541566990287417
 11
0.396457138330292
 21
0.149492497372364
 72
     1
 10
0.3964571383302933
 20
0.149492497372364
 11
0.4009347719204161
 21
0.1442685915172211
 72
     1
 10
0.4009347719204146
 20
0.1442685915172209
 11
0.4057855416430466
 21
0.138391697430185
 72
     1
 10
0.4057855416430463
 20
0.1383916974301853
 11
0.4109161634650628
 21
0.1322349512437666
 72
     1
 10
0.410916163465064
 20
0.1322349512437666
 11
0.4162333533533335
 21
0.1259849210242201
 72
     1
 10
0.4162333533533334
 20
0.1259849210242201
 11
0.4215505432416044
 21
0.1196416067715466
 72
     1
 10
0.4215505432416045
 20
0.1196416067715466
 11
0.4265878810304927
 21
0.113671428651383
 72
     1
 10
0.4265878810304931
 20
0.1136714286513832
 11
0.4312520826868704
 21
0.1079811026306024
 72
     1
 10
0.4312520826868696
 20
0.1079811026306024
 11
0.4355431482107378
 21
0.1029437648417141
 72
     1
 10
0.435543148210738
 20
0.1029437648417139
 11
0.4390879414695842
 21
0.0987459833509739
 72
     1
 10
0.4390879414695843
 20
0.0987459833509741
 11
0.4417931784302841
 21
0.0954810421915098
 72
     1
 10
0.4417931784302845
 20
0.0954810421915096
 11
0.4435655750597076
 21
0.0934287934627037
 72
     1
 10
0.4435655750597074
 20
0.0934287934627039
 11
0.4442185632915993
 21
0.0926825211976832
 72
     1
 10
0.4442185632915985
 20
0.0926825211976832
 11
0.4743493059918004
 21
0.0926825211976832
 72
     1
 10
0.4743493059918001
 20
0.0926825211976832
 11
0.4753754303562029
 21
0.0926825211976832
 72
     1
 10
0.4753754303562033
 20
0.0926825211976832
 11
0.5008419714000258
 21
0.0926825211976832
 72
     1
 10
0.5008419714000265
 20
0.0926825211976832
 11
0.5014949596319184
 21
0.0939884976614689
 72
     1
 10
0.501494959631919
 20
0.0939884976614688
 11
0.5031740722282155
 21
0.0973467228540609
 72
     1
 10
0.503174072228215
 20
0.0973467228540612
 11
0.5055061730564038
 21
0.1021042085435666
 72
     1
 10
0.505506173056403
 20
0.1021042085435665
 11
0.5083046940502291
 21
0.1077012505312196
 72
     1
 10
0.5083046940502292
 20
0.1077012505312194
 11
0.5111032150440553
 21
0.1134848605851279
 72
     1
 10
0.5111032150440549
 20
0.1134848605851281
 11
0.5137151679716264
 21
0.1186154824071433
 72
     1
 10
0.5137151679716277
 20
0.1186154824071433
 11
0.5156741326673071
 21
0.1226266958316283
 72
     1
 10
0.5156741326673076
 20
0.122626695831628
 11
0.5167002570317104
 21
0.1247722285935621
 72
     1
 10
0.5167002570317103
 20
0.1247722285935622
 11
0.5180062334954961
 21
0.1247722285935622
 72
     1
 10
0.5180062334954961
 20
0.1247722285935622
 11
0.5207114704561957
 21
0.1247722285935622
 72
     1
 10
0.5207114704561944
 20
0.1247722285935622
 11
0.5246293998475517
 21
0.1247722285935622
 72
     1
 10
0.5246293998475525
 20
0.1247722285935622
 11
0.5295734536033125
 21
0.1247722285935622
 72
     1
 10
0.5295734536033115
 20
0.1247722285935622
 11
0.5352637796240919
 21
0.1247722285935622
 72
     1
 10
0.5352637796240929
 20
0.1247722285935622
 11
0.5415138098436386
 21
0.1247722285935622
 72
     1
 10
0.5415138098436394
 20
0.1247722285935622
 11
0.5482302602288245
 21
0.1247722285935622
 72
     1
 10
0.5482302602288236
 20
0.1247722285935622
 11
0.5551332786802616
 21
0.1247722285935622
 72
     1
 10
0.5551332786802608
 20
0.1247722285935622
 11
0.5620362971317004
 21
0.1247722285935622
 72
     1
 10
0.5620362971317015
 20
0.1247722285935622
 11
0.5687527475168847
 21
0.1247722285935622
 72
     1
 10
0.5687527475168839
 20
0.1247722285935622
 11
0.5750027777364317
 21
0.1247722285935622
 72
     1
 10
0.5750027777364322
 20
0.1247722285935622
 11
0.5806931037572126
 21
0.1247722285935622
 72
     1
 10
0.5806931037572119
 20
0.1247722285935622
 11
0.585637157512972
 21
0.1247722285935622
 72
     1
 10
0.5856371575129727
 20
0.1247722285935622
 11
0.5895550869043299
 21
0.1247722285935622
 72
     1
 10
0.5895550869043289
 20
0.1247722285935622
 11
0.5922603238650286
 21
0.1247722285935622
 72
     1
 10
0.5922603238650291
 20
0.1247722285935622
 11
0.5935663003288148
 21
0.1247722285935622
 72
     1
 10
0.5935663003288148
 20
0.1247722285935622
 11
0.5945924246932176
 21
0.1226266958316281
 72
     1
 10
0.5945924246932175
 20
0.122626695831628
 11
0.5965513893888953
 21
0.1186154824071431
 72
     1
 10
0.5965513893888957
 20
0.1186154824071433
 11
0.5991633423164672
 21
0.1134848605851281
 72
     1
 10
0.5991633423164667
 20
0.1134848605851281
 11
0.6019618633102946
 21
0.1077012505312196
 72
     1
 10
0.6019618633102959
 20
0.1077012505312194
 11
0.604760384304122
 21
0.1021042085435664
 72
     1
 10
0.6047603843041221
 20
0.1021042085435665
 11
0.6070924851323109
 21
0.0973467228540611
 72
     1
 10
0.6070924851323101
 20
0.0973467228540612
 11
0.6087715977286067
 21
0.0939884976614691
 72
     1
 10
0.6087715977286062
 20
0.0939884976614688
 11
0.609424585960498
 21
0.0926825211976832
 72
     1
 10
0.6094245859604986
 20
0.0926825211976832
 11
0.6363836715343633
 21
0.0926825211976832
 72
     1
 10
0.6363836715343641
 20
0.0926825211976832
 11
0.5671669189537184
 21
0.2277578011663825
 72
     1
 10
0.5671669189537179
 20
0.2277578011663825
 11
0.5656743744236758
 21
0.2277578011663825
 97
        0
 75
     0
 76
     1
 98
        1
 10
-0.3743130907707726
 20
-0.2500502867693841
450
        0
451
        0
460
0.0
461
0.0
452
        0
462
0.0
453
        0
470

1001
ACAD
1010
0.0
1020
0.0
1030
0.0
  0
HATCH
  5
C8F0
330
C8E7
100
AcDbEntity
  8
Kawneer Logo-English
100
AcDbHatch
 10
0.0
 20
0.0
 30
0.0
210
0.0
220
0.0
230
1.0
  2
SOLID
 70
     1
 71
     0
 91
        1
 92
        1
 93
       69
 72
     1
 10
0.8092389849197205
 20
0.2277578011663825
 11
0.778921674153266
 21
0.1309289747799811
 72
     1
 10
0.778921674153267
 20
0.1309289747799809
 11
0.7781754018882468
 21
0.1287834420180468
 72
     1
 10
0.7781754018882468
 20
0.1287834420180467
 11
0.7776156976894812
 21
0.1270110453886236
 72
     1
 10
0.7776156976894813
 20
0.1270110453886237
 11
0.7771492775238438
 21
0.1253319327923275
 72
     1
 10
0.7771492775238436
 20
0.1253319327923274
 11
0.7766828573582045
 21
0.1238393882622867
 72
     1
 10
0.7766828573582046
 20
0.1238393882622866
 11
0.7764030052588217
 21
0.1248655126266895
 72
     1
 10
0.776403005258822
 20
0.1248655126266896
 11
0.7761231531594392
 21
0.1259849210242202
 72
     1
 10
0.7761231531594391
 20
0.1259849210242201
 11
0.7759365850931844
 21
0.1268244773223681
 72
     1
 10
0.7759365850931843
 20
0.1268244773223682
 11
0.7758433010600562
 21
0.1271976134548783
 72
     1
 10
0.7758433010600552
 20
0.1271976134548783
 11
0.7755634489606744
 21
0.1280371697530267
 72
     1
 10
0.775563448960674
 20
0.1280371697530267
 11
0.7750970287950349
 21
0.1291565781505569
 72
     1
 10
0.7750970287950363
 20
0.1291565781505568
 11
0.773977620397507
 21
0.1323282352768938
 72
     1
 10
0.7739776203975062
 20
0.1323282352768939
 11
0.7721119397349549
 21
0.1372722890326544
 72
     1
 10
0.7721119397349554
 20
0.1372722890326546
 11
0.7697798389067666
 21
0.1436156032853281
 72
     1
 10
0.769779838906767
 20
0.1436156032853281
 11
0.7670746019460673
 21
0.1511716099686602
 72
     1
 10
0.7670746019460668
 20
0.15117160996866
 11
0.7639962288528581
 21
0.1595671729501399
 72
     1
 10
0.7639962288528582
 20
0.15956717295014
 11
0.7606380036602665
 21
0.1686157241635125
 72
     1
 10
0.7606380036602652
 20
0.1686157241635125
 11
0.7572797784676718
 21
0.1778508434431408
 72
     1
 10
0.7572797784676726
 20
0.1778508434431408
 11
0.753921553275081
 21
0.187179246755896
 72
     1
 10
0.7539215532750814
 20
0.1871792467558961
 11
0.7505633280824898
 21
0.1962277979692689
 72
     1
 10
0.7505633280824902
 20
0.1962277979692689
 11
0.7474849549892814
 21
0.2046233609507488
 72
     1
 10
0.7474849549892797
 20
0.2046233609507488
 11
0.74477971802858
 21
0.2121793676340809
 72
     1
 10
0.7447797180285814
 20
0.2121793676340809
 11
0.7424476172003926
 21
0.2185226818867544
 72
     1
 10
0.7424476172003929
 20
0.2185226818867545
 11
0.7405819365378416
 21
0.2234667356425151
 72
     1
 10
0.7405819365378408
 20
0.2234667356425151
 11
0.7394625281403098
 21
0.2266383927688516
 72
     1
 10
0.7394625281403103
 20
0.2266383927688516
 11
0.7390893920078009
 21
0.2277578011663822
 72
     1
 10
0.7390893920078004
 20
0.2277578011663825
 11
0.7191266089185034
 21
0.2277578011663825
 72
     1
 10
0.7191266089185029
 20
0.2277578011663825
 11
0.6843316645619254
 21
0.1336342117406798
 72
     1
 10
0.6843316645619267
 20
0.1336342117406795
 11
0.6832122561643957
 21
0.130649122680598
 72
     1
 10
0.6832122561643961
 20
0.1306491226805981
 11
0.6823726998662476
 21
0.1282237378192816
 72
     1
 10
0.6823726998662468
 20
0.1282237378192818
 11
0.6817197116343549
 21
0.1260782050573481
 72
     1
 10
0.6817197116343552
 20
0.1260782050573481
 11
0.6811600074355896
 21
0.1241192403616695
 72
     1
 10
0.6811600074355884
 20
0.1241192403616695
 11
0.6808801553362055
 21
0.1250520806929446
 72
     1
 10
0.6808801553362059
 20
0.1250520806929445
 11
0.6805070192036949
 21
0.1261714890904751
 72
     1
 10
0.680507019203696
 20
0.1261714890904752
 11
0.6802271671043131
 21
0.1272908974880058
 72
     1
 10
0.680227167104313
 20
0.1272908974880061
 11
0.6798540309718037
 21
0.1286901579849195
 72
     1
 10
0.6798540309718031
 20
0.1286901579849194
 11
0.6794808948392922
 21
0.12980956638245
 72
     1
 10
0.6794808948392932
 20
0.1298095663824503
 11
0.6784547704748904
 21
0.1328879394756595
 72
     1
 10
0.67845477047489
 20
0.1328879394756595
 11
0.6769622259448497
 21
0.1378319932314196
 72
     1
 10
0.6769622259448496
 20
0.1378319932314196
 11
0.6750032612491701
 21
0.1441753074840938
 72
     1
 10
0.6750032612491697
 20
0.1441753074840937
 11
0.6725778763878547
 21
0.1516380301342981
 72
     1
 10
0.6725778763878556
 20
0.1516380301342981
 11
0.6699659234602841
 21
0.160033593115778
 72
     1
 10
0.6699659234602829
 20
0.160033593115778
 11
0.6671674024664549
 21
0.168988860296023
 72
     1
 10
0.6671674024664554
 20
0.168988860296023
 11
0.6642755974395012
 21
0.1782239795756509
 72
     1
 10
0.6642755974395019
 20
0.178223979575651
 11
0.6613837924125477
 21
0.1874590988552789
 72
     1
 10
0.6613837924125466
 20
0.1874590988552789
 11
0.6585852714187205
 21
0.1964143660355239
 72
     1
 10
0.6585852714187204
 20
0.1964143660355237
 11
0.6559733184911489
 21
0.2047166449838762
 72
     1
 10
0.6559733184911494
 20
0.2047166449838765
 11
0.6536412176629606
 21
0.2122726516672082
 72
     1
 10
0.6536412176629614
 20
0.2122726516672082
 11
0.6515889689341538
 21
0.2186159659198823
 72
     1
 10
0.6515889689341537
 20
0.2186159659198821
 11
0.6500964244041133
 21
0.2234667356425149
 72
     1
 10
0.6500964244041132
 20
0.2234667356425151
 11
0.6490703000397104
 21
0.2266383927688516
 72
     1
 10
0.6490703000397105
 20
0.2266383927688516
 11
0.6487904479403276
 21
0.2277578011663822
 72
     1
 10
0.648790447940328
 20
0.2277578011663825
 11
0.6237903270621445
 21
0.2277578011663825
 72
     1
 10
0.6237903270621437
 20
0.2277578011663825
 11
0.6676338226320932
 21
0.0926825211976832
 72
     1
 10
0.6676338226320926
 20
0.0926825211976832
 11
0.6922608073777669
 21
0.0926825211976832
 72
     1
 10
0.6922608073777666
 20
0.0926825211976832
 11
0.726029627369941
 21
0.1855001341596003
 72
     1
 10
0.7260296273699423
 20
0.1855001341596003
 11
0.7269624677012189
 21
0.1882986551534267
 72
     1
 10
0.7269624677012177
 20
0.1882986551534266
 11
0.7278020239993661
 21
0.1906307559816158
 72
     1
 10
0.727802023999367
 20
0.1906307559816159
 11
0.7284550122312589
 21
0.1927762887435496
 72
     1
 10
0.7284550122312581
 20
0.1927762887435495
 11
0.7290147164300237
 21
0.1947352534392281
 72
     1
 10
0.7290147164300232
 20
0.1947352534392282
 11
0.7298542727281716
 21
0.192216584544784
 72
     1
 10
0.729854272728173
 20
0.1922165845447839
 11
0.7306938290263214
 21
0.1894180635509575
 72
     1
 10
0.7306938290263206
 20
0.1894180635509575
 11
0.7318132374238499
 21
0.1863396904577483
 72
     1
 10
0.7318132374238511
 20
0.1863396904577481
 11
0.7331192138876387
 21
0.1827016131657736
 72
     1
 10
0.7331192138876382
 20
0.1827016131657737
 11
0.7654887733828987
 21
0.0926825211976834
 72
     1
 10
0.7654887733828986
 20
0.0926825211976832
 11
0.7895560539298075
 21
0.0926825211976832
 72
     1
 10
0.7895560539298075
 20
0.0926825211976832
 11
0.8341458217647785
 21
0.2277578011663825
 72
     1
 10
0.8341458217647783
 20
0.2277578011663825
 11
0.830601028505932
 21
0.2277578011663825
 72
     1
 10
0.8306010285059324
 20
0.2277578011663825
 11
0.8092389849197216
 21
0.2277578011663825
 97
        0
 75
     0
 76
     1
 98
        1
 10
-0.3743130907707726
 20
-0.2500502867693841
450
        0
451
        0
460
0.0
461
0.0
452
        0
462
0.0
453
        0
470

1001
ACAD
1010
0.0
1020
0.0
1030
0.0
  0
ENDBLK
  5
C8F4
330
C8E7
100
AcDbEntity
  8
0
100
AcDbBlockEnd
  0
ENDSEC
  0
SECTION
  2
ENTITIES
  0
MTEXT
  5
20C5
330
17
100
AcDbEntity
  8
0
 62
     2
100
AcDbMText
 10
39.440485925878
 20
2.506147305553
 30
0.0
 40
0.4375
 41
9.6875
 46
0.0
 71
     2
 72
     5
  1
DETAIL SCALE: 1" = 1"
 73
     1
 44
1.0
  0
LINE
  5
20CE
330
17
100
AcDbEntity
  8
0
100
AcDbLine
 10
0.0
 20
0.0
 30
0.0
 11
0.0
 21
46.81717871618755
 31
0.0
  0
LINE
  5
20CF
330
17
100
AcDbEntity
  8
0
100
AcDbLine
 10
0.0
 20
0.0
 30
0.0
 11
82.34231585668409
 21
0.0
 31
0.0
  0
MTEXT
  5
2E0C
330
17
100
AcDbEntity
  8
0
 62
     2
100
AcDbMText
 10
39.79323181719613
 20
5.68449899087426
 30
0.0
 40
0.5
 41
14.21875
 46
0.0
 71
     2
 72
     5
  1
1600 WALL SYSTEM{\H1.0833x;™}2 CURTAIN WALL\P5-1/4" DEEP (1/4" INFILL)\PTYPICAL SPLICE DETAILS
 73
     1
 44
1.0
  0
TEXT
  5
B4B9
330
17
100
AcDbEntity
  8
0
  6
Continuous
 62
     7
100
AcDbText
 10
11.84587616821296
 20
16.87774898162652
 30
0.0
 40
0.375
  1
WITH HORIZONTAL - 1/4" FRAME (1/4" INFILL / 1/4" INFILL)
 72
     1
 11
19.05285945607107
 21
16.87774898162652
 31
0.0
100
AcDbText
  0
TEXT
  5
B4BA
330
17
100
AcDbEntity
  8
0
  6
Continuous
 62
     2
100
AcDbText
 10
15.2831449583538
 20
17.68106775200628
 30
0.0
 40
0.375
  1
SPLICE JOINT - SSG MULLION
 72
     1
 11
19.06742190241928
 21
17.68106775200628
 31
0.0
100
AcDbText
  0
LINE
  5
BD28
330
17
100
AcDbEntity
  8
R-ANNO-DIMS
100
AcDbLine
 10
20.83528503517856
 20
24.15636852424764
 30
0.0
 11
25.1720280612051
 21
24.15636852424764
 31
0.0
  0
LINE
  5
BD29
330
17
100
AcDbEntity
  8
R-ANNO-DIMS
100
AcDbLine
 10
18.02278503517857
 20
32.65636852424764
 30
0.0
 11
22.77278503517858
 21
32.65636852424764
 31
0.0
  0
CIRCLE
  5
BD2A
330
17
100
AcDbEntity
  8
R-SWTS-DET2
100
AcDbCircle
 10
22.14778503517853
 20
25.90636852424764
 30
0.0
 40
0.1925
  0
LINE
  5
BD2B
330
17
100
AcDbEntity
  8
R-SWTS-DET2
100
AcDbLine
 10
21.89778503517853
 20
25.90636852424764
 30
0.0
 11
22.39778503517853
 21
25.90636852424764
 31
0.0
  0
LINE
  5
BD2C
330
17
100
AcDbEntity
  8
R-SWTS-DET2
100
AcDbLine
 10
22.21478500517853
 20
25.92236852424763
 30
0.0
 11
22.24978503517853
 21
25.92236852424763
 31
0.0
  0
LINE
  5
BD2D
330
17
100
AcDbEntity
  8
R-SWTS-DET2
100
AcDbLine
 10
22.21478500517853
 20
25.89036852424764
 30
0.0
 11
22.24978503517853
 21
25.89036852424764
 31
0.0
  0
ARC
  5
BD2E
330
17
100
AcDbEntity
  8
R-SWTS-DET2
100
AcDbCircle
 10
22.22953501517853
 20
29.07461860424763
 30
0.0
 40
0.06474996
100
AcDbArc
 50
89.99997000000004
 51
180.0
  0
ARC
  5
BD2F
330
17
100
AcDbEntity
  8
R-SWTS-DET2
100
AcDbCircle
 10
22.22953501517853
 20
29.23811844424763
 30
0.0
 40
0.06474996
100
AcDbArc
 50
180.0
 51
270.0
  0
CIRCLE
  5
BD30
330
17
100
AcDbEntity
  8
R-SWTS-DET2
100
AcDbCircle
 10
22.14778503517853
 20
29.15636852424764
 30
0.0
 40
0.2125
  0
LINE
  5
BD31
330
17
100
AcDbEntity
  8
R-SWTS-DET2
100
AcDbLine
 10
21.89778503517853
 20
29.15636852424764
 30
0.0
 11
22.39778503517853
 21
29.15636852424764
 31
0.0
  0
LWPOLYLINE
  5
BD34
330
17
100
AcDbEntity
  8
R-SWTS-DET1
100
AcDbPolyline
 90
      109
 70
     1
 43
0.0
 10
19.50278503517856
 20
28.26136852424766
 42
-0.414213562373108
 10
19.52278503517856
 20
28.24136852424766
 10
19.52278503517857
 20
28.03636852424765
 10
19.60378503517858
 20
28.03636852424765
 42
-1.0
 10
19.60378503517858
 20
27.97636852424765
 10
19.52278503517857
 20
27.97636852424766
 10
19.52278503517857
 20
27.92636852424765
 42
-0.4142135623730951
 10
19.50278503517858
 20
27.90636852424766
 10
19.29278503517858
 20
27.90636852424764
 42
-0.4142135623730951
 10
19.27278503517857
 20
27.92636852424764
 10
19.27278503517857
 20
28.00836852424764
 42
-0.6693764950687635
 10
19.29842669378799
 20
28.01893995281907
 42
0.1997729274168752
 10
19.36227664544444
 20
27.99236852424764
 10
19.37278503517857
 20
27.99236852424764
 42
0.4142135623730744
 10
19.42278503517858
 20
28.04236852424764
 10
19.42278503517857
 20
28.13036852424764
 42
0.4142135623730744
 10
19.37278503517857
 20
28.18036852424764
 10
19.36227664544444
 20
28.18036852424764
 42
0.1997729274169768
 10
19.29842669378795
 20
28.15379709567621
 42
-0.6693764950688168
 10
19.27278503517853
 20
28.16436852424762
 10
19.27278503517854
 20
28.51636852424764
 10
19.28778503517854
 20
28.53136852424764
 10
19.27278503517854
 20
28.54636852424764
 10
19.27278503517855
 20
28.89336852424764
 42
0.4142135623731211
 10
19.26278503517855
 20
28.90336852424763
 10
19.20678503517853
 20
28.90336852424763
 42
0.4142135623730951
 10
19.19678503517853
 20
28.89336852424764
 10
19.19678503517853
 20
28.85336852424763
 42
-0.4142135623731211
 10
19.18678503517853
 20
28.84336852424764
 10
18.77278503517851
 20
28.84336852424764
 10
18.77278503517854
 20
28.88336852424763
 10
18.75778503517855
 20
28.89836852424763
 10
18.77278503517854
 20
28.913368524188
 10
18.77278503517854
 20
28.98636852418821
 10
18.75778503517864
 20
29.00136852424772
 10
18.77278503517854
 20
29.01636852424763
 10
18.77278503517855
 20
29.05636852424763
 10
19.20278503517851
 20
29.05636852424763
 10
19.40054960653161
 20
29.10935938143318
 42
0.3394542588633803
 10
19.42278503517853
 20
29.13833715622185
 10
19.42278503517853
 20
29.17439989227342
 42
0.3394542588633644
 10
19.40054960653161
 20
29.20337766706209
 10
19.20278503517851
 20
29.25636852424764
 10
18.77278503517855
 20
29.25636852424764
 10
18.77278503517854
 20
29.29636852424764
 10
18.75778503517864
 20
29.31136852424756
 10
18.77278503517854
 20
29.32636852430707
 10
18.77278503517854
 20
29.39936852430728
 10
18.75778503517855
 20
29.41436852424765
 10
18.77278503517854
 20
29.42936852424764
 10
18.77278503517851
 20
29.46936852424764
 10
19.18678503517853
 20
29.46936852424764
 42
-0.4142135623731211
 10
19.19678503517853
 20
29.45936852424764
 10
19.19678503517853
 20
29.41936852424765
 42
0.414213562372991
 10
19.20678503517853
 20
29.40936852424766
 10
19.26278503517855
 20
29.40936852424766
 42
0.414213562373069
 10
19.27278503517855
 20
29.41936852424766
 10
19.27278503517854
 20
29.76636852424764
 10
19.28778503517854
 20
29.78136852424764
 10
19.27278503517854
 20
29.79636852424764
 10
19.27278503517854
 20
30.14836852424764
 42
-0.6693764950687486
 10
19.29842669378795
 20
30.15893995281907
 42
0.1997729274168802
 10
19.3622766454444
 20
30.13236852424764
 10
19.37278503517853
 20
30.13236852424764
 42
0.4142135623730744
 10
19.42278503517853
 20
30.18236852424764
 10
19.42278503517854
 20
30.27036852424764
 42
0.4142135623730951
 10
19.37278503517854
 20
30.32036852424764
 10
19.36227664544441
 20
30.32036852424764
 42
0.1997729274168729
 10
19.29842669378795
 20
30.29379709567621
 42
-0.6693764950687385
 10
19.27278503517853
 20
30.30436852424764
 10
19.27278503517854
 20
30.38636852424764
 42
-0.4142135623730951
 10
19.29278503517853
 20
30.40636852424764
 10
23.02278503517857
 20
30.40636852424764
 10
23.02278503517857
 20
27.93743959205951
 42
-0.6681786379192535
 10
23.0057139673667
 20
27.93036852424763
 10
22.87190654308479
 20
28.06417594852955
 10
22.81578503517856
 20
28.21836852424765
 10
22.86778503517856
 20
28.21836852424764
 42
0.4142135623731297
 10
22.89778503517856
 20
28.24836852424764
 10
22.89778503517857
 20
29.90136852424765
 42
0.4142135623730951
 10
22.83778503517857
 20
29.96136852424765
 10
22.80278503517858
 20
29.96136852424765
 10
22.80278503517858
 20
30.08636852424765
 10
22.83778503517857
 20
30.08636852424765
 42
0.4142135623730951
 10
22.89778503517857
 20
30.14636852424765
 10
22.89778503517857
 20
30.27636852424765
 42
0.4142135623730951
 10
22.86778503517857
 20
30.30636852424765
 10
21.75778503517847
 20
30.30636852424765
 42
0.4142135623730907
 10
21.69778503517846
 20
30.24636852424765
 10
21.69778503517846
 20
30.1263685242476
 10
21.93778503517846
 20
30.1263685242476
 42
-0.4142135623730956
 10
21.99778503517846
 20
30.06636852424759
 10
21.99778503517846
 20
30.0263685242476
 10
21.69778503517846
 20
30.0263685242476
 42
-0.4142135623730951
 10
21.59778503517847
 20
30.1263685242476
 10
21.59778503517847
 20
30.24636852424765
 42
0.4142135623730992
 10
21.53778503517847
 20
30.30636852424765
 10
19.55278503517854
 20
30.30636852424765
 42
0.4142135623730776
 10
19.52278503517854
 20
30.27636852424765
 10
19.52278503517853
 20
30.07136852424763
 42
-0.414213562373069
 10
19.50278503517853
 20
30.05136852424764
 10
19.39778503517854
 20
30.05136852424764
 10
19.39778503517855
 20
29.33352795427481
 10
19.44866693968879
 20
29.31989418905194
 42
-0.339454258863367
 10
19.52278503517853
 20
29.22330160642303
 10
19.52278503517853
 20
29.08943544207224
 42
-0.3394542588633788
 10
19.44866693968878
 20
28.99284285944333
 10
19.39778503517855
 20
28.97920909422045
 10
19.39778503517856
 20
28.26136852424765
  0
LWPOLYLINE
  5
BD3A
330
17
100
AcDbEntity
  8
R-SWTS-DET1
100
AcDbPolyline
 90
        6
 70
     0
 43
0.0
 10
23.27278503517855
 20
19.90636852424763
 10
20.49153503517855
 20
19.90636852424763
 10
20.43846645344205
 20
19.69415333126542
 10
20.33091536544088
 20
20.11856807225561
 10
20.27784678370438
 20
19.90635287927339
 10
17.49659678370438
 20
19.90635287927339
  0
LWPOLYLINE
  5
BD3B
330
17
100
AcDbEntity
  8
R-SWTS-DET1
100
AcDbPolyline
 90
        6
 70
     0
 43
0.0
 10
23.27278503517855
 20
31.40636852424764
 10
20.49153503517855
 20
31.40636852424764
 10
20.43846645344205
 20
31.19415333126543
 10
20.33091536544088
 20
31.6185680722556
 10
20.27784678370438
 20
31.4063528792734
 10
17.49659678370438
 20
31.4063528792734
  0
LINE
  5
BD3E
330
17
100
AcDbEntity
  8
R-SWTS-DET2
  6
HIDDEN
100
AcDbLine
 10
19.53278503517852
 20
30.75686852424764
 30
0.0
 11
22.78278503517855
 21
30.75686852424762
 31
0.0
  0
CIRCLE
  5
BD3F
330
17
100
AcDbEntity
  8
R-SWTS-DET2
100
AcDbCircle
 10
22.14778503517853
 20
24.15636852424764
 30
0.0
 40
0.0865
  0
LINE
  5
BD41
330
17
100
AcDbEntity
  8
R-SWTS-DET2
  6
HIDDEN
100
AcDbLine
 10
19.53278503517851
 20
24.25686852424764
 30
0.0
 11
22.78278503517855
 21
24.25686852424763
 31
0.0
  0
LINE
  5
BD42
330
17
100
AcDbEntity
  8
R-SWTS-DET1
100
AcDbLine
 10
19.27278503517854
 20
27.40636852424764
 30
0.0
 11
23.02278503517855
 21
27.40636852424764
 31
0.0
  0
LINE
  5
BD43
330
17
100
AcDbEntity
  8
R-ANNO-DIMS
100
AcDbLine
 10
15.27278503517857
 20
27.65636852424764
 30
0.0
 11
15.27278503517857
 21
20.15636852424764
 31
0.0
  0
SOLID
  5
BD44
330
17
100
AcDbEntity
  8
R-ANNO-DIMS
  6
Continuous
100
AcDbTrace
 10
13.68309862667121
 20
27.15636852424764
 30
0.0
 11
13.76643196000454
 21
27.15636852424764
 31
0.0
 12
13.72476529333787
 22
27.40636852424764
 32
0.0
 13
13.72476529333787
 23
27.40636852424764
 33
0.0
  0
SOLID
  5
BD45
330
17
100
AcDbEntity
  8
R-ANNO-DIMS
  6
Continuous
100
AcDbTrace
 10
14.43227370311805
 20
27.15636852424764
 30
0.0
 11
14.51560703645138
 21
27.15636852424764
 31
0.0
 12
14.47394036978472
 22
27.40636852424764
 32
0.0
 13
14.47394036978472
 23
27.40636852424764
 33
0.0
  0
LWPOLYLINE
  5
BD46
330
17
100
AcDbEntity
  8
R-SWTS-DET3
100
AcDbPolyline
 90
        4
 70
     0
 43
0.0
 10
18.77278503517855
 20
19.90636852424763
 10
18.77278503517855
 20
28.40636852424764
 10
19.02278503517855
 20
28.40636852424764
 10
19.02278503517855
 20
19.90636852424763
  0
LINE
  5
BD47
330
17
100
AcDbEntity
  8
R-SWTS-DET1
100
AcDbLine
 10
19.27278503517854
 20
19.90636852424763
 30
0.0
 11
19.27278503517854
 21
27.40636852424764
 31
0.0
  0
LINE
  5
BD48
330
17
100
AcDbEntity
  8
R-SWTS-DET2
  6
HIDDEN
100
AcDbLine
 10
19.7827850351785
 20
24.25686852424764
 30
0.0
 11
19.78278503517851
 21
30.75686852424764
 31
0.0
  0
LINE
  5
BD49
330
17
100
AcDbEntity
  8
R-SWTS-DET2
  6
HIDDEN
100
AcDbLine
 10
19.53278503517851
 20
24.25686852424764
 30
0.0
 11
19.53278503517852
 21
30.75686852424764
 31
0.0
  0
LINE
  5
BD4A
330
17
100
AcDbEntity
  8
R-ANNO-DIMS
  6
Continuous
100
AcDbLine
 10
13.72476529333787
 20
27.15636852424764
 30
0.0
 11
13.72476529333787
 21
20.15636852424764
 31
0.0
  0
SOLID
  5
BD4B
330
17
100
AcDbEntity
  8
R-ANNO-DIMS
  6
Continuous
100
AcDbTrace
 10
13.6830986266712
 20
20.15636852424764
 30
0.0
 11
13.76643196000454
 21
20.15636852424764
 31
0.0
 12
13.72476529333787
 22
19.90636852424764
 32
0.0
 13
13.72476529333787
 23
19.90636852424764
 33
0.0
  0
SOLID
  5
BD4C
330
17
100
AcDbEntity
  8
R-ANNO-DIMS
100
AcDbTrace
 10
15.2311183685119
 20
20.15636852424764
 30
0.0
 11
15.31445170184523
 21
20.15636852424764
 31
0.0
 12
15.27278503517857
 22
19.90636852424764
 32
0.0
 13
15.27278503517857
 23
19.90636852424764
 33
0.0
  0
MTEXT
  5
BD4D
330
17
100
AcDbEntity
  8
R-ANNO-DIMS
  6
Continuous
100
AcDbMText
 10
13.49976529333787
 20
23.65636852424764
 30
0.0
 40
0.25
 41
0.0
 46
0.0
 71
     5
 72
     1
  1
\A1;M.L. & ANCH. REF.
 11
0.0000000000000001
 21
1.0
 31
0.0
 73
     1
 44
1.0
  0
MTEXT
  5
BD4E
330
17
100
AcDbEntity
  8
R-ANNO-DIMS
100
AcDbMText
 10
15.04778503517856
 20
23.90636852424764
 30
0.0
 40
0.25
 41
0.0
 46
0.0
 71
     5
 72
     1
  1
\A1;DLO
 11
0.0000000000000001
 21
1.0
 31
0.0
 73
     1
 44
1.0
  0
LINE
  5
BD4F
330
17
100
AcDbEntity
  8
R-ANNO-DIMS
  6
Continuous
100
AcDbLine
 10
14.47394036978472
 20
27.15636852424764
 30
0.0
 11
14.47394036978472
 21
26.90636852424764
 31
0.0
  0
LINE
  5
BD50
330
17
100
AcDbEntity
  8
R-ANNO-DIMS
100
AcDbLine
 10
19.52278503517854
 20
22.29674446571387
 30
0.0
 11
21.89778503517853
 21
22.29674446571387
 31
0.0
  0
LINE
  5
BD51
330
17
100
AcDbEntity
  8
R-ANNO-DIMS
100
AcDbLine
 10
19.02278503517854
 20
23.25074717154463
 30
0.0
 11
18.77278503517854
 21
23.25074717154463
 31
0.0
  0
LINE
  5
BD52
330
17
100
AcDbEntity
  8
R-ANNO-DIMS
100
AcDbLine
 10
19.27278503517854
 20
22.96656343474119
 30
0.0
 11
19.27278503517854
 21
22.11674446571388
 31
0.0
  0
SOLID
  5
BD53
330
17
100
AcDbEntity
  8
R-ANNO-DIMS
100
AcDbTrace
 10
19.52278503517854
 20
22.33841113238054
 30
0.0
 11
19.52278503517854
 21
22.2550777990472
 31
0.0
 12
19.27278503517854
 22
22.29674446571387
 32
0.0
 13
19.27278503517854
 23
22.29674446571387
 33
0.0
  0
SOLID
  5
BD54
330
17
100
AcDbEntity
  8
R-ANNO-DIMS
100
AcDbTrace
 10
19.02278503517854
 20
23.29241383821129
 30
0.0
 11
19.02278503517854
 21
23.20908050487796
 31
0.0
 12
19.27278503517854
 22
23.25074717154463
 32
0.0
 13
19.27278503517854
 23
23.25074717154463
 33
0.0
  0
LINE
  5
BD55
330
17
100
AcDbEntity
  8
R-ANNO-DIMS
100
AcDbLine
 10
19.27278503517854
 20
22.96656343474119
 30
0.0
 11
19.27278503517854
 21
23.07074717154462
 31
0.0
  0
LINE
  5
BD56
330
17
100
AcDbEntity
  8
R-ANNO-DIMS
100
AcDbLine
 10
22.14778503517853
 20
25.28136852424764
 30
0.0
 11
22.14778503517853
 21
22.11674446571388
 31
0.0
  0
MTEXT
  5
BD58
330
17
100
AcDbEntity
  8
R-ANNO-DIMS
100
AcDbMText
 10
21.16445170184523
 20
23.47574717154463
 30
0.0
 40
0.25
 41
0.0
 46
0.0
 71
     5
 72
     1
  1
\A1;7/8"
 73
     1
 44
1.0
  0
LINE
  5
BD59
330
17
100
AcDbEntity
  8
R-ANNO-DIMS
100
AcDbLine
 10
20.39778503517856
 20
23.25074717154463
 30
0.0
 11
21.68111836851189
 21
23.25074717154463
 31
0.0
  0
MTEXT
  5
BD5A
330
17
100
AcDbEntity
  8
R-ANNO-DIMS
100
AcDbMText
 10
20.71028503517854
 20
22.52174446571388
 30
0.0
 40
0.25
 41
0.0
 46
0.0
 71
     5
 72
     1
  1
\A1;2 7/8"
 73
     1
 44
1.0
  0
SOLID
  5
BD5B
330
17
100
AcDbEntity
  8
R-ANNO-DIMS
100
AcDbTrace
 10
20.39778503517856
 20
23.29241383821129
 30
0.0
 11
20.39778503517856
 21
23.20908050487796
 31
0.0
 12
20.14778503517856
 22
23.25074717154463
 32
0.0
 13
20.14778503517856
 23
23.25074717154463
 33
0.0
  0
LINE
  5
BD5C
330
17
100
AcDbEntity
  8
R-ANNO-DIMS
100
AcDbLine
 10
20.14778503517856
 20
23.53136852424764
 30
0.0
 11
20.14778503517856
 21
23.07074717154462
 31
0.0
  0
SOLID
  5
BD5D
330
17
100
AcDbEntity
  8
R-ANNO-DIMS
100
AcDbTrace
 10
21.89778503517853
 20
22.33841113238054
 30
0.0
 11
21.89778503517853
 21
22.2550777990472
 31
0.0
 12
22.14778503517853
 22
22.29674446571387
 32
0.0
 13
22.14778503517853
 23
22.29674446571387
 33
0.0
  0
CIRCLE
  5
BD5E
330
17
100
AcDbEntity
  8
R-SWTS-DET2
100
AcDbCircle
 10
20.14778503517856
 20
24.15636852424764
 30
0.0
 40
0.2125
  0
ARC
  5
BD5F
330
17
100
AcDbEntity
  8
R-SWTS-DET2
100
AcDbCircle
 10
20.22953501517856
 20
24.23811844424764
 30
0.0
 40
0.06474996
100
AcDbArc
 50
180.0
 51
270.0
  0
ARC
  5
BD60
330
17
100
AcDbEntity
  8
R-SWTS-DET2
100
AcDbCircle
 10
20.22953501517856
 20
24.07461860424763
 30
0.0
 40
0.06474996
100
AcDbArc
 50
89.99997000000004
 51
180.0
  0
LINE
  5
BD61
330
17
100
AcDbEntity
  8
R-SWTS-DET2
100
AcDbLine
 10
19.83528503517856
 20
24.15636852424764
 30
0.0
 11
20.46028503517856
 21
24.15636852424764
 31
0.0
  0
ARC
  5
BD62
330
17
100
AcDbEntity
  8
R-SWTS-DET2
100
AcDbCircle
 10
20.06603511517856
 20
24.23811844424764
 30
0.0
 40
0.06474996
100
AcDbArc
 50
270.0
 51
0.0
  0
LINE
  5
BD63
330
17
100
AcDbEntity
  8
R-SWTS-DET2
100
AcDbLine
 10
20.14778503517856
 20
24.46886852424764
 30
0.0
 11
20.14778503517856
 21
23.84386852424764
 31
0.0
  0
LINE
  5
BD64
330
17
100
AcDbEntity
  8
R-SWTS-DET2
100
AcDbLine
 10
20.01828503517856
 20
24.17336852424764
 30
0.0
 11
20.06603511517856
 21
24.17336852424764
 31
0.0
  0
LINE
  5
BD65
330
17
100
AcDbEntity
  8
R-SWTS-DET2
100
AcDbLine
 10
20.01828503517856
 20
24.13936852424763
 30
0.0
 11
20.06603511517856
 21
24.13936852424763
 31
0.0
  0
LINE
  5
BD66
330
17
100
AcDbEntity
  8
R-SWTS-DET2
100
AcDbLine
 10
20.01828503517856
 20
24.17336852424764
 30
0.0
 11
20.01828503517856
 21
24.13936852424763
 31
0.0
  0
ARC
  5
BD67
330
17
100
AcDbEntity
  8
R-SWTS-DET2
100
AcDbCircle
 10
20.06603511517856
 20
24.07461860424763
 30
0.0
 40
0.06474996
100
AcDbArc
 50
0.0
 51
89.9999099999999
  0
LINE
  5
BD68
330
17
100
AcDbEntity
  8
R-SWTS-DET2
100
AcDbLine
 10
20.16478505517856
 20
24.07461860424763
 30
0.0
 11
20.16478505517856
 21
24.02686852424763
 31
0.0
  0
LINE
  5
BD69
330
17
100
AcDbEntity
  8
R-SWTS-DET2
100
AcDbLine
 10
20.13078507517856
 20
24.07461860424763
 30
0.0
 11
20.13078507517856
 21
24.02686852424763
 31
0.0
  0
LINE
  5
BD6A
330
17
100
AcDbEntity
  8
R-SWTS-DET2
100
AcDbLine
 10
20.13078507517856
 20
24.02686852424763
 30
0.0
 11
20.16478505517856
 21
24.02686852424763
 31
0.0
  0
LINE
  5
BD6B
330
17
100
AcDbEntity
  8
R-SWTS-DET2
100
AcDbLine
 10
20.13078507517856
 20
24.28586852424763
 30
0.0
 11
20.16478505517856
 21
24.28586852424763
 31
0.0
  0
LINE
  5
BD6C
330
17
100
AcDbEntity
  8
R-SWTS-DET2
100
AcDbLine
 10
20.13078507517856
 20
24.28586852424763
 30
0.0
 11
20.13078507517856
 21
24.23811844424764
 31
0.0
  0
LINE
  5
BD6D
330
17
100
AcDbEntity
  8
R-SWTS-DET2
100
AcDbLine
 10
20.16478505517856
 20
24.28586852424763
 30
0.0
 11
20.16478505517856
 21
24.23811844424764
 31
0.0
  0
LINE
  5
BD6E
330
17
100
AcDbEntity
  8
R-SWTS-DET2
100
AcDbLine
 10
20.22953501517856
 20
24.13936852424763
 30
0.0
 11
20.27728503517856
 21
24.13936852424763
 31
0.0
  0
LINE
  5
BD6F
330
17
100
AcDbEntity
  8
R-SWTS-DET2
100
AcDbLine
 10
20.27728503517856
 20
24.17336852424764
 30
0.0
 11
20.27728503517856
 21
24.13936852424763
 31
0.0
  0
LINE
  5
BD70
330
17
100
AcDbEntity
  8
R-SWTS-DET2
100
AcDbLine
 10
20.22953501517856
 20
24.17336852424764
 30
0.0
 11
20.27728503517856
 21
24.17336852424764
 31
0.0
  0
CIRCLE
  5
BD71
330
17
100
AcDbEntity
  8
R-SWTS-DET2
100
AcDbCircle
 10
20.14778503517856
 20
25.90636852424764
 30
0.0
 40
0.0865
  0
ARC
  5
BD72
330
17
100
AcDbEntity
  8
R-SWTS-DET2
100
AcDbCircle
 10
22.21478500517853
 20
25.97336849424764
 30
0.0
 40
0.051
100
AcDbArc
 50
180.0
 51
270.0
  0
ARC
  5
BD73
330
17
100
AcDbEntity
  8
R-SWTS-DET2
100
AcDbCircle
 10
22.08078506517853
 20
25.97336849424764
 30
0.0
 40
0.051
100
AcDbArc
 50
270.0
 51
0.0
  0
LINE
  5
BD74
330
17
100
AcDbEntity
  8
R-SWTS-DET2
100
AcDbLine
 10
22.14778503517853
 20
26.15636852424764
 30
0.0
 11
22.14778503517853
 21
25.65636852424764
 31
0.0
  0
LINE
  5
BD75
330
17
100
AcDbEntity
  8
R-SWTS-DET2
100
AcDbLine
 10
22.04578503517853
 20
25.89036852424764
 30
0.0
 11
22.08078506517853
 21
25.89036852424764
 31
0.0
  0
LINE
  5
BD76
330
17
100
AcDbEntity
  8
R-SWTS-DET2
100
AcDbLine
 10
22.04578503517853
 20
25.92236852424763
 30
0.0
 11
22.08078506517853
 21
25.92236852424763
 31
0.0
  0
LINE
  5
BD77
330
17
100
AcDbEntity
  8
R-SWTS-DET2
100
AcDbLine
 10
22.04578503517853
 20
25.92236852424763
 30
0.0
 11
22.04578503517853
 21
25.89036852424764
 31
0.0
  0
ARC
  5
BD78
330
17
100
AcDbEntity
  8
R-SWTS-DET2
100
AcDbCircle
 10
22.08078506517853
 20
25.83936855424764
 30
0.0
 40
0.051
100
AcDbArc
 50
0.0
 51
89.9999099999999
  0
ARC
  5
BD79
330
17
100
AcDbEntity
  8
R-SWTS-DET2
100
AcDbCircle
 10
22.21478500517853
 20
25.83936855424764
 30
0.0
 40
0.051
100
AcDbArc
 50
89.99997000000004
 51
180.0
  0
LINE
  5
BD7A
330
17
100
AcDbEntity
  8
R-SWTS-DET2
100
AcDbLine
 10
22.13178503517853
 20
25.83936855424764
 30
0.0
 11
22.13178503517853
 21
25.80436852424764
 31
0.0
  0
LINE
  5
BD7B
330
17
100
AcDbEntity
  8
R-SWTS-DET2
100
AcDbLine
 10
22.13178503517853
 20
25.80436852424764
 30
0.0
 11
22.16378503517853
 21
25.80436852424764
 31
0.0
  0
LINE
  5
BD7C
330
17
100
AcDbEntity
  8
R-SWTS-DET2
100
AcDbLine
 10
22.16378503517853
 20
25.83936855424764
 30
0.0
 11
22.16378503517853
 21
25.80436852424764
 31
0.0
  0
LINE
  5
BD7D
330
17
100
AcDbEntity
  8
R-SWTS-DET2
100
AcDbLine
 10
22.16378503517853
 20
26.00836852424765
 30
0.0
 11
22.16378503517853
 21
25.97336849424764
 31
0.0
  0
LINE
  5
BD7E
330
17
100
AcDbEntity
  8
R-SWTS-DET2
100
AcDbLine
 10
22.13178503517853
 20
26.00836852424765
 30
0.0
 11
22.13178503517853
 21
25.97336849424764
 31
0.0
  0
LINE
  5
BD7F
330
17
100
AcDbEntity
  8
R-SWTS-DET2
100
AcDbLine
 10
22.13178503517853
 20
26.00836852424765
 30
0.0
 11
22.16378503517853
 21
26.00836852424765
 31
0.0
  0
LINE
  5
BD80
330
17
100
AcDbEntity
  8
R-ANNO-DIMS
100
AcDbLine
 10
17.39778503517857
 20
27.90636852424764
 30
0.0
 11
15.09278503517857
 21
27.90636852424764
 31
0.0
  0
LINE
  5
BD81
330
17
100
AcDbEntity
  8
R-ANNO-DIMS
100
AcDbLine
 10
17.39778503517857
 20
30.40636852424766
 30
0.0
 11
15.09278503517857
 21
30.40636852424766
 31
0.0
  0
LINE
  5
BD82
330
17
100
AcDbEntity
  8
R-ANNO-DIMS
100
AcDbLine
 10
17.39778503517857
 20
27.90636852424764
 30
0.0
 11
15.09278503517857
 21
27.90636852424764
 31
0.0
  0
LINE
  5
BD83
330
17
100
AcDbEntity
  8
R-ANNO-DIMS
100
AcDbLine
 10
17.39778503517857
 20
30.40636852424766
 30
0.0
 11
14.84278503517857
 21
30.40636852424766
 31
0.0
  0
LINE
  5
BD84
330
17
100
AcDbEntity
  8
R-ANNO-DIMS
  6
Continuous
100
AcDbLine
 10
18.39778503517854
 20
27.40636852424764
 30
0.0
 11
15.56954766586247
 21
27.40636852424764
 31
0.0
  0
LINE
  5
BD85
330
17
100
AcDbEntity
  8
R-ANNO-DIMS
  6
Continuous
100
AcDbLine
 10
17.39778503517857
 20
27.90636852424764
 30
0.0
 11
14.46778503517857
 21
27.90636852424764
 31
0.0
  0
LINE
  5
BD87
330
17
100
AcDbEntity
  8
R-ANNO-DIMS
  6
Continuous
100
AcDbLine
 10
17.39778503517857
 20
27.90636852424764
 30
0.0
 11
13.48340898227565
 21
27.90636852424764
 31
0.0
  0
TEXT
  5
BD88
330
17
100
AcDbEntity
  8
R-ANNO-TEXT
100
AcDbText
 10
26.02821712990561
 20
30.76342275083053
 30
0.0
 40
0.25
  1
162377 SHEAR BLOCK
100
AcDbText
  0
TEXT
  5
BD89
330
17
100
AcDbEntity
  8
R-ANNO-TEXT
100
AcDbText
 10
26.02821712990561
 20
30.26342275083053
 30
0.0
 40
0.25
  1
162092 MULLION
100
AcDbText
  0
TEXT
  5
BD8A
330
17
100
AcDbEntity
  8
R-ANNO-TEXT
100
AcDbText
 10
26.02821712990561
 20
29.76342275083053
 30
0.0
 40
0.25
  1
128394 #12 x 1 7/8" B PHTF
100
AcDbText
  0
TEXT
  5
BD8B
330
17
100
AcDbEntity
  8
R-ANNO-TEXT
100
AcDbText
 10
26.02821712990561
 20
29.26342275083053
 30
0.0
 40
0.25
  1
162006 COVER
100
AcDbText
  0
TEXT
  5
BD8C
330
17
100
AcDbEntity
  8
R-ANNO-TEXT
100
AcDbText
 10
26.02821712990561
 20
28.76342275083053
 30
0.0
 40
0.25
  1
162335 PRESSURE PLATE
100
AcDbText
  0
TEXT
  5
BD8D
330
17
100
AcDbEntity
  8
R-ANNO-TEXT
100
AcDbText
 10
26.02821712990561
 20
28.26342275083053
 30
0.0
 40
0.25
  1
426319 SPONGE AIRSEAL
100
AcDbText
  0
TEXT
  5
BD8E
330
17
100
AcDbEntity
  8
R-ANNO-TEXT
100
AcDbText
 10
26.02821712990561
 20
27.76342275083053
 30
0.0
 40
0.25
  1
128405 #12 x 7/8" AB FHTF
100
AcDbText
  0
TEXT
  5
BD8F
330
17
100
AcDbEntity
  8
R-ANNO-TEXT
100
AcDbText
 10
26.02821712990561
 20
27.26342275083053
 30
0.0
 40
0.25
  1
128267 #12 x 1" AB PHTF
100
AcDbText
  0
TEXT
  5
BD90
330
17
100
AcDbEntity
  8
R-ANNO-TEXT
100
AcDbText
 10
26.02821712990561
 20
26.76342275083053
 30
0.0
 40
0.25
  1
128348 #10-16 x 1 1/4" FHSD
100
AcDbText
  0
LINE
  5
BD94
330
17
100
AcDbEntity
  8
R-ANNO-DIMS
  6
Continuous
100
AcDbLine
 10
13.72476529333787
 20
28.15636852424764
 30
0.0
 11
13.72476529333787
 21
31.15636852424764
 31
0.0
  0
SOLID
  5
BD95
330
17
100
AcDbEntity
  8
R-ANNO-DIMS
  6
Continuous
100
AcDbTrace
 10
13.6830986266712
 20
28.15636852424764
 30
0.0
 11
13.76643196000453
 21
28.15636852424764
 31
0.0
 12
13.72476529333787
 22
27.90636852424764
 32
0.0
 13
13.72476529333787
 23
27.90636852424764
 33
0.0
  0
MTEXT
  5
BD96
330
17
100
AcDbEntity
  8
R-ANNO-DIMS
  6
Continuous
100
AcDbMText
 10
13.49976529333787
 20
29.65636852424764
 30
0.0
 40
0.25
 41
0.0
 46
0.0
 71
     5
 72
     1
  1
\A1;M.L.
 11
0.0000000000000001
 21
1.0
 31
0.0
 73
     1
 44
1.0
  0
SOLID
  5
BD97
330
17
100
AcDbEntity
  8
R-ANNO-DIMS
  6
Continuous
100
AcDbTrace
 10
13.6830986266712
 20
31.15636852424764
 30
0.0
 11
13.76643196000454
 21
31.15636852424764
 31
0.0
 12
13.72476529333787
 22
31.40636852424764
 32
0.0
 13
13.72476529333787
 23
31.40636852424764
 33
0.0
  0
MTEXT
  5
BD98
330
17
100
AcDbEntity
  8
R-ANNO-DIMS
100
AcDbMText
 10
15.04613494272128
 20
31.27862227880172
 30
0.0
 40
0.25
 41
0.0
 46
0.0
 71
     5
 72
     1
  1
\A1;DLO
 11
0.0000000000000001
 21
1.0
 31
0.0
 73
     1
 44
1.0
  0
MTEXT
  5
BD99
330
17
100
AcDbEntity
  8
R-ANNO-DIMS
100
AcDbMText
 10
15.04778503517856
 20
29.15636852424764
 30
0.0
 40
0.25
 41
0.0
 46
0.0
 71
     5
 72
     1
  1
\A1;2 1/2"
 11
0.0000000000000001
 21
1.0
 31
0.0
 73
     1
 44
1.0
  0
LINE
  5
BD9A
330
17
100
AcDbEntity
  8
R-ANNO-DIMS
100
AcDbLine
 10
15.27278503517857
 20
30.15636852424766
 30
0.0
 11
15.27278503517857
 21
28.15636852424764
 31
0.0
  0
MTEXT
  5
BD9B
330
17
100
AcDbEntity
  8
R-ANNO-DIMS
  6
Continuous
100
AcDbMText
 10
14.24894036978471
 20
29.46470185758098
 30
0.0
 40
0.25
 41
0.0
 46
0.0
 71
     5
 72
     1
  1
\A1;1/2" MAX
 11
0.0000000000000001
 21
1.0
 31
0.0
 73
     1
 44
1.0
  0
LINE
  5
BD9C
330
17
100
AcDbEntity
  8
R-ANNO-DIMS
  6
Continuous
100
AcDbLine
 10
14.47394036978472
 20
28.15636852424764
 30
0.0
 11
14.47394036978472
 21
30.52303519091431
 31
0.0
  0
SOLID
  5
BD9D
330
17
100
AcDbEntity
  8
R-ANNO-DIMS
  6
Continuous
100
AcDbTrace
 10
14.43227370311805
 20
28.15636852424764
 30
0.0
 11
14.51560703645138
 21
28.15636852424764
 31
0.0
 12
14.47394036978472
 22
27.90636852424764
 32
0.0
 13
14.47394036978472
 23
27.90636852424764
 33
0.0
  0
SOLID
  5
BD9E
330
17
100
AcDbEntity
  8
R-ANNO-DIMS
100
AcDbTrace
 10
15.2311183685119
 20
27.65636852424764
 30
0.0
 11
15.31445170184523
 21
27.65636852424764
 31
0.0
 12
15.27278503517857
 22
27.90636852424764
 32
0.0
 13
15.27278503517857
 23
27.90636852424764
 33
0.0
  0
SOLID
  5
BD9F
330
17
100
AcDbEntity
  8
R-ANNO-DIMS
100
AcDbTrace
 10
15.2311183685119
 20
28.15636852424764
 30
0.0
 11
15.31445170184523
 21
28.15636852424764
 31
0.0
 12
15.27278503517857
 22
27.90636852424764
 32
0.0
 13
15.27278503517857
 23
27.90636852424764
 33
0.0
  0
SOLID
  5
BDA2
330
17
100
AcDbEntity
  8
R-ANNO-DIMS
100
AcDbTrace
 10
15.2311183685119
 20
30.15636852424766
 30
0.0
 11
15.31445170184523
 21
30.15636852424766
 31
0.0
 12
15.27278503517857
 22
30.40636852424766
 32
0.0
 13
15.27278503517857
 23
30.40636852424766
 33
0.0
  0
LWPOLYLINE
  5
BDA6
330
17
100
AcDbEntity
  8
R-SWTS-DET2
100
AcDbPolyline
 90
        8
 70
     1
 43
0.0
 10
19.40478503517854
 20
29.88936852424763
 10
19.27278503517855
 20
30.00036852424763
 10
19.27278503517855
 20
29.56236852424763
 10
19.40478503517854
 20
29.67336852424764
 10
19.93544374833484
 20
29.67336852424764
 10
20.1292655381495
 20
29.7536521382723
 42
0.6681786379193252
 10
20.1292655381495
 20
29.80908491022298
 10
19.93544374833484
 20
29.88936852424763
  0
LINE
  5
BDA7
330
17
100
AcDbEntity
  8
R-SWTS-DET2
100
AcDbLine
 10
19.56253995720243
 20
27.90598290018723
 30
0.0
 11
19.44690909948907
 21
27.90598290018723
 31
0.0
  0
LINE
  5
BDA8
330
17
100
AcDbEntity
  8
R-SWTS-DET2
100
AcDbLine
 10
19.02253995720242
 20
27.76944746711635
 30
0.0
 11
19.56253995720242
 21
27.84598290018723
 31
0.0
  0
LWPOLYLINE
  5
BDAB
330
17
100
AcDbEntity
  8
R-SWTS-DET2
100
AcDbPolyline
 90
        8
 70
     1
 43
0.0
 10
19.40478503517854
 20
28.42336852424764
 10
19.27278503517855
 20
28.31236852424763
 10
19.27278503517855
 20
28.75036852424763
 10
19.40478503517854
 20
28.63936852424763
 10
19.93544374833484
 20
28.63936852424763
 10
20.1292655381495
 20
28.55908491022296
 42
-0.6681786379193252
 10
20.1292655381495
 20
28.50365213827229
 10
19.93544374833484
 20
28.42336852424764
  0
LINE
  5
BDAC
330
17
100
AcDbEntity
  8
R-SWTS-DET2
100
AcDbLine
 10
19.56253995720243
 20
30.40675414830805
 30
0.0
 11
19.44690909948907
 21
30.40675414830805
 31
0.0
  0
LINE
  5
BDAD
330
17
100
AcDbEntity
  8
R-SWTS-DET2
100
AcDbLine
 10
19.02253995720242
 20
30.54328958137892
 30
0.0
 11
19.56253995720242
 21
30.46675414830806
 31
0.0
  0
ARC
  5
BDAF
330
17
100
AcDbEntity
  8
R-SWTS-DET3
100
AcDbCircle
 10
18.68425954361613
 20
27.65636852424764
 30
0.0
 40
0.875
100
AcDbArc
 50
343.39845040098
 51
12.2935729262421
  0
LWPOLYLINE
  5
BDB1
330
17
100
AcDbEntity
  8
R-SWTS-DET3
100
AcDbPolyline
 90
        4
 70
     0
 43
0.0
 10
19.02278503517855
 20
31.40636852424764
 10
19.02278503517855
 20
29.90636852424764
 10
18.77278503517855
 20
29.90636852424764
 10
18.77278503517855
 20
31.40636852424764
  0
LWPOLYLINE
  5
BDB2
330
17
100
AcDbEntity
  8
R-SWTS-DET1
100
AcDbPolyline
 90
       59
 70
     1
 43
0.0
 10
18.28678503517855
 20
28.22036852424762
 10
18.28678503517855
 20
28.10636852424766
 10
18.1519603659864
 20
28.10636852424766
 10
18.04678503517855
 20
28.16709152980168
 42
1.000000000000009
 10
18.00678503517855
 20
28.09780949749893
 10
18.18941415804926
 20
27.99236852424767
 42
-0.849090458656993
 10
18.28678503517854
 20
27.97636852424766
 10
18.28678503517854
 20
27.93636852424764
 42
0.4142135623731122
 10
18.31678503517854
 20
27.90636852424764
 10
18.50278503517855
 20
27.90636852424764
 42
0.4142135623730951
 10
18.52278503517855
 20
27.92636852424764
 10
18.52278503517855
 20
28.00836852424763
 42
0.6693764950686889
 10
18.49714337656913
 20
28.01893995281907
 42
-0.1997729274168814
 10
18.43329342491268
 20
27.99236852424764
 10
18.42278503517855
 20
27.99236852424764
 42
-0.4142135623731054
 10
18.37278503517855
 20
28.04236852424764
 10
18.37278503517855
 20
28.13036852424763
 42
-0.4142135623730951
 10
18.42278503517855
 20
28.18036852424763
 10
18.43329342491268
 20
28.18036852424764
 42
-0.1997729274168702
 10
18.49714337656914
 20
28.15379709567621
 42
0.6693764950687497
 10
18.52278503517855
 20
28.16436852424764
 10
18.52278503517855
 20
28.93136852424765
 10
18.53778503517855
 20
28.94636852424763
 10
18.52278503517855
 20
28.96136852424763
 10
18.52278503517855
 20
29.35136852424763
 10
18.53778503517855
 20
29.36636852424764
 10
18.52278503517855
 20
29.38136852424764
 10
18.52278503517855
 20
30.14836852424764
 42
0.6693764950687072
 10
18.49714337656914
 20
30.15893995281907
 42
-0.1997729274168761
 10
18.43329342491268
 20
30.13236852424764
 10
18.42278503517855
 20
30.13236852424764
 42
-0.4142135623730951
 10
18.37278503517855
 20
30.18236852424764
 10
18.37278503517855
 20
30.27036852424764
 42
-0.4142135623731054
 10
18.42278503517855
 20
30.32036852424764
 10
18.43329342491268
 20
30.32036852424764
 42
-0.1997729274168748
 10
18.49714337656913
 20
30.2937970956762
 42
0.6693764950686886
 10
18.52278503517855
 20
30.30436852424764
 10
18.52278503517855
 20
30.38636852424764
 42
0.4142135623730951
 10
18.50278503517855
 20
30.40636852424764
 10
18.31678503517855
 20
30.40636852424764
 42
0.4142135623731039
 10
18.28678503517855
 20
30.37636852424764
 10
18.28678503517855
 20
30.33636852424762
 42
-0.8490904586570017
 10
18.18941415804924
 20
30.32036852424762
 10
18.00678503517855
 20
30.21492755099635
 42
1.000000000000009
 10
18.04678503517855
 20
30.1456455186936
 10
18.1519603659864
 20
30.20636852424761
 10
18.28678503517855
 20
30.20636852424761
 10
18.28678503517855
 20
30.09236852424766
 42
0.4142135623730516
 10
18.34678503517854
 20
30.03236852424766
 10
18.42278503517855
 20
30.03236852424765
 10
18.42278503517855
 20
29.48136852424764
 10
18.39778503517855
 20
29.45636852424764
 10
18.39778503517855
 20
29.17136852424764
 10
18.41278503517855
 20
29.15636852424764
 10
18.39778503517855
 20
29.14136852424764
 10
18.39778503517855
 20
28.85636852424763
 10
18.42278503517855
 20
28.83136852424764
 10
18.42278503517855
 20
28.28036852424764
 10
18.34678503517854
 20
28.28036852424762
 42
0.4142135623730518
  0
LWPOLYLINE
  5
BDB3
330
17
100
AcDbEntity
  8
R-SWTS-DET1
100
AcDbPolyline
 90
       14
 70
     1
 43
0.0
 10
17.83278503517854
 20
27.95636852424764
 10
18.19678503517854
 20
27.95636852424764
 10
18.19678503517854
 20
27.98636852424767
 42
-1.0
 10
18.27678503517854
 20
27.98636852424767
 10
18.27678503517854
 20
27.96636852424764
 42
-0.4142135623730908
 10
18.21678503517854
 20
27.90636852424764
 10
17.77278503517855
 20
27.90636852424764
 10
17.77278503517855
 20
30.40636852424764
 10
18.21678503517854
 20
30.40636852424764
 42
-0.4142135623730907
 10
18.27678503517854
 20
30.34636852424764
 10
18.27678503517854
 20
30.32636852424761
 42
-1.0
 10
18.19678503517854
 20
30.32636852424761
 10
18.19678503517854
 20
30.35636852424764
 10
17.83278503517855
 20
30.35636852424763
  0
ARC
  5
BDB4
330
17
100
AcDbEntity
  8
R-SWTS-DET2
100
AcDbCircle
 10
18.23749003517855
 20
29.30854852424764
 30
0.0
 40
0.0543126
100
AcDbArc
 50
110.9106999999998
 51
249.0893000000001
  0
ARC
  5
BDB5
330
17
100
AcDbEntity
  8
R-SWTS-DET2
100
AcDbCircle
 10
18.34803003517855
 20
29.15636852424764
 30
0.0
 40
0.16484915
100
AcDbArc
 50
142.0123
 51
217.9877
  0
ARC
  5
BDB6
330
17
100
AcDbEntity
  8
R-SWTS-DET2
100
AcDbCircle
 10
18.23749003517855
 20
29.00417352424764
 30
0.0
 40
0.0543126
100
AcDbArc
 50
110.9106999999998
 51
249.0893000000001
  0
LINE
  5
BDB7
330
17
100
AcDbEntity
  8
R-SWTS-DET3
100
AcDbLine
 10
17.98878503517855
 20
29.62536852424764
 30
0.0
 11
18.85826132990925
 21
29.62536852424764
 31
0.0
  0
LINE
  5
BDB8
330
17
100
AcDbEntity
  8
R-SWTS-DET2
100
AcDbLine
 10
18.18318003517855
 20
29.30854852424764
 30
0.0
 11
18.18318003517855
 21
29.00417352424764
 31
0.0
  0
LINE
  5
BDB9
330
17
100
AcDbEntity
  8
R-SWTS-DET2
100
AcDbLine
 10
18.21418003517855
 20
29.34295852424764
 30
0.0
 11
18.21418003517855
 21
28.96976852424764
 31
0.0
  0
LINE
  5
BDBA
330
17
100
AcDbEntity
  8
R-SWTS-DET3
100
AcDbLine
 10
17.98878503517855
 20
27.88384566813285
 30
0.0
 11
17.98878503517855
 21
29.62536852424764
 31
0.0
  0
LWPOLYLINE
  5
BDBB
330
17
100
AcDbEntity
  8
R-SWTS-DET3
100
AcDbPolyline
 90
        4
 70
     1
 43
0.0
 10
18.14478503517855
 20
27.90636852424764
 10
17.83278503517854
 20
27.95636852424764
 10
17.83278503517854
 20
27.90636852424764
 10
18.14478503517855
 20
27.95636852424764
  0
SOLID
  5
BDBC
330
17
100
AcDbEntity
  8
R-SWTS-DET3
100
AcDbTrace
 10
18.02211836851188
 20
27.88384566813285
 30
0.0
 11
17.95545170184521
 21
27.88384566813285
 31
0.0
 12
17.98878503517855
 22
27.68384566813285
 32
0.0
 13
17.98878503517855
 23
27.68384566813285
 33
0.0
  0
LINE
  5
BDBD
330
17
100
AcDbEntity
  8
R-SWTS-DET2
100
AcDbLine
 10
18.19547503517855
 20
28.96976852424764
 30
0.0
 11
18.21418003517855
 21
28.96976852424764
 31
0.0
  0
LINE
  5
BDBE
330
17
100
AcDbEntity
  8
R-SWTS-DET2
100
AcDbLine
 10
18.19547503517855
 20
29.34295852424764
 30
0.0
 11
18.21418003517855
 21
29.34295852424764
 31
0.0
  0
LINE
  5
BDBF
330
17
100
AcDbEntity
  8
R-SWTS-DET2
100
AcDbLine
 10
19.06278503517855
 20
29.03097852424763
 30
0.0
 11
19.39778503517855
 21
29.15636852424764
 31
0.0
  0
LINE
  5
BDC0
330
17
100
AcDbEntity
  8
R-SWTS-DET1
100
AcDbLine
 10
18.39778503517855
 20
29.40636852424764
 30
0.0
 11
18.39778503517855
 21
28.90636852424764
 31
0.0
  0
LINE
  5
BDC1
330
17
100
AcDbEntity
  8
R-SWTS-DET2
100
AcDbLine
 10
18.35778503517855
 20
29.40636852424764
 30
0.0
 11
18.35778503517855
 21
28.90636852424764
 31
0.0
  0
LINE
  5
BDC2
330
17
100
AcDbEntity
  8
R-SWTS-DET2
100
AcDbLine
 10
18.39778503517855
 20
29.03097852424763
 30
0.0
 11
19.06278503517855
 21
29.03097852424763
 31
0.0
  0
LINE
  5
BDC3
330
17
100
AcDbEntity
  8
R-SWTS-DET2
100
AcDbLine
 10
18.77303011315467
 20
27.76944746711635
 30
0.0
 11
18.23303011315467
 21
27.84598290018723
 31
0.0
  0
LINE
  5
BDC4
330
17
100
AcDbEntity
  8
R-SWTS-DET2
100
AcDbLine
 10
18.23303011315466
 20
27.90598290018723
 30
0.0
 11
18.34866097086802
 21
27.90598290018723
 31
0.0
  0
LINE
  5
BDC5
330
17
100
AcDbEntity
  8
R-SWTS-DET2
100
AcDbLine
 10
18.23303011315467
 20
27.84598290018723
 30
0.0
 11
18.23303011315466
 21
27.90598290018723
 31
0.0
  0
LINE
  5
BDC6
330
17
100
AcDbEntity
  8
R-SWTS-DET2
100
AcDbLine
 10
18.52303011315467
 20
28.38598290018722
 30
0.0
 11
18.77303011315467
 21
28.38598290018722
 31
0.0
  0
LINE
  5
BDC7
330
17
100
AcDbEntity
  8
R-SWTS-DET2
100
AcDbLine
 10
18.77278503517855
 20
28.84336852424764
 30
0.0
 11
18.52278503517854
 21
28.84336852424764
 31
0.0
  0
LINE
  5
BDC8
330
17
100
AcDbEntity
  8
R-SWTS-DET2
100
AcDbLine
 10
18.35778503517855
 20
28.90636852424764
 30
0.0
 11
18.39778503517855
 21
28.90636852424764
 31
0.0
  0
LINE
  5
BDC9
330
17
100
AcDbEntity
  8
R-SWTS-DET2
100
AcDbLine
 10
18.21810503517855
 20
28.95344852424763
 30
0.0
 11
18.35778503517855
 21
28.95344852424763
 31
0.0
  0
LINE
  5
BDCA
330
17
100
AcDbEntity
  8
R-SWTS-DET2
100
AcDbLine
 10
18.52278503517854
 20
28.90586852424764
 30
0.0
 11
18.52278503517854
 21
28.84336852424764
 31
0.0
  0
LINE
  5
BDCB
330
17
100
AcDbEntity
  8
R-SWTS-DET1
100
AcDbLine
 10
18.52278503517855
 20
29.02336852424763
 30
0.0
 11
18.39778503517855
 21
29.02336852424763
 31
0.0
  0
LINE
  5
BDCC
330
17
100
AcDbEntity
  8
R-SWTS-DET2
100
AcDbLine
 10
18.77278503517855
 20
28.90586852424764
 30
0.0
 11
18.77278503517855
 21
28.84336852424764
 31
0.0
  0
LWPOLYLINE
  5
BDCD
330
17
100
AcDbEntity
  8
R-SWTS-DET1
100
AcDbPolyline
 90
        5
 70
     0
 43
0.005
 10
19.27278503517854
 20
28.38598290018722
 10
19.27278503517854
 20
28.84336852424764
 10
19.02278503517855
 20
28.84336852424764
 10
19.02278503517855
 20
27.40636852424764
 10
19.27278503517854
 20
27.40636852424764
  0
ARC
  5
BDCE
330
17
100
AcDbEntity
  8
R-SWTS-DET3
100
AcDbCircle
 10
18.54306667549233
 20
27.65636852424764
 30
0.0
 40
0.875
100
AcDbArc
 50
343.39845040098
 51
10.99360288808094
  0
ARC
  5
BDCF
330
17
100
AcDbEntity
  8
R-SWTS-DET3
100
AcDbCircle
 10
18.57836489252328
 20
27.65636852424764
 30
0.0
 40
0.875
100
AcDbArc
 50
343.39845040098
 51
11.31842784860225
  0
ARC
  5
BDD0
330
17
100
AcDbEntity
  8
R-SWTS-DET3
100
AcDbCircle
 10
18.61366310955423
 20
27.65636852424764
 30
0.0
 40
0.875
100
AcDbArc
 50
343.39845040098
 51
11.6433574614931
  0
ARC
  5
BDD1
330
17
100
AcDbEntity
  8
R-SWTS-DET3
100
AcDbCircle
 10
18.64896132658518
 20
27.65636852424764
 30
0.0
 40
0.875
100
AcDbArc
 50
343.39845040098
 51
11.96840228882296
  0
ARC
  5
BDD2
330
17
100
AcDbEntity
  8
R-SWTS-DET3
100
AcDbCircle
 10
18.43717202439948
 20
27.65636852424764
 30
0.0
 40
0.875
100
AcDbArc
 50
343.39845040098
 51
10.01965073813265
  0
ARC
  5
BDD3
330
17
100
AcDbEntity
  8
R-SWTS-DET3
100
AcDbCircle
 10
18.47247024143043
 20
27.65636852424764
 30
0.0
 40
0.875
100
AcDbArc
 50
343.39845040098
 51
10.34422482500192
  0
LWPOLYLINE
  5
BDD4
330
17
100
AcDbEntity
  8
R-SWTS-DET3
100
AcDbPolyline
 90
        2
 70
     0
 43
0.005
 10
19.27278503517854
 20
27.40636852424764
 10
19.27278503517854
 20
27.80491527344369
  0
ARC
  5
BDD5
330
17
100
AcDbEntity
  8
R-SWTS-DET3
100
AcDbCircle
 10
18.50776845846138
 20
27.65636852424764
 30
0.0
 40
0.875
100
AcDbArc
 50
343.39845040098
 51
10.66887204830818
  0
LINE
  5
BDD6
330
17
100
AcDbEntity
  8
R-SWTS-DET2
100
AcDbLine
 10
19.27253995720242
 20
28.38598290018722
 30
0.0
 11
19.02253995720242
 21
28.38598290018722
 31
0.0
  0
LINE
  5
BDD7
330
17
100
AcDbEntity
  8
R-SWTS-DET2
100
AcDbLine
 10
19.02328503517855
 20
29.90636852424764
 30
0.0
 11
18.77328503517855
 21
29.90636852424764
 31
0.0
  0
LINE
  5
BDD8
330
17
100
AcDbEntity
  8
R-SWTS-DET1
100
AcDbLine
 10
19.14778503517855
 20
29.46936852424763
 30
0.0
 11
18.77278503517855
 21
29.46936852424763
 31
0.0
  0
LINE
  5
BDD9
330
17
100
AcDbEntity
  8
R-SWTS-DET2
100
AcDbLine
 10
18.71028503517855
 20
29.90636852424764
 30
0.0
 11
19.21028503517854
 21
29.90636852424764
 31
0.0
  0
LINE
  5
BDDA
330
17
100
AcDbEntity
  8
R-SWTS-DET2
100
AcDbLine
 10
18.39778503517855
 20
29.28174852424763
 30
0.0
 11
19.06278503517855
 21
29.28174852424763
 31
0.0
  0
LINE
  5
BDDB
330
17
100
AcDbEntity
  8
R-SWTS-DET2
100
AcDbLine
 10
18.52278503517855
 20
29.46936852424763
 30
0.0
 11
18.77278503517855
 21
29.46936852424763
 31
0.0
  0
LWPOLYLINE
  5
BDDC
330
17
100
AcDbEntity
  8
R-SWTS-DET3
100
AcDbPolyline
 90
        5
 70
     0
 43
0.0
 10
18.42278503517855
 20
29.48136852424764
 10
18.52278503517854
 20
29.78136852424763
 10
18.42278503517855
 20
29.78136852424763
 10
18.52278503517854
 20
29.46936852424763
 10
18.41078503517854
 20
29.46936852424763
  0
LINE
  5
BDDD
330
17
100
AcDbEntity
  8
R-SWTS-DET2
100
AcDbLine
 10
18.35778503517855
 20
29.40636852424764
 30
0.0
 11
18.39778503517855
 21
29.40636852424764
 31
0.0
  0
LINE
  5
BDDE
330
17
100
AcDbEntity
  8
R-SWTS-DET2
100
AcDbLine
 10
18.21810503517855
 20
29.05490352424763
 30
0.0
 11
18.35778503517855
 21
29.05490352424763
 31
0.0
  0
LINE
  5
BDDF
330
17
100
AcDbEntity
  8
R-SWTS-DET2
100
AcDbLine
 10
18.21810503517855
 20
29.25782352424764
 30
0.0
 11
18.35778503517855
 21
29.25782352424764
 31
0.0
  0
LINE
  5
BDE0
330
17
100
AcDbEntity
  8
R-SWTS-DET2
100
AcDbLine
 10
18.21810503517855
 20
29.35927852424764
 30
0.0
 11
18.35778503517855
 21
29.35927852424764
 31
0.0
  0
LINE
  5
BDE1
330
17
100
AcDbEntity
  8
R-SWTS-DET2
100
AcDbLine
 10
18.52278503517855
 20
29.46936852424763
 30
0.0
 11
18.52278503517855
 21
29.40686852424763
 31
0.0
  0
LINE
  5
BDE2
330
17
100
AcDbEntity
  8
R-SWTS-DET1
100
AcDbLine
 10
18.52278503517855
 20
29.28936852424764
 30
0.0
 11
18.39778503517855
 21
29.28936852424764
 31
0.0
  0
LINE
  5
BDE3
330
17
100
AcDbEntity
  8
R-SWTS-DET2
100
AcDbLine
 10
18.77278503517855
 20
29.46936852424763
 30
0.0
 11
18.77278503517855
 21
29.78136852424764
 31
0.0
  0
LINE
  5
BDE4
330
17
100
AcDbEntity
  8
R-SWTS-DET2
100
AcDbLine
 10
18.77278503517855
 20
29.46936852424763
 30
0.0
 11
18.77278503517855
 21
29.40686852424763
 31
0.0
  0
LINE
  5
BDE5
330
17
100
AcDbEntity
  8
R-SWTS-DET2
100
AcDbLine
 10
18.77278503517855
 20
29.78136852424764
 30
0.0
 11
18.71028503517855
 21
29.78136852424764
 31
0.0
  0
ARC
  5
BDE6
330
17
100
AcDbEntity
  8
R-SWTS-DET2
100
AcDbCircle
 10
18.71028503517855
 20
29.84386852424764
 30
0.0
 40
0.0625
100
AcDbArc
 50
90.0
 51
270.0
  0
LINE
  5
BDE7
330
17
100
AcDbEntity
  8
R-SWTS-DET2
100
AcDbLine
 10
18.77303011315467
 20
30.54328958137892
 30
0.0
 11
18.23303011315467
 21
30.46675414830806
 31
0.0
  0
LINE
  5
BDE8
330
17
100
AcDbEntity
  8
R-SWTS-DET2
100
AcDbLine
 10
18.52303011315467
 20
29.92675414830805
 30
0.0
 11
18.77303011315467
 21
29.92675414830805
 31
0.0
  0
LINE
  5
BDE9
330
17
100
AcDbEntity
  8
R-SWTS-DET2
100
AcDbLine
 10
18.23303011315466
 20
30.40675414830805
 30
0.0
 11
18.34866097086802
 21
30.40675414830805
 31
0.0
  0
LINE
  5
BDEA
330
17
100
AcDbEntity
  8
R-SWTS-DET2
100
AcDbLine
 10
18.23303011315467
 20
30.46675414830806
 30
0.0
 11
18.23303011315466
 21
30.40675414830805
 31
0.0
  0
ARC
  5
BDEB
330
17
100
AcDbEntity
  8
R-SWTS-DET2
100
AcDbCircle
 10
19.21028503517854
 20
29.84386852424764
 30
0.0
 40
0.0625
100
AcDbArc
 50
270.0
 51
90.0
  0
LINE
  5
BDEC
330
17
100
AcDbEntity
  8
R-SWTS-DET2
100
AcDbLine
 10
19.39778503517855
 20
29.15636852424764
 30
0.0
 11
19.06278503517855
 21
29.28174852424763
 31
0.0
  0
LINE
  5
BDED
330
17
100
AcDbEntity
  8
R-SWTS-DET2
100
AcDbLine
 10
19.14778503517855
 20
29.78136852424764
 30
0.0
 11
19.14778503517855
 21
29.46936852424763
 31
0.0
  0
LINE
  5
BDEE
330
17
100
AcDbEntity
  8
R-SWTS-DET1
100
AcDbLine
 10
19.21028503517854
 20
29.78136852424764
 30
0.0
 11
19.14778503517855
 21
29.78136852424764
 31
0.0
  0
LINE
  5
BDEF
330
17
100
AcDbEntity
  8
R-SWTS-DET2
100
AcDbLine
 10
19.27253995720242
 20
29.92675414830805
 30
0.0
 11
19.02253995720242
 21
29.92675414830805
 31
0.0
  0
LINE
  5
BDF0
330
17
100
AcDbEntity
  8
R-ANNO-DIMS
100
AcDbLine
 10
17.77278503517857
 20
31.78136852424764
 30
0.0
 11
17.77278503517857
 21
32.83636852424763
 31
0.0
  0
SOLID
  5
BDF3
330
17
100
AcDbEntity
  8
R-ANNO-DIMS
100
AcDbTrace
 10
18.02278503517857
 20
32.6980351909143
 30
0.0
 11
18.02278503517857
 21
32.61470185758097
 31
0.0
 12
17.77278503517857
 22
32.65636852424764
 32
0.0
 13
17.77278503517857
 23
32.65636852424764
 33
0.0
  0
LINE
  5
BDF5
330
17
100
AcDbEntity
  8
R-SWTS-DET1
100
AcDbLine
 10
19.5625399572024
 20
30.40636852424764
 30
0.0
 11
19.5625399572024
 21
31.40636852424764
 31
0.0
  0
CIRCLE
  5
BDF6
330
17
100
AcDbEntity
  8
R-SWTS-DET2
100
AcDbCircle
 10
20.14778503517856
 20
29.15636852424764
 30
0.0
 40
0.2125
  0
LINE
  5
BDF7
330
17
100
AcDbEntity
  8
R-SWTS-DET2
100
AcDbLine
 10
20.14778503517856
 20
29.40636852424764
 30
0.0
 11
20.14778503517856
 21
28.90636852424764
 31
0.0
  0
LINE
  5
BDF8
330
17
100
AcDbEntity
  8
R-SWTS-DET2
100
AcDbLine
 10
20.16478505517856
 20
29.07461860424763
 30
0.0
 11
20.16478505517856
 21
29.02686852424763
 31
0.0
  0
LINE
  5
BDF9
330
17
100
AcDbEntity
  8
R-SWTS-DET2
100
AcDbLine
 10
20.13078507517856
 20
29.07461860424763
 30
0.0
 11
20.13078507517856
 21
29.02686852424763
 31
0.0
  0
LINE
  5
BDFA
330
17
100
AcDbEntity
  8
R-SWTS-DET2
100
AcDbLine
 10
19.56253995720242
 20
27.84598290018723
 30
0.0
 11
19.56253995720243
 21
27.90598290018723
 31
0.0
  0
LINE
  5
BDFB
330
17
100
AcDbEntity
  8
R-SWTS-DET2
100
AcDbLine
 10
20.13078507517856
 20
29.02686852424763
 30
0.0
 11
20.16478505517856
 21
29.02686852424763
 31
0.0
  0
ARC
  5
BDFC
330
17
100
AcDbEntity
  8
R-SWTS-DET2
100
AcDbCircle
 10
20.22953501517856
 20
29.07461860424763
 30
0.0
 40
0.06474996
100
AcDbArc
 50
89.99997000000004
 51
180.0
  0
ARC
  5
BDFD
330
17
100
AcDbEntity
  8
R-SWTS-DET2
100
AcDbCircle
 10
20.22953501517856
 20
29.23811844424763
 30
0.0
 40
0.06474996
100
AcDbArc
 50
180.0
 51
270.0
  0
LINE
  5
BDFE
330
17
100
AcDbEntity
  8
R-SWTS-DET2
100
AcDbLine
 10
19.89778503517856
 20
29.15636852424764
 30
0.0
 11
20.39778503517856
 21
29.15636852424764
 31
0.0
  0
LINE
  5
BDFF
330
17
100
AcDbEntity
  8
R-SWTS-DET2
100
AcDbLine
 10
20.01828503517856
 20
29.13936852424763
 30
0.0
 11
20.06603511517856
 21
29.13936852424763
 31
0.0
  0
LINE
  5
BE00
330
17
100
AcDbEntity
  8
R-SWTS-DET2
100
AcDbLine
 10
20.01828503517856
 20
29.17336852424764
 30
0.0
 11
20.06603511517856
 21
29.17336852424764
 31
0.0
  0
LINE
  5
BE01
330
17
100
AcDbEntity
  8
R-SWTS-DET2
100
AcDbLine
 10
20.01828503517856
 20
29.17336852424764
 30
0.0
 11
20.01828503517856
 21
29.13936852424763
 31
0.0
  0
ARC
  5
BE02
330
17
100
AcDbEntity
  8
R-SWTS-DET2
100
AcDbCircle
 10
20.06603511517856
 20
29.07461860424763
 30
0.0
 40
0.06474996
100
AcDbArc
 50
0.0
 51
89.9999099999999
  0
ARC
  5
BE03
330
17
100
AcDbEntity
  8
R-SWTS-DET2
100
AcDbCircle
 10
20.06603511517856
 20
29.23811844424763
 30
0.0
 40
0.06474996
100
AcDbArc
 50
270.0
 51
0.0
  0
LINE
  5
BE04
330
17
100
AcDbEntity
  8
R-SWTS-DET2
100
AcDbLine
 10
20.13078507517856
 20
29.28586852424763
 30
0.0
 11
20.16478505517856
 21
29.28586852424763
 31
0.0
  0
LINE
  5
BE05
330
17
100
AcDbEntity
  8
R-SWTS-DET2
100
AcDbLine
 10
20.16478505517856
 20
29.28586852424763
 30
0.0
 11
20.16478505517856
 21
29.23811844424763
 31
0.0
  0
LINE
  5
BE06
330
17
100
AcDbEntity
  8
R-SWTS-DET2
100
AcDbLine
 10
20.13078507517856
 20
29.28586852424763
 30
0.0
 11
20.13078507517856
 21
29.23811844424763
 31
0.0
  0
LINE
  5
BE07
330
17
100
AcDbEntity
  8
R-SWTS-DET2
100
AcDbLine
 10
19.56253995720242
 20
30.46675414830806
 30
0.0
 11
19.56253995720243
 21
30.40675414830805
 31
0.0
  0
LINE
  5
BE08
330
17
100
AcDbEntity
  8
R-SWTS-DET2
100
AcDbLine
 10
20.27728503517856
 20
29.17336852424764
 30
0.0
 11
20.27728503517856
 21
29.13936852424763
 31
0.0
  0
LINE
  5
BE09
330
17
100
AcDbEntity
  8
R-SWTS-DET2
100
AcDbLine
 10
20.22953501517856
 20
29.13936852424763
 30
0.0
 11
20.27728503517856
 21
29.13936852424763
 31
0.0
  0
LINE
  5
BE0A
330
17
100
AcDbEntity
  8
R-SWTS-DET2
100
AcDbLine
 10
20.22953501517856
 20
29.17336852424764
 30
0.0
 11
20.27728503517856
 21
29.17336852424764
 31
0.0
  0
LINE
  5
BE0B
330
17
100
AcDbEntity
  8
R-SWTS-DET2
100
AcDbLine
 10
22.14778503517853
 20
29.40636852424764
 30
0.0
 11
22.14778503517853
 21
28.90636852424764
 31
0.0
  0
LINE
  5
BE0C
330
17
100
AcDbEntity
  8
R-SWTS-DET2
100
AcDbLine
 10
22.16478505517853
 20
29.07461860424763
 30
0.0
 11
22.16478505517853
 21
29.02686852424763
 31
0.0
  0
LINE
  5
BE0D
330
17
100
AcDbEntity
  8
R-SWTS-DET2
100
AcDbLine
 10
22.13078507517853
 20
29.07461860424763
 30
0.0
 11
22.13078507517853
 21
29.02686852424763
 31
0.0
  0
LINE
  5
BE0E
330
17
100
AcDbEntity
  8
R-SWTS-DET2
100
AcDbLine
 10
22.13078507517853
 20
29.02686852424763
 30
0.0
 11
22.16478505517853
 21
29.02686852424763
 31
0.0
  0
LINE
  5
BE0F
330
17
100
AcDbEntity
  8
R-SWTS-DET2
100
AcDbLine
 10
22.01828503517853
 20
29.13936852424765
 30
0.0
 11
22.06603511517853
 21
29.13936852424765
 31
0.0
  0
LINE
  5
BE10
330
17
100
AcDbEntity
  8
R-SWTS-DET2
100
AcDbLine
 10
22.01828503517853
 20
29.17336852424764
 30
0.0
 11
22.06603511517853
 21
29.17336852424764
 31
0.0
  0
LINE
  5
BE11
330
17
100
AcDbEntity
  8
R-SWTS-DET2
100
AcDbLine
 10
22.01828503517853
 20
29.17336852424764
 30
0.0
 11
22.01828503517853
 21
29.13936852424765
 31
0.0
  0
ARC
  5
BE12
330
17
100
AcDbEntity
  8
R-SWTS-DET2
100
AcDbCircle
 10
22.06603511517853
 20
29.07461860424763
 30
0.0
 40
0.06474996
100
AcDbArc
 50
0.0
 51
89.9999099999999
  0
ARC
  5
BE13
330
17
100
AcDbEntity
  8
R-SWTS-DET2
100
AcDbCircle
 10
22.06603511517853
 20
29.23811844424763
 30
0.0
 40
0.06474996
100
AcDbArc
 50
270.0
 51
0.0
  0
LINE
  5
BE14
330
17
100
AcDbEntity
  8
R-SWTS-DET2
100
AcDbLine
 10
22.13078507517853
 20
29.28586852424763
 30
0.0
 11
22.16478505517853
 21
29.28586852424763
 31
0.0
  0
LINE
  5
BE15
330
17
100
AcDbEntity
  8
R-SWTS-DET2
100
AcDbLine
 10
22.16478505517853
 20
29.28586852424763
 30
0.0
 11
22.16478505517853
 21
29.23811844424763
 31
0.0
  0
LINE
  5
BE16
330
17
100
AcDbEntity
  8
R-SWTS-DET2
100
AcDbLine
 10
22.13078507517853
 20
29.28586852424763
 30
0.0
 11
22.13078507517853
 21
29.23811844424763
 31
0.0
  0
MTEXT
  5
BE17
330
17
100
AcDbEntity
  8
R-ANNO-DIMS
100
AcDbMText
 10
20.39778503517858
 20
32.88136852424763
 30
0.0
 40
0.25
 41
0.0
 46
0.0
 71
     5
 72
     1
  1
\A1;5 1/4"
 73
     1
 44
1.0
  0
SOLID
  5
BE1C
330
17
100
AcDbEntity
  8
R-ANNO-DIMS
100
AcDbTrace
 10
24.95036139453844
 20
27.15636852424764
 30
0.0
 11
25.03369472787178
 21
27.15636852424764
 31
0.0
 12
24.99202806120511
 22
27.40636852424764
 32
0.0
 13
24.99202806120511
 23
27.40636852424764
 33
0.0
  0
MTEXT
  5
BE1D
330
17
100
AcDbEntity
  8
R-ANNO-DIMS
100
AcDbMText
 10
23.69821091105096
 20
26.68919499293453
 30
0.0
 40
0.25
 41
0.0
 46
0.0
 71
     5
 72
     1
  1
\A1;1 1/2"
 11
0.0000000000000001
 21
1.0
 31
0.0
 73
     1
 44
1.0
  0
LINE
  5
BE1E
330
17
100
AcDbEntity
  8
R-SWTS-DET2
  6
HIDDEN
100
AcDbLine
 10
22.53278503517855
 20
24.25686852424763
 30
0.0
 11
22.53278503517855
 21
27.40636852424764
 31
0.0
  0
LINE
  5
BE1F
330
17
100
AcDbEntity
  8
R-SWTS-DET2
  6
HIDDEN
100
AcDbLine
 10
22.78278503517855
 20
24.25686852424763
 30
0.0
 11
22.78278503517855
 21
27.40636852424764
 31
0.0
  0
LINE
  5
BE20
330
17
100
AcDbEntity
  8
R-SWTS-DET1
100
AcDbLine
 10
23.02278503517855
 20
19.90636852424763
 30
0.0
 11
23.02278503517855
 21
27.40636852424764
 31
0.0
  0
LINE
  5
BE25
330
17
100
AcDbEntity
  8
R-ANNO-DIMS
100
AcDbLine
 10
22.77278503517853
 20
25.90636852424764
 30
0.0
 11
24.10321091105096
 21
25.90636852424764
 31
0.0
  0
LINE
  5
BE26
330
17
100
AcDbEntity
  8
R-SWTS-DET2
100
AcDbLine
 10
22.24978503517853
 20
25.92236852424763
 30
0.0
 11
22.24978503517853
 21
25.89036852424764
 31
0.0
  0
MTEXT
  5
BE27
330
17
100
AcDbEntity
  8
R-ANNO-DIMS
100
AcDbMText
 10
24.7670280612051
 20
25.78136852424764
 30
0.0
 40
0.25
 41
0.0
 46
0.0
 71
     5
 72
     1
  1
\A1;3 1/4"
 11
0.0000000000000001
 21
1.0
 31
0.0
 73
     1
 44
1.0
  0
LINE
  5
BE28
330
17
100
AcDbEntity
  8
R-ANNO-DIMS
100
AcDbLine
 10
23.92321091105096
 20
25.65636852424764
 30
0.0
 11
23.92321091105096
 21
25.40636852424764
 31
0.0
  0
SOLID
  5
BE29
330
17
100
AcDbEntity
  8
R-ANNO-DIMS
100
AcDbTrace
 10
23.88154424438429
 20
25.65636852424764
 30
0.0
 11
23.96487757771763
 21
25.65636852424764
 31
0.0
 12
23.92321091105096
 22
25.90636852424764
 32
0.0
 13
23.92321091105096
 23
25.90636852424764
 33
0.0
  0
LINE
  5
BE2A
330
17
100
AcDbEntity
  8
R-ANNO-DIMS
100
AcDbLine
 10
24.99202806120511
 20
24.40636852424764
 30
0.0
 11
24.99202806120511
 21
27.15636852424764
 31
0.0
  0
SOLID
  5
BE2B
330
17
100
AcDbEntity
  8
R-ANNO-DIMS
100
AcDbTrace
 10
24.95036139453844
 20
24.40636852424764
 30
0.0
 11
25.03369472787178
 21
24.40636852424764
 31
0.0
 12
24.99202806120511
 22
24.15636852424764
 32
0.0
 13
24.99202806120511
 23
24.15636852424764
 33
0.0
  0
LINE
  5
BE2C
330
17
100
AcDbEntity
  8
R-ANNO-DIMS
100
AcDbLine
 10
23.39778503517855
 20
27.40636852424764
 30
0.0
 11
25.1720280612051
 21
27.40636852424764
 31
0.0
  0
LINE
  5
BE30
330
17
100
AcDbEntity
  8
R-SWTS-DET1
100
AcDbLine
 10
23.02278503517855
 20
27.90636852424764
 30
0.0
 11
23.02278503517855
 21
31.40636852424764
 31
0.0
  0
LINE
  5
BE31
330
17
100
AcDbEntity
  8
R-ANNO-DIMS
100
AcDbLine
 10
23.39778503517855
 20
27.40636852424764
 30
0.0
 11
24.10321091105096
 21
27.40636852424764
 31
0.0
  0
LINE
  5
BE32
330
17
100
AcDbEntity
  8
R-SWTS-DET2
  6
HIDDEN
100
AcDbLine
 10
22.53278503517855
 20
27.90636852424764
 30
0.0
 11
22.53278503517855
 21
30.75686852424762
 31
0.0
  0
LINE
  5
BE33
330
17
100
AcDbEntity
  8
R-SWTS-DET2
  6
HIDDEN
100
AcDbLine
 10
22.78278503517855
 20
27.90636852424764
 30
0.0
 11
22.78278503517855
 21
30.75686852424762
 31
0.0
  0
LINE
  5
BE34
330
17
100
AcDbEntity
  8
R-SWTS-DET2
100
AcDbLine
 10
22.53278503517855
 20
27.40636852424764
 30
0.0
 11
22.53278503517855
 21
27.90636852424764
 31
0.0
  0
LINE
  5
BE35
330
17
100
AcDbEntity
  8
R-SWTS-DET2
100
AcDbLine
 10
22.78278503517855
 20
27.40636852424764
 30
0.0
 11
22.78278503517855
 21
27.90636852424764
 31
0.0
  0
LINE
  5
BE36
330
17
100
AcDbEntity
  8
R-SWTS-DET2
100
AcDbLine
 10
22.27728503517854
 20
29.17336852424764
 30
0.0
 11
22.27728503517854
 21
29.13936852424765
 31
0.0
  0
LINE
  5
BE37
330
17
100
AcDbEntity
  8
R-SWTS-DET2
100
AcDbLine
 10
22.22953501517853
 20
29.13936852424765
 30
0.0
 11
22.27728503517854
 21
29.13936852424765
 31
0.0
  0
LINE
  5
BE38
330
17
100
AcDbEntity
  8
R-SWTS-DET2
100
AcDbLine
 10
22.22953501517853
 20
29.17336852424764
 30
0.0
 11
22.27728503517854
 21
29.17336852424764
 31
0.0
  0
SOLID
  5
BE39
330
17
100
AcDbEntity
  8
R-ANNO-DIMS
100
AcDbTrace
 10
23.8815442443843
 20
27.65636852424764
 30
0.0
 11
23.96487757771763
 21
27.65636852424764
 31
0.0
 12
23.92321091105096
 22
27.40636852424764
 32
0.0
 13
23.92321091105096
 23
27.40636852424764
 33
0.0
  0
LINE
  5
BE3A
330
17
100
AcDbEntity
  8
R-ANNO-DIMS
100
AcDbLine
 10
23.92321091105096
 20
27.65636852424764
 30
0.0
 11
23.92321091105096
 21
27.90636852424764
 31
0.0
  0
LINE
  5
BE3D
330
17
100
AcDbEntity
  8
R-ANNO-DIMS
100
AcDbLine
 10
23.02278503517858
 20
31.78136852424764
 30
0.0
 11
23.02278503517858
 21
32.83636852424763
 31
0.0
  0
SOLID
  5
BE3E
330
17
100
AcDbEntity
  8
R-ANNO-DIMS
100
AcDbTrace
 10
22.77278503517858
 20
32.6980351909143
 30
0.0
 11
22.77278503517858
 21
32.61470185758097
 31
0.0
 12
23.02278503517858
 22
32.65636852424764
 32
0.0
 13
23.02278503517858
 23
32.65636852424764
 33
0.0
  0
LINE
  5
BE97
330
17
100
AcDbEntity
  8
R-ANNO-DIMS
100
AcDbLine
 10
49.11158829806247
 20
28.85567653098995
 30
0.0
 11
50.66658829806247
 21
28.85567653098995
 31
0.0
  0
LINE
  5
BE98
330
17
100
AcDbEntity
  8
R-ANNO-DIMS
100
AcDbLine
 10
49.11158829806247
 20
23.60567653098995
 30
0.0
 11
50.66658829806247
 21
23.60567653098995
 31
0.0
  0
LWPOLYLINE
  5
BE9D
330
17
100
AcDbEntity
  8
R-SWTS-DET2
100
AcDbPolyline
 90
        8
 70
     1
 43
0.0
 10
46.06158829806179
 20
25.74067653098991
 42
0.4142135623730951
 10
46.1215882980618
 20
25.8006765309899
 10
46.1215882980618
 20
28.18067653098996
 42
0.4142135623730951
 10
46.06158829806179
 20
28.24067653098996
 10
44.9215882980618
 20
28.24067653098996
 42
0.4142135623730908
 10
44.86158829806179
 20
28.18067653098996
 10
44.86158829806179
 20
25.80067653098991
 42
0.4142135623730951
 10
44.9215882980618
 20
25.74067653098991
  0
LWPOLYLINE
  5
BE9E
330
17
100
AcDbEntity
  8
R-SWTS-DET2
100
AcDbPolyline
 90
       28
 70
     1
 43
0.0
 10
44.8615882980618
 20
25.49067653098992
 10
44.86158829806179
 20
25.3656765309899
 10
44.42158829806179
 20
25.36567653098992
 42
-0.4142135623730951
 10
44.3615882980618
 20
25.42567653098992
 10
44.3615882980618
 20
25.49067653098992
 10
44.73658829806179
 20
25.61567653098991
 10
44.73658829806179
 20
28.36567653098996
 10
44.3615882980618
 20
28.49067653098995
 10
44.3615882980618
 20
28.55567653098995
 42
-0.4142135623730819
 10
44.4215882980618
 20
28.61567653098995
 10
44.86158829806179
 20
28.61567653098997
 10
44.8615882980618
 20
28.49067653098995
 42
0.4142135623730784
 10
44.9865882980618
 20
28.36567653098996
 10
45.9965882980618
 20
28.36567653098996
 42
0.4142135623730951
 10
46.12158829806179
 20
28.49067653098996
 10
46.12158829806179
 20
28.61567653098997
 10
46.56158829806179
 20
28.61567653098995
 42
-0.4142135623730821
 10
46.6215882980618
 20
28.55567653098995
 10
46.6215882980618
 20
28.49067653098995
 10
46.2465882980618
 20
28.36567653098996
 10
46.2465882980618
 20
25.61567653098991
 10
46.6215882980618
 20
25.49067653098992
 10
46.6215882980618
 20
25.42567653098992
 42
-0.4142135623730778
 10
46.56158829806179
 20
25.36567653098992
 10
46.12158829806179
 20
25.3656765309899
 10
46.12158829806179
 20
25.49067653098991
 42
0.4142135623730951
 10
45.9965882980618
 20
25.61567653098991
 10
44.9865882980618
 20
25.61567653098991
 42
0.4142135623730763
  0
LWPOLYLINE
  5
BE9F
330
17
100
AcDbEntity
  8
R-SWTS-DET1
100
AcDbPolyline
 90
       28
 70
     1
 43
0.0
 10
45.58758829806246
 20
25.29567653098982
 10
45.58758829806246
 20
25.23567653098997
 10
45.38558829806246
 20
25.23567653098997
 10
45.38558829806246
 20
25.29567653098987
 42
0.4142135623730474
 10
45.32558829806247
 20
25.35567653098987
 10
44.57258829806243
 20
25.35567653098999
 42
0.4142135623732339
 10
44.54258829806242
 20
25.32567653098998
 10
44.54258829806247
 20
25.20567653098994
 10
44.33658829806247
 20
25.20567653098996
 10
44.33658829806247
 20
28.75567653098996
 10
44.49658829806245
 20
28.75567653098996
 42
-0.4142135623730951
 10
44.55658829806245
 20
28.69567653098996
 10
44.55658829806245
 20
28.63567653098996
 10
44.79158829806245
 20
28.63567653098996
 10
44.79158829806245
 20
28.69567653098998
 42
-0.4142135623730974
 10
44.85158829806245
 20
28.75567653098998
 10
46.12158829806246
 20
28.75567653098997
 42
-0.4142135623731013
 10
46.18158829806247
 20
28.69567653098997
 10
46.18158829806247
 20
28.63567653098996
 10
46.41658829806247
 20
28.63567653098996
 10
46.41658829806247
 20
28.69567653098997
 42
-0.4142135623730951
 10
46.47658829806247
 20
28.75567653098996
 10
46.63658829806246
 20
28.75567653098996
 10
46.63658829806246
 20
25.20567653098996
 10
46.43058829806246
 20
25.20567653098994
 10
46.4305882980625
 20
25.32567653098968
 42
0.4142135623731471
 10
46.40058829806251
 20
25.3556765309897
 10
45.64758829806248
 20
25.35567653098981
 42
0.4142135623731341
  0
LWPOLYLINE
  5
BEA0
330
17
100
AcDbEntity
  8
R-SWTS-DET1
100
AcDbPolyline
 90
       43
 70
     1
 43
0.0
 10
46.30401686949102
 20
25.13131818959938
 42
0.6693764950687389
 10
46.31458829806246
 20
25.10567653098994
 10
46.73658829806246
 20
25.10567653098996
 10
46.73658829806246
 20
28.85567653098995
 10
44.23658829806246
 20
28.85567653098998
 10
44.23658829806246
 20
25.10567653098996
 10
44.65858829806246
 20
25.10567653098994
 42
0.6693764950687386
 10
44.6691597266339
 20
25.13131818959938
 42
-0.1997729274168749
 10
44.64258829806246
 20
25.19516814125583
 10
44.64258829806246
 20
25.20567653098996
 42
-0.4142135623730951
 10
44.69258829806246
 20
25.25567653098996
 10
44.78058829806246
 20
25.25567653098996
 42
-0.4142135623730743
 10
44.83058829806246
 20
25.20567653098995
 10
44.83058829806246
 20
25.19516814125583
 42
-0.1997729274170188
 10
44.80401686949095
 20
25.13131818959938
 42
0.669376495068904
 10
44.81458829806237
 20
25.10567653098997
 10
44.94158829806247
 20
25.10567653098997
 42
0.4142135623730951
 10
44.97158829806247
 20
25.13567653098997
 10
44.97158829806247
 20
25.22567653098992
 42
-0.4142135623731471
 10
45.00158829806247
 20
25.25567653098992
 10
45.25558829806247
 20
25.25567653098987
 42
-0.4142135623730516
 10
45.28558829806246
 20
25.22567653098987
 10
45.28558829806246
 20
25.13567653098997
 42
0.4142135623731038
 10
45.31558829806246
 20
25.10567653098997
 10
45.45658829806247
 20
25.10567653098997
 10
45.48658829806247
 20
25.13567653098997
 10
45.51658829806247
 20
25.10567653098997
 10
45.65758829806247
 20
25.10567653098997
 42
0.4142135623730951
 10
45.68758829806247
 20
25.13567653098997
 10
45.68758829806247
 20
25.2256765309898
 42
-0.4142135623731471
 10
45.71758829806247
 20
25.2556765309898
 10
45.97158829806247
 20
25.25567653098976
 42
-0.4142135623730516
 10
46.00158829806247
 20
25.22567653098976
 10
46.00158829806247
 20
25.13567653098997
 42
0.4142135623730863
 10
46.03158829806247
 20
25.10567653098997
 10
46.15858829806255
 20
25.10567653098997
 42
0.6693764950688821
 10
46.16915972663393
 20
25.13131818959934
 42
-0.1997729274170196
 10
46.14258829806246
 20
25.19516814125583
 10
46.14258829806246
 20
25.20567653098995
 42
-0.4142135623730743
 10
46.19258829806246
 20
25.25567653098996
 10
46.28058829806247
 20
25.25567653098996
 42
-0.4142135623730951
 10
46.33058829806246
 20
25.20567653098996
 10
46.33058829806246
 20
25.19516814125583
 42
-0.1997729274168747
  0
LWPOLYLINE
  5
BEA2
330
17
100
AcDbEntity
  8
R-SWTS-DET1
100
AcDbPolyline
 90
        6
 70
     0
 43
0.0
 10
42.23658829806246
 20
23.35567653098995
 10
42.23658829806246
 20
26.12479578455233
 10
42.02433610793959
 20
26.17771619921475
 10
42.44916068577501
 20
26.28363686276516
 10
42.23658829806246
 20
26.33663711165314
 10
42.23658829806246
 20
29.10567653098996
  0
LWPOLYLINE
  5
BEA3
330
17
100
AcDbEntity
  8
R-SWTS-DET1
100
AcDbPolyline
 90
        6
 70
     0
 43
0.0
 10
48.73658829806246
 20
23.35567653098995
 10
48.73658829806246
 20
26.12479578455233
 10
48.52433610793958
 20
26.17771619921475
 10
48.94916068577501
 20
26.28363686276516
 10
48.73658829806246
 20
26.33663711165313
 10
48.73658829806246
 20
29.10567653098996
  0
SOLID
  5
BEA4
330
17
100
AcDbEntity
  8
R-ANNO-DIMS
100
AcDbTrace
 10
44.48658829806313
 20
21.89734319765662
 30
0.0
 11
44.48658829806313
 21
21.81400986432329
 31
0.0
 12
44.23658829806313
 22
21.85567653098996
 32
0.0
 13
44.23658829806313
 23
21.85567653098996
 33
0.0
  0
LWPOLYLINE
  5
BEA5
330
17
100
AcDbEntity
  8
R-SWTS-DET3
100
AcDbPolyline
 90
        4
 70
     0
 43
0.0
 10
42.23658829806246
 20
24.85567653098995
 10
45.23658829806313
 20
24.85567653098995
 10
45.23658829806313
 20
24.60567653098995
 10
42.23658829806246
 20
24.60567653098995
  0
ARC
  5
BEA6
330
17
100
AcDbEntity
  8
R-SWTS-DET3
100
AcDbCircle
 10
43.95017731712837
 20
24.98067653098994
 30
0.0
 40
0.3125
100
AcDbArc
 50
336.421821521801
 51
23.57817847819727
  0
LINE
  5
BEA7
330
17
100
AcDbEntity
  8
R-SWTS-DET1
100
AcDbLine
 10
48.73658829806246
 20
23.60567653098995
 30
0.0
 11
42.23658829806246
 21
23.60567653098995
 31
0.0
  0
LINE
  5
BEA8
330
17
100
AcDbEntity
  8
R-SWTS-DET1
100
AcDbLine
 10
48.73658829806246
 20
24.0659216089661
 30
0.0
 11
42.23658829806246
 21
24.0659216089661
 31
0.0
  0
MTEXT
  5
BEA9
330
17
100
AcDbEntity
  8
R-ANNO-DIMS
100
AcDbMText
 10
43.23658829806279
 20
22.08067653098995
 30
0.0
 40
0.25
 41
0.0
 46
0.0
 71
     5
 72
     1
  1
\A1;DLO
 73
     1
 44
1.0
  0
LINE
  5
BEAA
330
17
100
AcDbEntity
  8
R-ANNO-DIMS
100
AcDbLine
 10
44.23658829806313
 20
24.73067653098993
 30
0.0
 11
44.23658829806313
 21
21.67567653098995
 31
0.0
  0
LINE
  5
BEAB
330
17
100
AcDbEntity
  8
R-ANNO-DIMS
100
AcDbLine
 10
44.23658829806313
 20
24.73067653098993
 30
0.0
 11
44.23658829806313
 21
21.67567653098995
 31
0.0
  0
LINE
  5
BEAC
330
17
100
AcDbEntity
  8
R-ANNO-DIMS
100
AcDbLine
 10
43.98658829806313
 20
21.85567653098996
 30
0.0
 11
42.48658829806246
 21
21.85567653098996
 31
0.0
  0
SOLID
  5
BEAD
330
17
100
AcDbEntity
  8
R-ANNO-DIMS
100
AcDbTrace
 10
42.48658829806246
 20
21.89734319765662
 30
0.0
 11
42.48658829806246
 21
21.81400986432329
 31
0.0
 12
42.23658829806246
 22
21.85567653098996
 32
0.0
 13
42.23658829806246
 23
21.85567653098996
 33
0.0
  0
SOLID
  5
BEAE
330
17
100
AcDbEntity
  8
R-ANNO-DIMS
100
AcDbTrace
 10
43.98658829806313
 20
21.89734319765662
 30
0.0
 11
43.98658829806313
 21
21.81400986432329
 31
0.0
 12
44.23658829806313
 22
21.85567653098996
 32
0.0
 13
44.23658829806313
 23
21.85567653098996
 33
0.0
  0
LINE
  5
BEAF
330
17
100
AcDbEntity
  8
R-SWTS-DET1
100
AcDbLine
 10
44.23658829806313
 20
25.41817653098995
 30
0.0
 11
42.23658829806246
 21
25.41817653098995
 31
0.0
  0
MTEXT
  5
BEB0
330
17
100
AcDbEntity
  8
R-ANNO-DIMS
100
AcDbMText
 10
47.73658829806279
 20
22.08067653098995
 30
0.0
 40
0.25
 41
0.0
 46
0.0
 71
     5
 72
     1
  1
\A1;DLO
 73
     1
 44
1.0
  0
LINE
  5
BEB1
330
17
100
AcDbEntity
  8
R-ANNO-DIMS
100
AcDbLine
 10
46.73658829806313
 20
24.73067653098993
 30
0.0
 11
46.73658829806313
 21
21.67567653098995
 31
0.0
  0
MTEXT
  5
BEB2
330
17
100
AcDbEntity
  8
R-ANNO-DIMS
100
AcDbMText
 10
45.48658829806313
 20
22.08067653098995
 30
0.0
 40
0.25
 41
0.0
 46
0.0
 71
     5
 72
     1
  1
\A1;2 1/2"
 73
     1
 44
1.0
  0
LINE
  5
BEB3
330
17
100
AcDbEntity
  8
R-ANNO-DIMS
100
AcDbLine
 10
46.73658829806313
 20
24.73067653098993
 30
0.0
 11
46.73658829806313
 21
21.67567653098995
 31
0.0
  0
SOLID
  5
BEB4
330
17
100
AcDbEntity
  8
R-ANNO-DIMS
100
AcDbTrace
 10
46.98658829806313
 20
21.89734319765662
 30
0.0
 11
46.98658829806313
 21
21.81400986432329
 31
0.0
 12
46.73658829806313
 22
21.85567653098996
 32
0.0
 13
46.73658829806313
 23
21.85567653098996
 33
0.0
  0
LINE
  5
BEB5
330
17
100
AcDbEntity
  8
R-ANNO-DIMS
100
AcDbLine
 10
46.48658829806313
 20
21.85567653098996
 30
0.0
 11
44.48658829806313
 21
21.85567653098996
 31
0.0
  0
SOLID
  5
BEB6
330
17
100
AcDbEntity
  8
R-ANNO-DIMS
100
AcDbTrace
 10
46.48658829806313
 20
21.89734319765662
 30
0.0
 11
46.48658829806313
 21
21.81400986432329
 31
0.0
 12
46.73658829806313
 22
21.85567653098996
 32
0.0
 13
46.73658829806313
 23
21.85567653098996
 33
0.0
  0
LINE
  5
BEB7
330
17
100
AcDbEntity
  8
R-ANNO-DIMS
100
AcDbLine
 10
46.98658829806313
 20
21.85567653098996
 30
0.0
 11
48.48658829806247
 21
21.85567653098996
 31
0.0
  0
SOLID
  5
BEB8
330
17
100
AcDbEntity
  8
R-ANNO-DIMS
100
AcDbTrace
 10
48.48658829806247
 20
21.89734319765662
 30
0.0
 11
48.48658829806247
 21
21.81400986432329
 31
0.0
 12
48.73658829806246
 22
21.85567653098996
 32
0.0
 13
48.73658829806246
 23
21.85567653098996
 33
0.0
  0
LINE
  5
BEBA
330
17
100
AcDbEntity
  8
R-SWTS-DET2
100
AcDbLine
 10
46.79991215806246
 20
26.19317653098992
 30
0.0
 11
46.73658829806246
 21
26.19317653098992
 31
0.0
  0
LINE
  5
BEBB
330
17
100
AcDbEntity
  8
R-SWTS-DET2
100
AcDbLine
 10
46.79991215806245
 20
25.76817653098993
 30
0.0
 11
46.73658829806246
 21
25.76817653098993
 31
0.0
  0
LWPOLYLINE
  5
BEBC
330
17
100
AcDbEntity
  8
R-SWTS-DET3
100
AcDbPolyline
 90
        4
 70
     0
 43
0.0
 10
48.73658829806246
 20
24.85567653098995
 10
45.73658829806313
 20
24.85567653098995
 10
45.73658829806313
 20
24.60567653098995
 10
48.73658829806246
 20
24.60567653098995
  0
LINE
  5
BEBD
330
17
100
AcDbEntity
  8
R-SWTS-DET1
100
AcDbLine
 10
46.73658829806313
 20
25.41817653098995
 30
0.0
 11
48.73658829806246
 21
25.41817653098995
 31
0.0
  0
LWPOLYLINE
  5
BEBE
330
17
100
AcDbEntity
  8
R-SWTS-DET3
100
AcDbPolyline
 90
        4
 70
     1
 43
0.0
 10
45.23658829806313
 20
24.85567653098995
 42
0.1214184523029197
 10
45.73658829806313
 20
24.85567653098995
 42
0.9999999999999873
 10
45.6575882980618
 20
25.10567653098994
 10
45.31558829806313
 20
25.10567653098994
 42
1.0
  0
ARC
  5
BEBF
330
17
100
AcDbEntity
  8
R-SWTS-DET3
100
AcDbCircle
 10
45.48658829806313
 20
24.03285456912044
 30
0.0
 40
0.625
100
AcDbArc
 50
66.4218215217991
 51
113.5781784782009
  0
LINE
  5
BEC0
330
17
100
AcDbEntity
  8
R-SWTS-DET2
100
AcDbLine
 10
44.65958829806313
 20
24.85543145301381
 30
0.0
 11
44.65958829806313
 21
25.10543145301381
 31
0.0
  0
LINE
  5
BEC1
330
17
100
AcDbEntity
  8
R-SWTS-DET2
100
AcDbLine
 10
44.97158829806313
 20
25.10543145301381
 30
0.0
 11
44.97158829806314
 21
24.85543145301381
 31
0.0
  0
LINE
  5
BEC2
330
17
100
AcDbEntity
  8
R-SWTS-DET2
100
AcDbLine
 10
46.00158829806179
 20
25.10543145301381
 30
0.0
 11
46.00158829806178
 21
24.85543145301381
 31
0.0
  0
LINE
  5
BEC3
330
17
100
AcDbEntity
  8
R-SWTS-DET2
100
AcDbLine
 10
46.31358829806179
 20
24.85543145301381
 30
0.0
 11
46.31358829806179
 21
25.10543145301381
 31
0.0
  0
ARC
  5
BEC4
330
17
100
AcDbEntity
  8
R-SWTS-DET3
100
AcDbCircle
 10
47.02299927899655
 20
24.98067653098994
 30
0.0
 40
0.3125
100
AcDbArc
 50
156.4218215218036
 51
203.5781784781982
  0
LINE
  5
BEC5
330
17
100
AcDbEntity
  8
R-SWTS-DET2
100
AcDbLine
 10
46.73658829806246
 20
25.87267653098993
 30
0.0
 11
45.84459129806247
 21
25.87267653098993
 31
0.0
  0
LINE
  5
BEC6
330
17
100
AcDbEntity
  8
R-SWTS-DET2
100
AcDbLine
 10
46.73658829806246
 20
26.08867653098993
 30
0.0
 11
45.84459129806247
 21
26.08867653098993
 31
0.0
  0
LINE
  5
BEC7
330
17
100
AcDbEntity
  8
R-SWTS-DET2
100
AcDbLine
 10
45.73659029806246
 20
25.98067707890043
 30
0.0
 11
45.84459129806247
 21
25.87267663098993
 31
0.0
  0
LINE
  5
BEC8
330
17
100
AcDbEntity
  8
R-SWTS-DET2
100
AcDbLine
 10
45.73659029806246
 20
25.98067598307942
 30
0.0
 11
45.84459129806247
 21
26.08867643098993
 31
0.0
  0
LINE
  5
BEC9
330
17
100
AcDbEntity
  8
R-SWTS-DET2
100
AcDbLine
 10
46.73658829806246
 20
25.76817653098993
 30
0.0
 11
46.73658829806246
 21
26.19317653098992
 31
0.0
  0
ARC
  5
BECA
330
17
100
AcDbEntity
  8
R-SWTS-DET2
100
AcDbCircle
 10
46.55079039806246
 20
25.98067653098993
 30
0.0
 40
0.3367977
100
AcDbArc
 50
323.0332999999999
 51
36.96669999999997
  0
ARC
  5
BECB
330
17
100
AcDbEntity
  8
R-SWTS-DET2
100
AcDbCircle
 10
46.79991215806245
 20
25.79317663098993
 30
0.0
 40
0.02500004
100
AcDbArc
 50
269.9997999999998
 51
323.0329999999998
  0
ARC
  5
BECC
330
17
100
AcDbEntity
  8
R-SWTS-DET2
100
AcDbCircle
 10
46.79991215806246
 20
26.16817643098992
 30
0.0
 40
0.02500004
100
AcDbArc
 50
36.96699999999996
 51
90.0
  0
LINE
  5
BED1
330
17
100
AcDbEntity
  8
R-SWTS-DET1
100
AcDbLine
 10
44.23658829806246
 20
28.85567653098995
 30
0.0
 11
42.23658829806246
 21
28.85567653098995
 31
0.0
  0
LINE
  5
BED5
330
17
100
AcDbEntity
  8
R-SWTS-DET2
100
AcDbLine
 10
46.84878819826673
 20
27.78817673098993
 30
0.0
 11
46.73662709806246
 21
27.88567674098992
 31
0.0
  0
LINE
  5
BED6
330
17
100
AcDbEntity
  8
R-SWTS-DET2
100
AcDbLine
 10
46.84878821445368
 20
28.17317633098993
 30
0.0
 11
46.73662729806246
 21
28.07567644098993
 31
0.0
  0
LINE
  5
BED7
330
17
100
AcDbEntity
  8
R-SWTS-DET1
100
AcDbLine
 10
46.73658829806246
 20
28.85567653098995
 30
0.0
 11
48.73658829806246
 21
28.85567653098995
 31
0.0
  0
LINE
  5
BED8
330
17
100
AcDbEntity
  8
R-SWTS-DET2
100
AcDbLine
 10
46.73662699806246
 20
27.88567662098993
 30
0.0
 11
45.83378829806246
 21
27.88567662098993
 31
0.0
  0
LINE
  5
BED9
330
17
100
AcDbEntity
  8
R-SWTS-DET2
100
AcDbLine
 10
46.73662729806246
 20
28.07567656098992
 30
0.0
 11
45.83378829806246
 21
28.07567656098992
 31
0.0
  0
LINE
  5
BEDA
330
17
100
AcDbEntity
  8
R-SWTS-DET2
100
AcDbLine
 10
45.74934629806246
 20
27.91317659098993
 30
0.0
 11
45.83378929806246
 21
27.88567662098993
 31
0.0
  0
LINE
  5
BEDB
330
17
100
AcDbEntity
  8
R-SWTS-DET2
100
AcDbLine
 10
45.74934629806246
 20
28.04817653098993
 30
0.0
 11
45.63934629806246
 21
28.04817653098993
 31
0.0
  0
LINE
  5
BEDC
330
17
100
AcDbEntity
  8
R-SWTS-DET2
100
AcDbLine
 10
45.74934629806246
 20
27.91317653098993
 30
0.0
 11
45.63934629806246
 21
27.91317653098993
 31
0.0
  0
LINE
  5
BEDD
330
17
100
AcDbEntity
  8
R-SWTS-DET2
100
AcDbLine
 10
45.59878929806246
 20
27.98067633150362
 30
0.0
 11
45.63934729806246
 21
28.04817635098993
 31
0.0
  0
LINE
  5
BEDE
330
17
100
AcDbEntity
  8
R-SWTS-DET2
100
AcDbLine
 10
45.59878929806246
 20
27.98067673047623
 30
0.0
 11
45.63934729806246
 21
27.91317671098993
 31
0.0
  0
LINE
  5
BEDF
330
17
100
AcDbEntity
  8
R-SWTS-DET2
100
AcDbLine
 10
45.74934629806246
 20
28.04817658098992
 30
0.0
 11
45.83378929806246
 21
28.07567656098992
 31
0.0
  0
LINE
  5
BEE0
330
17
100
AcDbEntity
  8
R-SWTS-DET2
100
AcDbLine
 10
46.73662709806246
 20
28.07567626098992
 30
0.0
 11
46.73662709806246
 21
27.88567680098993
 31
0.0
  0
LINE
  5
BEE2
330
17
100
AcDbEntity
  8
R-SWTS-DET2
100
AcDbLine
 10
46.84878829806247
 20
27.78817663098993
 30
0.0
 11
46.84878829806247
 21
28.17317643098993
 31
0.0
  0
MTEXT
  5
BEE3
330
17
100
AcDbEntity
  8
R-ANNO-DIMS
100
AcDbMText
 10
50.26158829806246
 20
26.23067653098996
 30
0.0
 40
0.25
 41
0.0
 46
0.0
 71
     5
 72
     1
  1
\A1;5 1/4"
 11
0.0000000000000001
 21
1.0
 31
0.0
 73
     1
 44
1.0
  0
LINE
  5
BEE4
330
17
100
AcDbEntity
  8
R-ANNO-DIMS
100
AcDbLine
 10
50.48658829806246
 20
23.85567653098995
 30
0.0
 11
50.48658829806246
 21
28.60567653098995
 31
0.0
  0
SOLID
  5
BEE5
330
17
100
AcDbEntity
  8
R-ANNO-DIMS
100
AcDbTrace
 10
50.4449216313958
 20
23.85567653098995
 30
0.0
 11
50.52825496472912
 21
23.85567653098995
 31
0.0
 12
50.48658829806246
 22
23.60567653098995
 32
0.0
 13
50.48658829806246
 23
23.60567653098995
 33
0.0
  0
SOLID
  5
BEE6
330
17
100
AcDbEntity
  8
R-ANNO-DIMS
100
AcDbTrace
 10
50.4449216313958
 20
28.60567653098995
 30
0.0
 11
50.52825496472912
 21
28.60567653098995
 31
0.0
 12
50.48658829806246
 22
28.85567653098995
 32
0.0
 13
50.48658829806246
 23
28.85567653098995
 33
0.0
  0
MTEXT
  5
BFA7
330
17
100
AcDbEntity
  8
R-ANNO-DIMS
100
AcDbMText
 10
63.70290168701131
 20
30.3043191678557
 30
0.0
 40
0.25
 41
0.0
 46
0.0
 71
     5
 72
     1
  1
\A1;90°
 73
     1
 44
1.0
  0
SOLID
  5
BFA8
330
17
100
AcDbEntity
  8
R-ANNO-DIMS
100
AcDbTrace
 10
62.36560893303544
 20
29.79695583938048
 30
0.0
 11
62.31013583043331
 21
29.85914248852751
 31
0.0
 12
62.15131243429329
 22
29.66162985614754
 32
0.0
 13
62.15131243429329
 23
29.66162985614754
 33
0.0
  0
SOLID
  5
BFA9
330
17
100
AcDbEntity
  8
R-ANNO-DIMS
100
AcDbTrace
 10
65.09566754358934
 20
29.8591424885275
 30
0.0
 11
65.0401944409872
 21
29.79695583938047
 31
0.0
 12
65.25449093972937
 22
29.66162985614754
 32
0.0
 13
65.25449093972937
 23
29.66162985614754
 33
0.0
  0
ARC
  5
BFAA
330
17
100
AcDbEntity
  8
R-ANNO-DIMS
100
AcDbCircle
 10
63.70290168701131
 20
28.11004060342951
 30
0.0
 40
2.19427856442619
100
AcDbArc
 50
100.2820812624155
 51
128.4686034390468
  0
ARC
  5
BFAB
330
17
100
AcDbEntity
  8
R-ANNO-DIMS
100
AcDbCircle
 10
63.70290168701131
 20
28.11004060342951
 30
0.0
 40
2.19427856442619
100
AcDbArc
 50
51.53139656095302
 51
79.71791873758371
  0
MTEXT
  5
BFAC
330
17
100
AcDbEntity
  8
R-ANNO-DIMS
100
AcDbMText
 10
59.19066572559791
 20
24.93051705632836
 30
0.0
 40
0.25
 41
0.0
 46
0.0
 71
     5
 72
     1
  1
\A1;1 3/4"
 11
0.0000000000000001
 21
1.0
 31
0.0
 73
     1
 44
1.0
  0
SOLID
  5
BFAD
330
17
100
AcDbEntity
  8
R-ANNO-DIMS
100
AcDbTrace
 10
59.37399905893123
 20
25.55551705632836
 30
0.0
 11
59.45733239226457
 21
25.55551705632836
 31
0.0
 12
59.4156657255979
 22
25.80551705632836
 32
0.0
 13
59.4156657255979
 23
25.80551705632836
 33
0.0
  0
SOLID
  5
BFAE
330
17
100
AcDbEntity
  8
R-ANNO-DIMS
100
AcDbTrace
 10
59.37399905893123
 20
24.30551705632836
 30
0.0
 11
59.45733239226457
 21
24.30551705632836
 31
0.0
 12
59.4156657255979
 22
24.05551705632837
 32
0.0
 13
59.4156657255979
 23
24.05551705632837
 33
0.0
  0
LINE
  5
BFAF
330
17
100
AcDbEntity
  8
R-ANNO-DIMS
100
AcDbLine
 10
59.4156657255979
 20
24.30551705632836
 30
0.0
 11
59.4156657255979
 21
25.55551705632836
 31
0.0
  0
LINE
  5
BFB0
330
17
100
AcDbEntity
  8
R-ANNO-DIMS
100
AcDbLine
 10
63.28391237521336
 20
25.80551705632836
 30
0.0
 11
59.23566572559789
 21
25.80551705632836
 31
0.0
  0
LINE
  5
BFB1
330
17
100
AcDbEntity
  8
R-ANNO-DIMS
100
AcDbLine
 10
62.07912437521335
 20
24.05551705632837
 30
0.0
 11
59.23566572559789
 21
24.05551705632837
 31
0.0
  0
MTEXT
  5
BFB2
330
17
100
AcDbEntity
  8
R-ANNO-DIMS
100
AcDbMText
 10
59.19066572559791
 20
27.57218372299503
 30
0.0
 40
0.25
 41
0.0
 46
0.0
 71
     5
 72
     1
  1
\A1;3/4"
 11
0.0000000000000001
 21
1.0
 31
0.0
 73
     1
 44
1.0
  0
SOLID
  5
BFB3
330
17
100
AcDbEntity
  8
R-ANNO-DIMS
100
AcDbTrace
 10
59.37399905893123
 20
26.80551705632836
 30
0.0
 11
59.45733239226457
 21
26.80551705632836
 31
0.0
 12
59.4156657255979
 22
26.55551705632837
 32
0.0
 13
59.4156657255979
 23
26.55551705632837
 33
0.0
  0
SOLID
  5
BFB4
330
17
100
AcDbEntity
  8
R-ANNO-DIMS
100
AcDbTrace
 10
59.37399905893123
 20
25.55551705632836
 30
0.0
 11
59.45733239226457
 21
25.55551705632836
 31
0.0
 12
59.4156657255979
 22
25.80551705632836
 32
0.0
 13
59.4156657255979
 23
25.80551705632836
 33
0.0
  0
LINE
  5
BFB5
330
17
100
AcDbEntity
  8
R-ANNO-DIMS
100
AcDbLine
 10
59.4156657255979
 20
26.80551705632836
 30
0.0
 11
59.4156657255979
 21
28.08885038966169
 31
0.0
  0
LINE
  5
BFB6
330
17
100
AcDbEntity
  8
R-ANNO-DIMS
100
AcDbLine
 10
59.4156657255979
 20
25.55551705632836
 30
0.0
 11
59.4156657255979
 21
25.30551705632837
 31
0.0
  0
LINE
  5
BFB7
330
17
100
AcDbEntity
  8
R-ANNO-DIMS
100
AcDbLine
 10
63.19951037521335
 20
26.55551705632837
 30
0.0
 11
59.23566572559789
 21
26.55551705632837
 31
0.0
  0
LINE
  5
BFB8
330
17
100
AcDbEntity
  8
R-ANNO-DIMS
100
AcDbLine
 10
63.28391237521336
 20
25.80551705632836
 30
0.0
 11
59.23566572559789
 21
25.80551705632836
 31
0.0
  0
LINE
  5
BFB9
330
17
100
AcDbEntity
  8
R-SWTS-DET2
100
AcDbLine
 10
62.70938992322171
 20
23.44669811772676
 30
0.0
 11
62.88616661851834
 21
23.6234748130234
 31
0.0
  0
LINE
  5
BFBA
330
17
100
AcDbEntity
  8
R-SWTS-DET2
100
AcDbLine
 10
63.10678393424854
 20
23.4028574972932
 30
0.0
 11
62.9300072389519
 21
23.22608080199655
 31
0.0
  0
LINE
  5
BFBB
330
17
100
AcDbEntity
  8
R-SWTS-DET2
100
AcDbLine
 10
64.698858827205
 20
23.44669811772676
 30
0.0
 11
64.52208213190838
 21
23.62347481302339
 31
0.0
  0
LINE
  5
BFBC
330
17
100
AcDbEntity
  8
R-SWTS-DET2
100
AcDbLine
 10
64.30146481617817
 20
23.40285749729319
 30
0.0
 11
64.4782415114748
 21
23.22608080199655
 31
0.0
  0
LWPOLYLINE
  5
BFBD
330
17
100
AcDbEntity
  8
R-SWTS-DET1
100
AcDbPolyline
 90
       30
 70
     1
 43
0.0
 10
62.72625640956933
 20
24.09551705632836
 10
62.55412437521335
 20
24.09551705632836
 10
62.55412437521336
 20
27.31551705632836
 42
-0.4142135623730948
 10
62.61412437521336
 20
27.37551705632836
 10
62.75412437521335
 20
27.37551705632836
 10
62.75412437521335
 20
27.47551705632837
 10
62.61412437521335
 20
27.47551705632837
 42
-0.4142135623730953
 10
62.55412437521335
 20
27.53551705632836
 10
62.55412437521336
 20
29.06618335555457
 42
-0.6681786379192927
 10
62.60533757864895
 20
29.08739655899016
 10
63.63341369709471
 20
28.05932044054441
 42
0.414213562373095
 10
63.77483505333201
 20
28.05932044054441
 10
64.80291117177777
 20
29.08739655899016
 42
-0.6681786379192989
 10
64.85412437521336
 20
29.06618335555457
 10
64.85412437525056
 20
27.53551705632982
 42
-0.4142135623802149
 10
64.79412437525056
 20
27.47551705632836
 10
64.65412437521336
 20
27.47551705632836
 10
64.65412437521336
 20
27.37551705632836
 10
64.79412437488614
 20
27.37551705632836
 42
-0.4142135623433159
 10
64.85412437488614
 20
27.31551705633446
 10
64.8541243752135
 20
24.09551705632836
 10
64.68199234085737
 20
24.09551705632836
 42
0.198912367379668
 10
64.61128166273872
 20
24.06622773444701
 10
64.25974551608817
 20
23.71469158779644
 42
0.4142135623730732
 10
64.25974551608819
 20
23.50255955344048
 10
63.87270301897604
 20
23.11551705632836
 10
63.53554573145067
 20
23.11551705632836
 10
63.14850323433856
 20
23.50255955344047
 42
0.4142135623730729
 10
63.14850323433853
 20
23.71469158779644
 10
62.79696708768799
 20
24.06622773444702
 42
0.1989123673796679
  0
LWPOLYLINE
  5
BFBE
330
17
100
AcDbEntity
  8
R-SWTS-DET1
100
AcDbPolyline
 90
       32
 70
     1
 43
0.0
 10
64.49718271917631
 20
23.63483818165848
 42
0.1997729274168433
 10
64.47082282271026
 20
23.69877575278185
 10
64.46339226906991
 20
23.70620630642221
 42
0.4142135623730951
 10
64.39268159095125
 20
23.70620630642221
 10
64.33045619420683
 20
23.64398090967779
 42
0.4142135623730768
 10
64.33045619420685
 20
23.57327023155914
 10
64.33788674784719
 20
23.56583967791878
 42
0.1997729274168565
 10
64.40182431897056
 20
23.53947978145274
 42
-0.6693764950686331
 10
64.41248058082447
 20
23.51387326193947
 10
63.88412437521336
 20
22.98551705632836
 10
63.73412437521335
 20
22.98551705632836
 10
63.70412437521335
 20
23.01551705632836
 10
63.67412437521335
 20
22.98551705632835
 10
63.52412437521336
 20
22.98551705632836
 10
62.99576816960225
 20
23.51387326193947
 42
-0.6693764950686712
 10
63.00642443145614
 20
23.53947978145274
 42
0.1997729274168565
 10
63.07036200257951
 20
23.56583967791878
 10
63.07779255621987
 20
23.57327023155914
 42
0.4142135623730693
 10
63.07779255621987
 20
23.64398090967779
 10
63.01556715947547
 20
23.70620630642221
 42
0.4142135623730951
 10
62.94485648135681
 20
23.70620630642221
 10
62.93742592771645
 20
23.69877575278185
 42
0.1997729274168439
 10
62.91106603125041
 20
23.63483818165847
 42
-0.6693764950686858
 10
62.88545951173714
 20
23.62418191980458
 10
62.45412437521335
 20
24.05551705632837
 10
62.45412437521335
 20
29.35588898303933
 42
-0.6681786379192989
 10
62.47119544302522
 20
29.3629600508512
 10
63.70412437521335
 20
28.13003111866307
 10
64.9370533074015
 20
29.3629600508512
 42
-0.6681786379193443
 10
64.95412437521335
 20
29.35588898303933
 10
64.95412437521335
 20
24.05551705632837
 10
64.52278923868958
 20
23.62418191980458
 42
-0.6693764950686959
  0
ARC
  5
BFBF
330
17
100
AcDbEntity
  8
R-SWTS-DET2
100
AcDbCircle
 10
64.76832647521336
 20
25.80551705632836
 30
0.0
 40
0.3367977
100
AcDbArc
 50
323.0333000000001
 51
36.96669999999972
  0
ARC
  5
BFC0
330
17
100
AcDbEntity
  8
R-SWTS-DET2
100
AcDbCircle
 10
65.01744823521335
 20
25.99301695632836
 30
0.0
 40
0.02500004
100
AcDbArc
 50
36.9670000000002
 51
90.0
  0
ARC
  5
BFC1
330
17
100
AcDbEntity
  8
R-SWTS-DET2
100
AcDbCircle
 10
65.01744823521335
 20
25.61801715632836
 30
0.0
 40
0.02500004
100
AcDbArc
 50
269.9998000000002
 51
323.0329999999998
  0
LINE
  5
BFC3
330
17
100
AcDbEntity
  8
R-SWTS-DET2
100
AcDbLine
 10
65.01744823521335
 20
26.01801705632836
 30
0.0
 11
64.95412437521335
 21
26.01801705632836
 31
0.0
  0
LINE
  5
BFC4
330
17
100
AcDbEntity
  8
R-SWTS-DET2
100
AcDbLine
 10
65.01744823521335
 20
25.59301705632837
 30
0.0
 11
64.95412437521335
 21
25.59301705632837
 31
0.0
  0
LINE
  5
BFC5
330
17
100
AcDbEntity
  8
R-SWTS-DET2
100
AcDbLine
 10
64.95412437521335
 20
25.69751705632837
 30
0.0
 11
64.06212737521335
 21
25.69751705632837
 31
0.0
  0
LINE
  5
BFC6
330
17
100
AcDbEntity
  8
R-SWTS-DET2
100
AcDbLine
 10
64.95412437521335
 20
25.91351705632836
 30
0.0
 11
64.06212737521335
 21
25.91351705632836
 31
0.0
  0
LINE
  5
BFC7
330
17
100
AcDbEntity
  8
R-SWTS-DET2
100
AcDbLine
 10
63.95412637521336
 20
25.80551650841786
 30
0.0
 11
64.06212737521335
 21
25.91351695632837
 31
0.0
  0
LINE
  5
BFC8
330
17
100
AcDbEntity
  8
R-SWTS-DET2
100
AcDbLine
 10
63.95412637521336
 20
25.80551760423886
 30
0.0
 11
64.06212737521335
 21
25.69751715632836
 31
0.0
  0
LINE
  5
BFC9
330
17
100
AcDbEntity
  8
R-SWTS-DET2
100
AcDbLine
 10
64.95412437521335
 20
25.59301705632837
 30
0.0
 11
64.95412437521335
 21
26.01801705632836
 31
0.0
  0
LINE
  5
BFCB
330
17
100
AcDbEntity
  8
R-SWTS-DET2
100
AcDbLine
 10
63.96688237521336
 20
26.48801711632837
 30
0.0
 11
64.05132537521335
 21
26.46051714632836
 31
0.0
  0
LINE
  5
BFCC
330
17
100
AcDbEntity
  8
R-SWTS-DET2
100
AcDbLine
 10
63.96688237521336
 20
26.62301710632836
 30
0.0
 11
64.05132537521335
 21
26.65051708632836
 31
0.0
  0
LINE
  5
BFCD
330
17
100
AcDbEntity
  8
R-SWTS-DET2
100
AcDbLine
 10
63.96688237521336
 20
26.62301705632837
 30
0.0
 11
63.85688237521335
 21
26.62301705632837
 31
0.0
  0
LINE
  5
BFCE
330
17
100
AcDbEntity
  8
R-SWTS-DET2
100
AcDbLine
 10
63.96688237521336
 20
26.48801705632836
 30
0.0
 11
63.85688237521335
 21
26.48801705632836
 31
0.0
  0
LINE
  5
BFCF
330
17
100
AcDbEntity
  8
R-SWTS-DET2
100
AcDbLine
 10
63.81632537521335
 20
26.55551685684206
 30
0.0
 11
63.85688337521336
 21
26.62301687632837
 31
0.0
  0
LINE
  5
BFD0
330
17
100
AcDbEntity
  8
R-SWTS-DET2
100
AcDbLine
 10
63.81632537521335
 20
26.55551725581466
 30
0.0
 11
63.85688337521336
 21
26.48801723632836
 31
0.0
  0
LINE
  5
BFD1
330
17
100
AcDbEntity
  8
R-SWTS-DET2
100
AcDbLine
 10
64.95416307521336
 20
26.46051714632836
 30
0.0
 11
64.05132437521335
 21
26.46051714632836
 31
0.0
  0
LINE
  5
BFD2
330
17
100
AcDbEntity
  8
R-SWTS-DET2
100
AcDbLine
 10
64.95416317521335
 20
26.65051678632836
 30
0.0
 11
64.95416317521335
 21
26.46051732632836
 31
0.0
  0
LINE
  5
BFD3
330
17
100
AcDbEntity
  8
R-SWTS-DET2
100
AcDbLine
 10
64.95416337521335
 20
26.65051708632836
 30
0.0
 11
64.05132437521335
 21
26.65051708632836
 31
0.0
  0
LINE
  5
BFD4
330
17
100
AcDbEntity
  8
R-SWTS-DET2
100
AcDbLine
 10
65.06632437521336
 20
26.36301715632836
 30
0.0
 11
65.06632437521336
 21
26.74801695632837
 31
0.0
  0
LINE
  5
BFD5
330
17
100
AcDbEntity
  8
R-SWTS-DET2
100
AcDbLine
 10
65.06632427541763
 20
26.36301725632836
 30
0.0
 11
64.95416317521335
 21
26.46051726632836
 31
0.0
  0
LINE
  5
BFD6
330
17
100
AcDbEntity
  8
R-SWTS-DET2
100
AcDbLine
 10
65.06632429160458
 20
26.74801685632836
 30
0.0
 11
64.95416337521335
 21
26.65051696632836
 31
0.0
  0
LWPOLYLINE
  5
BFD7
330
17
100
AcDbEntity
  8
R-SWTS-DET2
100
AcDbPolyline
 90
        8
 70
     1
 43
0.0
 10
64.27912437521269
 20
24.48551705632834
 42
0.4142135623730951
 10
64.33912437521269
 20
24.54551705632834
 10
64.33912437521269
 20
26.92551705632839
 42
0.4142135623730951
 10
64.27912437521269
 20
26.98551705632839
 10
63.1391243752127
 20
26.98551705632839
 42
0.4142135623730908
 10
63.0791243752127
 20
26.92551705632839
 10
63.0791243752127
 20
24.54551705632834
 42
0.4142135623730951
 10
63.13912437521269
 20
24.48551705632834
  0
LWPOLYLINE
  5
BFD8
330
17
100
AcDbEntity
  8
R-SWTS-DET2
100
AcDbPolyline
 90
       28
 70
     1
 43
0.0
 10
63.0791243752127
 20
24.23551705632835
 10
63.0791243752127
 20
24.11051705632833
 10
62.63912437521269
 20
24.11051705632835
 42
-0.4142135623730951
 10
62.57912437521269
 20
24.17051705632835
 10
62.5791243752127
 20
24.23551705632835
 10
62.9541243752127
 20
24.36051705632834
 10
62.9541243752127
 20
27.11051705632839
 10
62.5791243752127
 20
27.23551705632838
 10
62.5791243752127
 20
27.30051705632838
 42
-0.4142135623730819
 10
62.63912437521269
 20
27.36051705632838
 10
63.0791243752127
 20
27.36051705632839
 10
63.0791243752127
 20
27.23551705632838
 42
0.4142135623730784
 10
63.2041243752127
 20
27.11051705632839
 10
64.21412437521269
 20
27.11051705632839
 42
0.4142135623730951
 10
64.33912437521269
 20
27.23551705632839
 10
64.33912437521269
 20
27.36051705632839
 10
64.7791243752127
 20
27.36051705632838
 42
-0.4142135623730821
 10
64.83912437521269
 20
27.30051705632838
 10
64.83912437521269
 20
27.23551705632838
 10
64.46412437521269
 20
27.11051705632839
 10
64.46412437521269
 20
24.36051705632834
 10
64.83912437521269
 20
24.23551705632835
 10
64.83912437521269
 20
24.17051705632835
 42
-0.4142135623730778
 10
64.7791243752127
 20
24.11051705632835
 10
64.33912437521269
 20
24.11051705632833
 10
64.33912437521269
 20
24.23551705632834
 42
0.4142135623730951
 10
64.21412437521269
 20
24.36051705632834
 10
63.2041243752127
 20
24.36051705632834
 42
0.4142135623730763
  0
LINE
  5
BFE5
330
17
100
AcDbEntity
  8
R-SWTS-DET3
100
AcDbLine
 10
63.26218263697177
 20
22.54035201338341
 30
0.0
 11
59.99181377398399
 21
25.8107208763712
 31
0.0
  0
LINE
  5
BFE6
330
17
100
AcDbEntity
  8
R-SWTS-DET3
100
AcDbLine
 10
63.43895933226841
 20
22.71712870868005
 30
0.0
 11
63.26218263697177
 21
22.54035201338341
 31
0.0
  0
LINE
  5
BFE7
330
17
100
AcDbEntity
  8
R-SWTS-DET3
100
AcDbLine
 10
59.99181377398399
 20
26.16427426696447
 30
0.0
 11
63.43895933226841
 21
22.71712870868005
 31
0.0
  0
LINE
  5
BFE8
330
17
100
AcDbEntity
  8
R-SWTS-DET3
100
AcDbLine
 10
64.14606611345495
 20
22.54035201338341
 30
0.0
 11
67.41643497644273
 21
25.8107208763712
 31
0.0
  0
LINE
  5
BFE9
330
17
100
AcDbEntity
  8
R-SWTS-DET3
100
AcDbLine
 10
63.96928941815831
 20
22.71712870868005
 30
0.0
 11
64.14606611345495
 21
22.54035201338341
 31
0.0
  0
LINE
  5
BFEA
330
17
100
AcDbEntity
  8
R-SWTS-DET3
100
AcDbLine
 10
67.41643497644273
 20
26.16427426696447
 30
0.0
 11
63.96928941815831
 21
22.71712870868005
 31
0.0
  0
LINE
  5
BFEB
330
17
100
AcDbEntity
  8
R-SWTS-DET1
100
AcDbLine
 10
64.95420012903676
 20
29.35889366905087
 30
0.0
 11
67.41643497644273
 21
31.82112851645685
 31
0.0
  0
LWPOLYLINE
  5
BFEC
330
17
100
AcDbEntity
  8
R-SWTS-DET1
100
AcDbPolyline
 90
        6
 70
     0
 43
0.0
 10
67.41724768827819
 20
24.14732002583358
 10
67.41724768827819
 20
28.02232002583358
 10
67.62949987840108
 20
28.075240440496
 10
67.20467530056565
 20
28.18116110404641
 10
67.41692749068852
 20
28.23408151870884
 10
67.41692749068852
 20
32.10908151870884
  0
LINE
  5
BFED
330
17
100
AcDbEntity
  8
R-SWTS-DET1
100
AcDbLine
 10
64.95412437521335
 20
24.49745879456995
 30
0.0
 11
67.41643497644273
 21
26.95976939579933
 31
0.0
  0
LINE
  5
BFEE
330
17
100
AcDbEntity
  8
R-SWTS-DET1
100
AcDbLine
 10
63.70412437521335
 20
21.30291514630695
 30
0.0
 11
67.41643497644273
 21
25.01522574753633
 31
0.0
  0
LINE
  5
BFEF
330
17
100
AcDbEntity
  8
R-SWTS-DET1
100
AcDbLine
 10
63.70412437521335
 20
20.68419671276872
 30
0.0
 11
67.41643497644273
 21
24.3965073139981
 31
0.0
  0
LWPOLYLINE
  5
BFF0
330
17
100
AcDbEntity
  8
R-SWTS-DET1
100
AcDbPolyline
 90
        6
 70
     0
 43
0.0
 10
59.99100106214853
 20
24.14732002583358
 10
59.99100106214853
 20
28.02232002583358
 10
59.77874887202566
 20
28.075240440496
 10
60.20357344986106
 20
28.18116110404641
 10
59.9913212597382
 20
28.23408151870884
 10
59.9913212597382
 20
32.10908151870884
  0
LINE
  5
BFF1
330
17
100
AcDbEntity
  8
R-SWTS-DET1
100
AcDbLine
 10
62.45404862138996
 20
29.35889366905087
 30
0.0
 11
59.99181377398399
 21
31.82112851645685
 31
0.0
  0
ARC
  5
BFF2
330
17
100
AcDbEntity
  8
R-SWTS-DET3
100
AcDbCircle
 10
65.24503586968691
 20
24.16965185550529
 30
0.0
 40
0.3125
100
AcDbArc
 50
201.4218215217994
 51
248.5781784782008
  0
ARC
  5
BFF3
330
17
100
AcDbEntity
  8
R-SWTS-DET3
100
AcDbCircle
 10
62.16321288073979
 20
24.16965185550529
 30
0.0
 40
0.3125
100
AcDbArc
 50
291.4218215217992
 51
338.5781784782009
  0
LINE
  5
BFF4
330
17
100
AcDbEntity
  8
R-SWTS-DET1
100
AcDbLine
 10
63.70412437521337
 20
20.68419671276872
 30
0.0
 11
63.70412437521335
 21
22.59223890307794
 31
0.0
  0
ARC
  5
BFF5
330
17
100
AcDbEntity
  8
R-SWTS-DET3
100
AcDbCircle
 10
63.70412437521337
 20
20.68419671276872
 30
0.0
 40
1.908042190309217
100
AcDbArc
 50
76.60750224624918
 51
103.3924977537508
  0
POLYLINE
  5
BFF6
330
17
100
AcDbEntity
  8
R-SWTS-DET3
100
AcDb2dPolyline
 66
     1
 10
0.0
 20
0.0
 30
0.0
 70
     5
 75
     6
  0
VERTEX
  5
BFF7
330
BFF6
100
AcDbEntity
  8
R-SWTS-DET3
100
AcDbVertex
100
AcDb2dVertex
 10
63.88987113303028
 20
22.98559911675893
 30
0.0
 70
    16
  0
VERTEX
  5
BFF8
330
BFF6
100
AcDbEntity
  8
R-SWTS-DET3
100
AcDbVertex
100
AcDb2dVertex
 10
63.56605113138932
 20
22.97495050254145
 30
0.0
 70
     8
  0
VERTEX
  5
BFF9
330
BFF6
100
AcDbEntity
  8
R-SWTS-DET3
100
AcDbVertex
100
AcDb2dVertex
 10
63.53934283137523
 20
22.97046377267105
 30
0.0
 70
     8
  0
VERTEX
  5
BFFA
330
BFF6
100
AcDbEntity
  8
R-SWTS-DET3
100
AcDbVertex
100
AcDb2dVertex
 10
63.51657848527641
 20
22.96501266073335
 30
0.0
 70
     8
  0
VERTEX
  5
BFFB
330
BFF6
100
AcDbEntity
  8
R-SWTS-DET3
100
AcDbVertex
100
AcDb2dVertex
 10
63.49733142216194
 20
22.95863109224392
 30
0.0
 70
     8
  0
VERTEX
  5
BFFC
330
BFF6
100
AcDbEntity
  8
R-SWTS-DET3
100
AcDbVertex
100
AcDb2dVertex
 10
63.48117497110097
 20
22.95135299271836
 30
0.0
 70
     8
  0
VERTEX
  5
BFFD
330
BFF6
100
AcDbEntity
  8
R-SWTS-DET3
100
AcDbVertex
100
AcDb2dVertex
 10
63.46768246116257
 20
22.94321228767226
 30
0.0
 70
     8
  0
VERTEX
  5
BFFE
330
BFF6
100
AcDbEntity
  8
R-SWTS-DET3
100
AcDbVertex
100
AcDb2dVertex
 10
63.45642722141585
 20
22.9342429026212
 30
0.0
 70
     8
  0
VERTEX
  5
BFFF
330
BFF6
100
AcDbEntity
  8
R-SWTS-DET3
100
AcDbVertex
100
AcDb2dVertex
 10
63.44698258092991
 20
22.92447876308076
 30
0.0
 70
     8
  0
VERTEX
  5
C000
330
BFF6
100
AcDbEntity
  8
R-SWTS-DET3
100
AcDbVertex
100
AcDb2dVertex
 10
63.43892186877387
 20
22.91395379456652
 30
0.0
 70
     8
  0
VERTEX
  5
C001
330
BFF6
100
AcDbEntity
  8
R-SWTS-DET3
100
AcDbVertex
100
AcDb2dVertex
 10
63.43188976404819
 20
22.902714194419
 30
0.0
 70
     8
  0
VERTEX
  5
C002
330
BFF6
100
AcDbEntity
  8
R-SWTS-DET3
100
AcDbVertex
100
AcDb2dVertex
 10
63.42581634597881
 20
22.89085524727845
 30
0.0
 70
     8
  0
VERTEX
  5
C003
330
BFF6
100
AcDbEntity
  8
R-SWTS-DET3
100
AcDbVertex
100
AcDb2dVertex
 10
63.42070304382303
 20
22.87848450960999
 30
0.0
 70
     8
  0
VERTEX
  5
C004
330
BFF6
100
AcDbEntity
  8
R-SWTS-DET3
100
AcDbVertex
100
AcDb2dVertex
 10
63.41655128683818
 20
22.8657095378788
 30
0.0
 70
     8
  0
VERTEX
  5
C005
330
BFF6
100
AcDbEntity
  8
R-SWTS-DET3
100
AcDbVertex
100
AcDb2dVertex
 10
63.41336250428152
 20
22.85263788855003
 30
0.0
 70
     8
  0
VERTEX
  5
C006
330
BFF6
100
AcDbEntity
  8
R-SWTS-DET3
100
AcDbVertex
100
AcDb2dVertex
 10
63.41113812541038
 20
22.83937711808883
 30
0.0
 70
     8
  0
VERTEX
  5
C007
330
BFF6
100
AcDbEntity
  8
R-SWTS-DET3
100
AcDbVertex
100
AcDb2dVertex
 10
63.40987957948207
 20
22.82603478296036
 30
0.0
 70
     8
  0
VERTEX
  5
C008
330
BFF6
100
AcDbEntity
  8
R-SWTS-DET3
100
AcDbVertex
100
AcDb2dVertex
 10
63.40958829575384
 20
22.81271843962979
 30
0.0
 70
     8
  0
VERTEX
  5
C009
330
BFF6
100
AcDbEntity
  8
R-SWTS-DET3
100
AcDbVertex
100
AcDb2dVertex
 10
63.41025705893201
 20
22.79953692717243
 30
0.0
 70
     8
  0
VERTEX
  5
C00A
330
BFF6
100
AcDbEntity
  8
R-SWTS-DET3
100
AcDbVertex
100
AcDb2dVertex
 10
63.41184407551849
 20
22.78660421510423
 30
0.0
 70
     8
  0
VERTEX
  5
C00B
330
BFF6
100
AcDbEntity
  8
R-SWTS-DET3
100
AcDbVertex
100
AcDb2dVertex
 10
63.41429890746418
 20
22.77403555555135
 30
0.0
 70
     8
  0
VERTEX
  5
C00C
330
BFF6
100
AcDbEntity
  8
R-SWTS-DET3
100
AcDbVertex
100
AcDb2dVertex
 10
63.41757111671999
 20
22.7619462006399
 30
0.0
 70
     8
  0
VERTEX
  5
C00D
330
BFF6
100
AcDbEntity
  8
R-SWTS-DET3
100
AcDbVertex
100
AcDb2dVertex
 10
63.42161026523683
 20
22.750451402496
 30
0.0
 70
     8
  0
VERTEX
  5
C00E
330
BFF6
100
AcDbEntity
  8
R-SWTS-DET3
100
AcDbVertex
100
AcDb2dVertex
 10
63.42636591496557
 20
22.73966641324582
 30
0.0
 70
     8
  0
VERTEX
  5
C00F
330
BFF6
100
AcDbEntity
  8
R-SWTS-DET3
100
AcDbVertex
100
AcDb2dVertex
 10
63.43178762785713
 20
22.72970648501544
 30
0.0
 70
     8
  0
VERTEX
  5
C010
330
BFF6
100
AcDbEntity
  8
R-SWTS-DET3
100
AcDbVertex
100
AcDb2dVertex
 10
63.43782496586239
 20
22.72068686993101
 30
0.0
 70
     8
  0
VERTEX
  5
C011
330
BFF6
100
AcDbEntity
  8
R-SWTS-DET3
100
AcDbVertex
100
AcDb2dVertex
 10
63.44446820765101
 20
22.71268812774061
 30
0.0
 70
     8
  0
VERTEX
  5
C012
330
BFF6
100
AcDbEntity
  8
R-SWTS-DET3
100
AcDbVertex
100
AcDb2dVertex
 10
63.45187049876763
 20
22.70565204867997
 30
0.0
 70
     8
  0
VERTEX
  5
C013
330
BFF6
100
AcDbEntity
  8
R-SWTS-DET3
100
AcDbVertex
100
AcDb2dVertex
 10
63.46022570147562
 20
22.69948573060682
 30
0.0
 70
     8
  0
VERTEX
  5
C014
330
BFF6
100
AcDbEntity
  8
R-SWTS-DET3
100
AcDbVertex
100
AcDb2dVertex
 10
63.4697276780384
 20
22.69409627137886
 30
0.0
 70
     8
  0
VERTEX
  5
C015
330
BFF6
100
AcDbEntity
  8
R-SWTS-DET3
100
AcDbVertex
100
AcDb2dVertex
 10
63.48057029071934
 20
22.68939076885377
 30
0.0
 70
     8
  0
VERTEX
  5
C016
330
BFF6
100
AcDbEntity
  8
R-SWTS-DET3
100
AcDbVertex
100
AcDb2dVertex
 10
63.49294740178184
 20
22.68527632088926
 30
0.0
 70
     8
  0
VERTEX
  5
C017
330
BFF6
100
AcDbEntity
  8
R-SWTS-DET3
100
AcDbVertex
100
AcDb2dVertex
 10
63.50705287348927
 20
22.68166002534304
 30
0.0
 70
     8
  0
VERTEX
  5
C018
330
BFF6
100
AcDbEntity
  8
R-SWTS-DET3
100
AcDbVertex
100
AcDb2dVertex
 10
63.52308056810503
 20
22.67844898007279
 30
0.0
 70
     8
  0
VERTEX
  5
C019
330
BFF6
100
AcDbEntity
  8
R-SWTS-DET3
100
AcDbVertex
100
AcDb2dVertex
 10
63.54114795240755
 20
22.67556858226433
 30
0.0
 70
     8
  0
VERTEX
  5
C01A
330
BFF6
100
AcDbEntity
  8
R-SWTS-DET3
100
AcDbVertex
100
AcDb2dVertex
 10
63.56106691123532
 20
22.67301742641591
 30
0.0
 70
     8
  0
VERTEX
  5
C01B
330
BFF6
100
AcDbEntity
  8
R-SWTS-DET3
100
AcDbVertex
100
AcDb2dVertex
 10
63.58257293394188
 20
22.6708124063539
 30
0.0
 70
     8
  0
VERTEX
  5
C01C
330
BFF6
100
AcDbEntity
  8
R-SWTS-DET3
100
AcDbVertex
100
AcDb2dVertex
 10
63.60540150988078
 20
22.66897041590466
 30
0.0
 70
     8
  0
VERTEX
  5
C01D
330
BFF6
100
AcDbEntity
  8
R-SWTS-DET3
100
AcDbVertex
100
AcDb2dVertex
 10
63.62928812840552
 20
22.66750834889454
 30
0.0
 70
     8
  0
VERTEX
  5
C01E
330
BFF6
100
AcDbEntity
  8
R-SWTS-DET3
100
AcDbVertex
100
AcDb2dVertex
 10
63.65396827886967
 20
22.66644309914992
 30
0.0
 70
     8
  0
VERTEX
  5
C01F
330
BFF6
100
AcDbEntity
  8
R-SWTS-DET3
100
AcDbVertex
100
AcDb2dVertex
 10
63.67917745062674
 20
22.66579156049714
 30
0.0
 70
     8
  0
VERTEX
  5
C020
330
BFF6
100
AcDbEntity
  8
R-SWTS-DET3
100
AcDbVertex
100
AcDb2dVertex
 10
63.70465113303028
 20
22.66557062676258
 30
0.0
 70
     8
  0
VERTEX
  5
C021
330
BFF6
100
AcDbEntity
  8
R-SWTS-DET3
100
AcDbVertex
100
AcDb2dVertex
 10
63.73012481543383
 20
22.66579156049714
 30
0.0
 70
     8
  0
VERTEX
  5
C022
330
BFF6
100
AcDbEntity
  8
R-SWTS-DET3
100
AcDbVertex
100
AcDb2dVertex
 10
63.75533398719091
 20
22.66644309914992
 30
0.0
 70
     8
  0
VERTEX
  5
C023
330
BFF6
100
AcDbEntity
  8
R-SWTS-DET3
100
AcDbVertex
100
AcDb2dVertex
 10
63.78001413765506
 20
22.66750834889454
 30
0.0
 70
     8
  0
VERTEX
  5
C024
330
BFF6
100
AcDbEntity
  8
R-SWTS-DET3
100
AcDbVertex
100
AcDb2dVertex
 10
63.8039007561798
 20
22.66897041590466
 30
0.0
 70
     8
  0
VERTEX
  5
C025
330
BFF6
100
AcDbEntity
  8
R-SWTS-DET3
100
AcDbVertex
100
AcDb2dVertex
 10
63.82672933211869
 20
22.6708124063539
 30
0.0
 70
     8
  0
VERTEX
  5
C026
330
BFF6
100
AcDbEntity
  8
R-SWTS-DET3
100
AcDbVertex
100
AcDb2dVertex
 10
63.84823535482524
 20
22.67301742641591
 30
0.0
 70
     8
  0
VERTEX
  5
C027
330
BFF6
100
AcDbEntity
  8
R-SWTS-DET3
100
AcDbVertex
100
AcDb2dVertex
 10
63.86815431365302
 20
22.67556858226433
 30
0.0
 70
     8
  0
VERTEX
  5
C028
330
BFF6
100
AcDbEntity
  8
R-SWTS-DET3
100
AcDbVertex
100
AcDb2dVertex
 10
63.88622169795553
 20
22.67844898007279
 30
0.0
 70
     8
  0
VERTEX
  5
C029
330
BFF6
100
AcDbEntity
  8
R-SWTS-DET3
100
AcDbVertex
100
AcDb2dVertex
 10
63.9022493925713
 20
22.68166002534304
 30
0.0
 70
     8
  0
VERTEX
  5
C02A
330
BFF6
100
AcDbEntity
  8
R-SWTS-DET3
100
AcDbVertex
100
AcDb2dVertex
 10
63.91635486427874
 20
22.68527632088926
 30
0.0
 70
     8
  0
VERTEX
  5
C02B
330
BFF6
100
AcDbEntity
  8
R-SWTS-DET3
100
AcDbVertex
100
AcDb2dVertex
 10
63.92873197534123
 20
22.68939076885377
 30
0.0
 70
     8
  0
VERTEX
  5
C02C
330
BFF6
100
AcDbEntity
  8
R-SWTS-DET3
100
AcDbVertex
100
AcDb2dVertex
 10
63.93957458802216
 20
22.69409627137886
 30
0.0
 70
     8
  0
VERTEX
  5
C02D
330
BFF6
100
AcDbEntity
  8
R-SWTS-DET3
100
AcDbVertex
100
AcDb2dVertex
 10
63.94907656458494
 20
22.69948573060682
 30
0.0
 70
     8
  0
VERTEX
  5
C02E
330
BFF6
100
AcDbEntity
  8
R-SWTS-DET3
100
AcDbVertex
100
AcDb2dVertex
 10
63.95743176729294
 20
22.70565204867997
 30
0.0
 70
     8
  0
VERTEX
  5
C02F
330
BFF6
100
AcDbEntity
  8
R-SWTS-DET3
100
AcDbVertex
100
AcDb2dVertex
 10
63.96483405840957
 20
22.71268812774061
 30
0.0
 70
     8
  0
VERTEX
  5
C030
330
BFF6
100
AcDbEntity
  8
R-SWTS-DET3
100
AcDbVertex
100
AcDb2dVertex
 10
63.97147730019817
 20
22.72068686993101
 30
0.0
 70
     8
  0
VERTEX
  5
C031
330
BFF6
100
AcDbEntity
  8
R-SWTS-DET3
100
AcDbVertex
100
AcDb2dVertex
 10
63.97751463820345
 20
22.72970648501544
 30
0.0
 70
     8
  0
VERTEX
  5
C032
330
BFF6
100
AcDbEntity
  8
R-SWTS-DET3
100
AcDbVertex
100
AcDb2dVertex
 10
63.98293635109499
 20
22.73966641324582
 30
0.0
 70
     8
  0
VERTEX
  5
C033
330
BFF6
100
AcDbEntity
  8
R-SWTS-DET3
100
AcDbVertex
100
AcDb2dVertex
 10
63.98769200082374
 20
22.750451402496
 30
0.0
 70
     8
  0
VERTEX
  5
C034
330
BFF6
100
AcDbEntity
  8
R-SWTS-DET3
100
AcDbVertex
100
AcDb2dVertex
 10
63.99173114934058
 20
22.7619462006399
 30
0.0
 70
     8
  0
VERTEX
  5
C035
330
BFF6
100
AcDbEntity
  8
R-SWTS-DET3
100
AcDbVertex
100
AcDb2dVertex
 10
63.99500335859639
 20
22.77403555555135
 30
0.0
 70
     8
  0
VERTEX
  5
C036
330
BFF6
100
AcDbEntity
  8
R-SWTS-DET3
100
AcDbVertex
100
AcDb2dVertex
 10
63.99745819054209
 20
22.78660421510423
 30
0.0
 70
     8
  0
VERTEX
  5
C037
330
BFF6
100
AcDbEntity
  8
R-SWTS-DET3
100
AcDbVertex
100
AcDb2dVertex
 10
63.99904520712856
 20
22.79953692717243
 30
0.0
 70
     8
  0
VERTEX
  5
C038
330
BFF6
100
AcDbEntity
  8
R-SWTS-DET3
100
AcDbVertex
100
AcDb2dVertex
 10
63.99971397030672
 20
22.81271843962979
 30
0.0
 70
     8
  0
VERTEX
  5
C039
330
BFF6
100
AcDbEntity
  8
R-SWTS-DET3
100
AcDbVertex
100
AcDb2dVertex
 10
63.99942268657851
 20
22.82603478296036
 30
0.0
 70
     8
  0
VERTEX
  5
C03A
330
BFF6
100
AcDbEntity
  8
R-SWTS-DET3
100
AcDbVertex
100
AcDb2dVertex
 10
63.99816414065019
 20
22.83937711808883
 30
0.0
 70
     8
  0
VERTEX
  5
C03B
330
BFF6
100
AcDbEntity
  8
R-SWTS-DET3
100
AcDbVertex
100
AcDb2dVertex
 10
63.99593976177905
 20
22.85263788855003
 30
0.0
 70
     8
  0
VERTEX
  5
C03C
330
BFF6
100
AcDbEntity
  8
R-SWTS-DET3
100
AcDbVertex
100
AcDb2dVertex
 10
63.99275097922239
 20
22.8657095378788
 30
0.0
 70
     8
  0
VERTEX
  5
C03D
330
BFF6
100
AcDbEntity
  8
R-SWTS-DET3
100
AcDbVertex
100
AcDb2dVertex
 10
63.98859922223753
 20
22.87848450960999
 30
0.0
 70
     8
  0
VERTEX
  5
C03E
330
BFF6
100
AcDbEntity
  8
R-SWTS-DET3
100
AcDbVertex
100
AcDb2dVertex
 10
63.98348592008176
 20
22.89085524727845
 30
0.0
 70
     8
  0
VERTEX
  5
C03F
330
BFF6
100
AcDbEntity
  8
R-SWTS-DET3
100
AcDbVertex
100
AcDb2dVertex
 10
63.97741250201237
 20
22.902714194419
 30
0.0
 70
     8
  0
VERTEX
  5
C040
330
BFF6
100
AcDbEntity
  8
R-SWTS-DET3
100
AcDbVertex
100
AcDb2dVertex
 10
63.9703803972867
 20
22.91395379456652
 30
0.0
 70
     8
  0
VERTEX
  5
C041
330
BFF6
100
AcDbEntity
  8
R-SWTS-DET3
100
AcDbVertex
100
AcDb2dVertex
 10
63.96231968513065
 20
22.92447876308076
 30
0.0
 70
     8
  0
VERTEX
  5
C042
330
BFF6
100
AcDbEntity
  8
R-SWTS-DET3
100
AcDbVertex
100
AcDb2dVertex
 10
63.95287504464473
 20
22.9342429026212
 30
0.0
 70
     8
  0
VERTEX
  5
C043
330
BFF6
100
AcDbEntity
  8
R-SWTS-DET3
100
AcDbVertex
100
AcDb2dVertex
 10
63.941619804898
 20
22.94321228767226
 30
0.0
 70
     8
  0
VERTEX
  5
C044
330
BFF6
100
AcDbEntity
  8
R-SWTS-DET3
100
AcDbVertex
100
AcDb2dVertex
 10
63.92812729495959
 20
22.95135299271836
 30
0.0
 70
     8
  0
VERTEX
  5
C045
330
BFF6
100
AcDbEntity
  8
R-SWTS-DET3
100
AcDbVertex
100
AcDb2dVertex
 10
63.91197084389862
 20
22.95863109224392
 30
0.0
 70
     8
  0
VERTEX
  5
C046
330
BFF6
100
AcDbEntity
  8
R-SWTS-DET3
100
AcDbVertex
100
AcDb2dVertex
 10
63.89272378078415
 20
22.96501266073335
 30
0.0
 70
     8
  0
VERTEX
  5
C047
330
BFF6
100
AcDbEntity
  8
R-SWTS-DET3
100
AcDbVertex
100
AcDb2dVertex
 10
63.86995943468533
 20
22.97046377267105
 30
0.0
 70
     8
  0
VERTEX
  5
C048
330
BFF6
100
AcDbEntity
  8
R-SWTS-DET3
100
AcDbVertex
100
AcDb2dVertex
 10
63.84325113467124
 20
22.97495050254145
 30
0.0
 70
     8
  0
VERTEX
  5
C049
330
BFF6
100
AcDbEntity
  8
R-SWTS-DET3
100
AcDbVertex
100
AcDb2dVertex
 10
63.81242543100139
 20
22.97844457908156
 30
0.0
 70
     8
  0
VERTEX
  5
C04A
330
BFF6
100
AcDbEntity
  8
R-SWTS-DET3
100
AcDbVertex
100
AcDb2dVertex
 10
63.77832175869691
 20
22.98094034803878
 30
0.0
 70
     8
  0
VERTEX
  5
C04B
330
BFF6
100
AcDbEntity
  8
R-SWTS-DET3
100
AcDbVertex
100
AcDb2dVertex
 10
63.74203277396937
 20
22.98243780941311
 30
0.0
 70
     8
  0
VERTEX
  5
C04C
330
BFF6
100
AcDbEntity
  8
R-SWTS-DET3
100
AcDbVertex
100
AcDb2dVertex
 10
63.70465113303028
 20
22.98293696320456
 30
0.0
 70
     8
  0
VERTEX
  5
C04D
330
BFF6
100
AcDbEntity
  8
R-SWTS-DET3
100
AcDbVertex
100
AcDb2dVertex
 10
63.6672694920912
 20
22.98243780941311
 30
0.0
 70
     8
  0
VERTEX
  5
C04E
330
BFF6
100
AcDbEntity
  8
R-SWTS-DET3
100
AcDbVertex
100
AcDb2dVertex
 10
63.63098050736365
 20
22.98094034803878
 30
0.0
 70
     8
  0
VERTEX
  5
C04F
330
BFF6
100
AcDbEntity
  8
R-SWTS-DET3
100
AcDbVertex
100
AcDb2dVertex
 10
63.59687683505917
 20
22.97844457908156
 30
0.0
 70
     8
  0
VERTEX
  5
C050
330
BFF6
100
AcDbEntity
  8
R-SWTS-DET3
100
AcDbVertex
100
AcDb2dVertex
 10
63.51943113303028
 20
22.98559911675893
 30
0.0
 70
    16
  0
VERTEX
  5
C051
330
BFF6
100
AcDbEntity
  8
R-SWTS-DET3
100
AcDbVertex
100
AcDb2dVertex
 10
63.42871112318457
 20
22.92170743145405
 30
0.0
 70
    16
  0
VERTEX
  5
C052
330
BFF6
100
AcDbEntity
  8
R-SWTS-DET3
100
AcDbVertex
100
AcDb2dVertex
 10
63.39925558687466
 20
22.81129392482397
 30
0.0
 70
    16
  0
VERTEX
  5
C053
330
BFF6
100
AcDbEntity
  8
R-SWTS-DET3
100
AcDbVertex
100
AcDb2dVertex
 10
63.43179630383993
 20
22.70942750702881
 30
0.0
 70
    16
  0
VERTEX
  5
C054
330
BFF6
100
AcDbEntity
  8
R-SWTS-DET3
100
AcDbVertex
100
AcDb2dVertex
 10
63.50050899294
 20
22.67511726664686
 30
0.0
 70
    16
  0
VERTEX
  5
C055
330
BFF6
100
AcDbEntity
  8
R-SWTS-DET3
100
AcDbVertex
100
AcDb2dVertex
 10
63.70465113303028
 20
22.66079730682044
 30
0.0
 70
    16
  0
VERTEX
  5
C056
330
BFF6
100
AcDbEntity
  8
R-SWTS-DET3
100
AcDbVertex
100
AcDb2dVertex
 10
63.90879327312058
 20
22.67511726664686
 30
0.0
 70
    16
  0
VERTEX
  5
C057
330
BFF6
100
AcDbEntity
  8
R-SWTS-DET3
100
AcDbVertex
100
AcDb2dVertex
 10
63.97750596222064
 20
22.70942750702881
 30
0.0
 70
    16
  0
VERTEX
  5
C058
330
BFF6
100
AcDbEntity
  8
R-SWTS-DET3
100
AcDbVertex
100
AcDb2dVertex
 10
64.01004667918591
 20
22.81129392482397
 30
0.0
 70
    16
  0
VERTEX
  5
C059
330
BFF6
100
AcDbEntity
  8
R-SWTS-DET3
100
AcDbVertex
100
AcDb2dVertex
 10
63.98059114287599
 20
22.92170743145405
 30
0.0
 70
    16
  0
SEQEND
  5
C05A
330
BFF6
100
AcDbEntity
  8
R-SWTS-DET3
  0
LINE
  5
C05B
330
17
100
AcDbEntity
  8
R-SWTS-DET1
100
AcDbLine
 10
63.70412437521337
 20
20.68419671276872
 30
0.0
 11
59.99181377398399
 21
24.3965073139981
 31
0.0
  0
LINE
  5
C05C
330
17
100
AcDbEntity
  8
R-SWTS-DET1
100
AcDbLine
 10
63.70412437521335
 20
21.30291514630695
 30
0.0
 11
59.99181377398399
 21
25.01522574753633
 31
0.0
  0
LINE
  5
C05D
330
17
100
AcDbEntity
  8
R-SWTS-DET1
100
AcDbLine
 10
62.45412437521337
 20
24.49745879456995
 30
0.0
 11
59.99181377398399
 21
26.95976939579933
 31
0.0
  0
TEXT
  5
C070
330
17
100
AcDbEntity
  8
0
  6
Continuous
 62
     2
100
AcDbText
 10
41.71645449460625
 20
17.68106775200628
 30
0.0
 40
0.375
  1
@ SSG MULLION SPLICE JOINT
 72
     1
 11
45.67940640456533
 21
17.68106775200628
 31
0.0
100
AcDbText
  0
TEXT
  5
C075
330
17
100
AcDbEntity
  8
0
  6
Continuous
 62
     2
100
AcDbText
 10
59.54186658321857
 20
17.68106775200628
 30
0.0
 40
0.375
  1
@ 90° O.S. CORNER SPLICE JOINT
 72
     1
 11
63.91524652864831
 21
17.68106775200628
 31
0.0
100
AcDbText
  0
LWPOLYLINE
  5
C0E2
330
17
100
AcDbEntity
  8
R-ANNO-DIMS
100
AcDbPolyline
 90
        2
 70
     0
 43
0.02
 10
15.29962949272908
 20
33.3355235710152
 10
15.40834615194179
 20
33.05821988970094
  0
MTEXT
  5
C0E3
330
17
100
AcDbEntity
  8
R-ANNO-DIMS
100
AcDbMText
 10
20.9083461519418
 20
34.26376456072553
 30
0.0
 40
0.25
 41
0.0
 46
0.0
 71
     5
 72
     1
  1
SECTION CUT "A"
 73
     1
 44
1.0
  0
LWPOLYLINE
  5
C0E4
330
17
100
AcDbEntity
  8
R-ANNO-DIMS
100
AcDbPolyline
 90
        4
 70
     0
 43
0.02
 10
15.40834615194179
 20
33.05821988970094
 10
15.40834615194179
 20
33.8674259440611
 10
26.43453440341597
 20
33.86742594406108
 10
26.43453440341597
 20
33.13435123053905
  0
LWPOLYLINE
  5
C0E5
330
17
100
AcDbEntity
  8
R-ANNO-DIMS
  6
CENTER
100
AcDbPolyline
 90
        2
 70
     0
 43
0.02
 10
15.40834615194179
 20
33.05821988970094
 10
15.51706281115451
 20
33.3355235710152
  0
LWPOLYLINE
  5
C0E6
330
17
100
AcDbEntity
  8
R-ANNO-DIMS
  6
CENTER
100
AcDbPolyline
 90
        2
 70
     0
 43
0.02
 10
26.43453440341597
 20
33.13435123053905
 10
26.54325106262869
 20
33.41165491185332
  0
LWPOLYLINE
  5
C0E7
330
17
100
AcDbEntity
  8
R-ANNO-DIMS
100
AcDbPolyline
 90
        2
 70
     0
 43
0.02
 10
26.32581774420326
 20
33.41165491185332
 10
26.43453440341597
 20
33.13435123053905
  0
TEXT
  5
C0E8
330
17
100
AcDbEntity
  8
0
  6
Continuous
 62
     2
100
AcDbText
 10
43.55745259561119
 20
18.5041151079912
 30
0.0
 40
0.375
  1
SECTION CUT "A"
 72
     1
 11
45.7662691031146
 21
18.5041151079912
 31
0.0
100
AcDbText
  0
TEXT
  5
C0E9
330
17
100
AcDbEntity
  8
0
  6
Continuous
 62
     2
100
AcDbText
 10
61.52889584408517
 20
18.5041151079912
 30
0.0
 40
0.375
  1
SECTION CUT "A"
 72
     1
 11
63.73771235158859
 21
18.5041151079912
 31
0.0
100
AcDbText
  0
LINE
  5
C0EA
330
17
100
AcDbEntity
  8
R-ANNO-DIMS
100
AcDbLine
 10
15.27278503517857
 20
32.38989119661094
 30
0.0
 11
15.27278503517857
 21
30.38989119661092
 31
0.0
  0
SOLID
  5
C0EB
330
17
100
AcDbEntity
  8
R-ANNO-DIMS
100
AcDbTrace
 10
15.2311183685119
 20
32.38989119661094
 30
0.0
 11
15.31445170184523
 21
32.38989119661094
 31
0.0
 12
15.27278503517857
 22
32.63989119661093
 32
0.0
 13
15.27278503517857
 23
32.63989119661093
 33
0.0
  0
LINE
  5
C0EC
330
17
100
AcDbEntity
  8
R-ANNO-DIMS
  6
Continuous
100
AcDbLine
 10
15.09768301327696
 20
27.40636852424764
 30
0.0
 11
13.48340898227565
 21
27.40636852424764
 31
0.0
  0
LWPOLYLINE
  5
C1CA
330
17
100
AcDbEntity
  8
0
 62
     4
100
AcDbPolyline
 90
       64
 70
     1
 43
0.0
 10
19.87117338282691
 20
30.04798017659942
 42
-0.1989123673796591
 10
19.78278503517859
 20
30.01136852424775
 10
19.68278503517858
 20
30.01136852424775
 10
19.68278503517857
 20
29.48136852424772
 10
19.64778503517857
 20
29.44636852424772
 10
19.64778503517857
 20
29.29636852424772
 42
0.4142135623730992
 10
19.70778503517857
 20
29.23636852424772
 10
19.84895397922891
 20
29.23636852424772
 42
0.2909872012781415
 10
19.90328689849246
 20
29.27091397879311
 42
-0.5639031077483616
 10
20.36278503517859
 20
29.31969335395832
 10
20.36278503517858
 20
29.27136852424772
 42
-0.4142135623730951
 10
20.30278503517858
 20
29.21136852424772
 10
20.24535039788482
 20
29.21136852424772
 42
3.810279321932645
 10
20.24535039788484
 20
29.10136852424774
 10
20.30278503517858
 20
29.10136852424772
 42
-0.4142135623730951
 10
20.36278503517858
 20
29.04136852424772
 10
20.36278503517856
 20
28.99304369453709
 42
-0.5639031077483231
 10
19.90328689849247
 20
29.04182306970225
 42
0.290987201278148
 10
19.84895397922888
 20
29.07636852424772
 10
19.70778503517857
 20
29.07636852424772
 42
0.4142135623730993
 10
19.64778503517857
 20
29.01636852424772
 10
19.64778503517857
 20
28.86636852424773
 10
19.68278503517857
 20
28.83136852424772
 10
19.68278503517857
 20
28.3013685242477
 10
19.78278503517859
 20
28.3013685242477
 42
-0.1989123673796621
 10
19.87117338282691
 20
28.26475687189601
 10
19.95956173047522
 20
28.1763685242477
 10
20.37278503517857
 20
28.1763685242477
 10
20.78778503517856
 20
28.59136852424767
 10
20.78778503517856
 20
28.81386852424773
 42
-0.4142135623730863
 10
20.84778503517856
 20
28.87386852424774
 10
20.96778503517858
 20
28.87386852424774
 10
20.96778503517858
 20
28.81643388695396
 42
3.810279321931714
 10
21.07778503517858
 20
28.81643388695396
 10
21.07778503517858
 20
28.87386852424773
 10
21.1977850351786
 20
28.87386852424774
 42
-0.4142135623730951
 10
21.2577850351786
 20
28.81386852424773
 10
21.2577850351786
 20
28.62136852424769
 10
21.99278503517854
 20
28.6213685242477
 10
21.99278503517854
 20
28.66386852424772
 10
22.05021967247232
 20
28.66386852424772
 42
3.810279321931714
 10
22.05021967247232
 20
28.77386852424772
 10
21.99278503517854
 20
28.77386852424772
 10
21.99278503517854
 20
29.10136852424772
 10
22.05021967247232
 20
29.10136852424772
 42
3.810279321931714
 10
22.05021967247232
 20
29.21136852424772
 10
21.99278503517854
 20
29.21136852424772
 10
21.99278503517855
 20
29.53886852424771
 10
22.05021967247232
 20
29.53886852424771
 42
3.810279321931714
 10
22.05021967247232
 20
29.64886852424771
 10
21.99278503517854
 20
29.64886852424771
 10
21.99278503517854
 20
29.69136852424774
 10
21.2577850351786
 20
29.69136852424774
 10
21.2577850351786
 20
29.4988685242477
 42
-0.4142135623730864
 10
21.1977850351786
 20
29.4388685242477
 10
21.07778503517858
 20
29.4388685242477
 10
21.07778503517858
 20
29.49630316154147
 42
3.810279321931714
 10
20.96778503517858
 20
29.49630316154147
 10
20.96778503517858
 20
29.4388685242477
 10
20.84778503517856
 20
29.4388685242477
 42
-0.4142135623730605
 10
20.78778503517856
 20
29.4988685242477
 10
20.78778503517856
 20
29.72136852424777
 10
20.37278503517857
 20
30.13636852424774
 10
19.95956173047522
 20
30.13636852424774
  0
LINE
  5
C1CB
330
17
100
AcDbEntity
  8
HIDDEN
100
AcDbLine
 10
19.52278503517857
 20
29.87236852424773
 30
0.0
 11
19.68278503517857
 21
29.87236852424773
 31
0.0
  0
LINE
  5
C1CC
330
17
100
AcDbEntity
  8
HIDDEN
100
AcDbLine
 10
19.52278503517857
 20
29.69036852424773
 30
0.0
 11
19.68278503517857
 21
29.69036852424773
 31
0.0
  0
LINE
  5
C1CD
330
17
100
AcDbEntity
  8
HIDDEN
100
AcDbLine
 10
19.52278503517857
 20
28.62236852424772
 30
0.0
 11
19.68278503517857
 21
28.62236852424772
 31
0.0
  0
LINE
  5
C1CE
330
17
100
AcDbEntity
  8
HIDDEN
100
AcDbLine
 10
19.52278503517857
 20
28.44036852424772
 30
0.0
 11
19.68278503517857
 21
28.44036852424772
 31
0.0
  0
LWPOLYLINE
  5
C1CF
330
17
100
AcDbEntity
  8
0
 62
     4
100
AcDbPolyline
 90
       54
 70
     1
 43
0.0
 10
20.27278503517857
 20
28.0213685242477
 10
20.24278503517857
 20
28.05136852424769
 10
20.05278503517858
 20
28.0513685242477
 10
20.02278503517858
 20
28.0213685242477
 10
19.95021144204977
 20
28.0213685242477
 42
-0.1989123673796561
 10
19.92899823861418
 20
28.0301553208121
 10
19.78278503517858
 20
28.1763685242477
 10
19.55278503517857
 20
28.1763685242477
 42
-0.4142135623731122
 10
19.52278503517857
 20
28.2063685242477
 10
19.52278503517857
 20
28.51636852424771
 10
19.53778503517857
 20
28.53136852424772
 10
19.52278503517857
 20
28.54636852424772
 10
19.52278503517857
 20
29.76636852424773
 10
19.53778503517857
 20
29.78136852424773
 10
19.52278503517857
 20
29.79636852424773
 10
19.52278503517857
 20
30.10636852424774
 42
-0.4142135623731122
 10
19.55278503517857
 20
30.13636852424774
 10
19.78278503517859
 20
30.13636852424774
 10
19.92899823861418
 20
30.28258172768334
 42
-0.1989123673796529
 10
19.95021144204978
 20
30.29136852424774
 10
20.02278503517858
 20
30.29136852424774
 10
20.05278503517858
 20
30.26136852424774
 10
20.24278503517857
 20
30.26136852424774
 10
20.27278503517857
 20
30.29136852424774
 10
20.38213532360401
 20
30.29136852424774
 42
-0.1989123673796462
 10
20.40334852703962
 20
30.28258172768334
 10
20.86956173047523
 20
29.81636852424774
 10
22.29278503517854
 20
29.81636852424774
 10
22.29278503517854
 20
30.13636852424774
 10
21.85778503517856
 20
30.13636852424774
 42
-0.4142135623731122
 10
21.79778503517856
 20
30.19636852424774
 10
21.79778503517856
 20
30.26136852424774
 42
-0.4142135623730605
 10
21.82778503517856
 20
30.29136852424774
 10
22.02278503517855
 20
30.29136852424774
 10
22.05278503517855
 20
30.26136852424774
 10
22.24278503517855
 20
30.26136852424774
 10
22.27278503517855
 20
30.29136852424775
 10
22.35778503517854
 20
30.29136852424775
 42
-0.4142135623730951
 10
22.41778503517854
 20
30.23136852424774
 10
22.41778503517855
 20
28.0813685242477
 42
-0.4142135623730951
 10
22.35778503517854
 20
28.0213685242477
 10
22.27278503517855
 20
28.0213685242477
 10
22.24278503517855
 20
28.05136852424769
 10
22.05278503517855
 20
28.0513685242477
 10
22.02278503517855
 20
28.0213685242477
 10
21.82778503517856
 20
28.0213685242477
 42
-0.4142135623730605
 10
21.79778503517856
 20
28.0513685242477
 10
21.79778503517856
 20
28.1163685242477
 42
-0.4142135623731122
 10
21.85778503517856
 20
28.1763685242477
 10
22.29278503517854
 20
28.1763685242477
 10
22.29278503517854
 20
28.4963685242477
 10
20.86956173047523
 20
28.4963685242477
 10
20.40334852703961
 20
28.0301553208121
 42
-0.1989123673796444
 10
20.38213532360401
 20
28.0213685242477
  0
ARC
  5
C1F3
330
17
100
AcDbEntity
  8
R-SWTS-DET3
100
AcDbCircle
 10
44.03213910321894
 20
24.98067653098994
 30
0.0
 40
0.3125
100
AcDbArc
 50
336.421821521801
 51
23.57817847819727
  0
ARC
  5
C1F4
330
17
100
AcDbEntity
  8
R-SWTS-DET3
100
AcDbCircle
 10
44.13459099040021
 20
24.98067653098994
 30
0.0
 40
0.3125
100
AcDbArc
 50
336.421821521801
 51
23.57817847819727
  0
ARC
  5
C1F5
330
17
100
AcDbEntity
  8
R-SWTS-DET3
100
AcDbCircle
 10
44.24728838870273
 20
24.98067653098994
 30
0.0
 40
0.3125
100
AcDbArc
 50
336.421821521801
 51
23.57817847819727
  0
ARC
  5
C1F6
330
17
100
AcDbEntity
  8
R-SWTS-DET3
100
AcDbCircle
 10
46.95128277373933
 20
24.98067653098994
 30
0.0
 40
0.3125
100
AcDbArc
 50
156.4218215218036
 51
203.5781784781982
  0
ARC
  5
C1F7
330
17
100
AcDbEntity
  8
R-SWTS-DET3
100
AcDbCircle
 10
46.85907593710338
 20
24.98067653098994
 30
0.0
 40
0.3125
100
AcDbArc
 50
156.4218215218036
 51
203.5781784781982
  0
ARC
  5
C1F8
330
17
100
AcDbEntity
  8
R-SWTS-DET3
100
AcDbCircle
 10
46.7771143813008
 20
24.98067653098994
 30
0.0
 40
0.3125
100
AcDbArc
 50
156.4218215218036
 51
203.5781784781982
  0
ARC
  5
C1F9
330
17
100
AcDbEntity
  8
R-SWTS-DET3
100
AcDbCircle
 10
46.68490754466488
 20
24.98067653098994
 30
0.0
 40
0.3125
100
AcDbArc
 50
156.4218215218036
 51
203.5781784781982
  0
ARC
  5
C1FA
330
17
100
AcDbEntity
  8
R-SWTS-DET3
100
AcDbCircle
 10
45.48658829806313
 20
24.09428847066477
 30
0.0
 40
0.625
100
AcDbArc
 50
66.4218215217991
 51
113.5781784782008
  0
ARC
  5
C1FB
330
17
100
AcDbEntity
  8
R-SWTS-DET3
100
AcDbCircle
 10
45.48658829806313
 20
24.15572223949752
 30
0.0
 40
0.625
100
AcDbArc
 50
66.4218215217991
 51
113.5781784782009
  0
ARC
  5
C1FC
330
17
100
AcDbEntity
  8
R-SWTS-DET3
100
AcDbCircle
 10
62.23053894613357
 20
24.10590810944078
 30
0.0
 40
0.3125
100
AcDbArc
 50
291.4218215217992
 51
338.5781784782009
  0
ARC
  5
C1FD
330
17
100
AcDbEntity
  8
R-SWTS-DET3
100
AcDbCircle
 10
62.2943215707626
 20
24.03862295567609
 30
0.0
 40
0.3125
100
AcDbArc
 50
291.4218215217992
 51
338.5781784782009
  0
ARC
  5
C1FE
330
17
100
AcDbEntity
  8
R-SWTS-DET3
100
AcDbCircle
 10
62.36873474797377
 20
23.9642551192226
 30
0.0
 40
0.3125
100
AcDbArc
 50
291.4218215217992
 51
338.5781784782009
  0
ARC
  5
C1FF
330
17
100
AcDbEntity
  8
R-SWTS-DET3
100
AcDbCircle
 10
62.42188682002066
 20
23.91113533083552
 30
0.0
 40
0.3125
100
AcDbArc
 50
291.4218215217992
 51
338.5781784782009
  0
ARC
  5
C200
330
17
100
AcDbEntity
  8
R-SWTS-DET3
100
AcDbCircle
 10
62.48212600388493
 20
23.85447413474825
 30
0.0
 40
0.3125
100
AcDbArc
 50
291.4218215217992
 51
338.5781784782009
  0
ARC
  5
C201
330
17
100
AcDbEntity
  8
R-SWTS-DET3
100
AcDbCircle
 10
62.5388217469845
 20
23.79781307137253
 30
0.0
 40
0.3125
100
AcDbArc
 50
291.4218215217992
 51
338.5781784782009
  0
ARC
  5
C202
330
17
100
AcDbEntity
  8
R-SWTS-DET3
100
AcDbCircle
 10
65.20251411993419
 20
24.11299079212958
 30
0.0
 40
0.3125
100
AcDbArc
 50
201.4218215217994
 51
246.5927183434858
  0
ARC
  5
C203
330
17
100
AcDbEntity
  8
R-SWTS-DET3
100
AcDbCircle
 10
65.14581860712261
 20
24.06695355371971
 30
0.0
 40
0.3125
100
AcDbArc
 50
201.4218215217994
 51
248.0866824615829
  0
ARC
  5
C204
330
17
100
AcDbEntity
  8
R-SWTS-DET3
100
AcDbCircle
 10
65.0962097455525
 20
24.01737504032124
 30
0.0
 40
0.3125
100
AcDbArc
 50
201.4218215217994
 51
248.0909595719435
  0
ARC
  5
C205
330
17
100
AcDbEntity
  8
R-SWTS-DET3
100
AcDbCircle
 10
65.03597079197615
 20
23.95717256924536
 30
0.0
 40
0.3125
100
AcDbArc
 50
201.4218215217994
 51
248.0961014022679
  0
ARC
  5
C206
330
17
100
AcDbEntity
  8
R-SWTS-DET3
100
AcDbCircle
 10
64.96864449629445
 20
23.88988741548067
 30
0.0
 40
0.3125
100
AcDbArc
 50
201.4218215217994
 51
248.5781784782008
  0
ARC
  5
C207
330
17
100
AcDbEntity
  8
R-SWTS-DET3
100
AcDbCircle
 10
64.90840531243017
 20
23.82260226171599
 30
0.0
 40
0.3125
100
AcDbArc
 50
201.4218215217994
 51
247.1123775594469
  0
ARC
  5
C208
330
17
100
AcDbEntity
  8
R-SWTS-DET3
100
AcDbCircle
 10
64.84462268780115
 20
23.7623997906401
 30
0.0
 40
0.3125
100
AcDbArc
 50
201.4218215217994
 51
247.6142780828918
  0
LWPOLYLINE
  5
C34F
330
17
100
AcDbEntity
  8
filler
100
AcDbPolyline
 90
       22
 70
     1
 43
0.0
 10
22.91585610299041
 20
28.00636852424766
 10
22.81578503517856
 20
28.00636852424766
 10
22.81578503517856
 20
28.21836852424765
 10
22.84778503517854
 20
28.21836852424765
 10
22.78166067952558
 20
28.33289926785638
 42
0.267949192431122
 10
22.76872354796113
 20
28.34036852424765
 10
22.50378503517855
 20
28.34036852424765
 10
22.50378503517855
 20
28.27836852424765
 10
22.75378503517855
 20
28.27836852424765
 10
22.75378503517855
 20
27.99636852424766
 10
19.69878503517857
 20
27.99636852424766
 10
19.69878503517857
 20
28.04636852424767
 42
0.414213562373069
 10
19.63878503517857
 20
28.10636852424767
 10
19.55878503517858
 20
28.10636852424767
 42
0.9999999999999998
 10
19.55878503517858
 20
28.04636852424767
 10
19.63378503517857
 20
28.04636852424767
 10
19.63378503517857
 20
27.96636852424767
 10
19.54878503517859
 20
27.96636852424767
 42
0.4142135623730949
 10
19.52878503517858
 20
27.94636852424766
 10
19.52878503517858
 20
27.90636852424766
 10
22.99171396736669
 20
27.90636852424766
 42
0.6681786379192989
 10
22.99878503517855
 20
27.92343959205953
  0
MTEXT
  5
C82C
330
17
100
AcDbEntity
  8
TEXT
100
AcDbMText
 10
1.0
 20
1.999999942131637
 30
0.0
 40
0.375
 41
14.22387531454843
 46
0.0
 71
     1
 72
     5
  1
ENGINEERING CHANGE:  97910-138 (JULY 2018)\PFILE NAME:  KCDD020 SHEET 09 OF 09.DWG
 73
     1
 44
1.0
1001
ACAD
1000
ACAD_MTEXT_COLUMN_INFO_BEGIN
1070
    75
1070
     2
1070
    79
1070
     0
1070
    76
1070
     1
1070
    78
1070
     0
1070
    48
1040
14.22387531454843
1070
    49
1040
1.25
1070
    50
1070
     1
1040
0.0
1000
ACAD_MTEXT_COLUMN_INFO_END
  0
INSERT
  5
C8F5
330
17
100
AcDbEntity
  8
0
100
AcDbBlockReference
  2
Kawneer Logo English
 10
1.0
 20
2.5
 30
0.0
 41
5.337
 42
5.337
 43
5.337
  0
MTEXT
  5
C9E0
330
17
100
AcDbEntity
  8
TEXT
100
AcDbMText
 10
62.03016302533016
 20
2.331111485756393
 30
0.0
 40
0.5
 41
26.42075531882978
 46
0.0
 71
     8
 72
     5
  1
*INSTALLER NOTE: INSTALLER IS RESPONSIBLE FOR ALL REQUIRED COMPATIBILITY REVIEW AND APPROVALS WITH THE STRUCTURAL SILICONE MANUFACTURER AND THE INSULATED GLASS UNIT MANUFACTURERS.
 73
     1
 44
1.0
  0
MTEXT
  5
C9E2
330
17
100
AcDbEntity
  8
R-ANNO-TEXT
100
AcDbMText
 10
42.56367058009943
 20
31.3713123305758
 30
0.0
 40
0.25
 41
5.834885551352599
 46
0.0
 71
     1
 72
     5
  1
162306 MULLION SLEEVE \P128267 #12 x 1" AB PHTF \P128348 #10-16 x 1 1/4" FHSD\PSTRUCTURAL SILICONE SEALANT (BY OTHERS)*
 73
     1
 44
1.0
  0
MTEXT
  5
C9E3
330
17
100
AcDbEntity
  8
R-ANNO-TEXT
100
AcDbMText
 10
60.21670121896587
 20
34.54545781330404
 30
0.0
 40
0.25
 41
5.887989416235811
 46
0.0
 71
     1
 72
     5
  1
162306 MULLION SLEEVE \P128267 #12 x 1" AB PHTF \P128348 #10-16 x 1 1/4" FHSD\PSTRUCTURAL SILICONE SEALANT (BY OTHERS)*
 73
     1
 44
1.0
  0
ENDSEC
  0
SECTION
  2
OBJECTS
  0
DICTIONARY
  5
C
330
0
100
AcDbDictionary
281
     1
  3
ACAD_CIP_PREVIOUS_PRODUCT_INFO
350
C29B
  3
ACAD_COLOR
350
C118
  3
ACAD_DETAILVIEWSTYLE
350
C9D1
  3
ACAD_GROUP
350
D
  3
ACAD_LAYOUT
350
ACB8
  3
ACAD_MATERIAL
350
C117
  3
ACAD_MLEADERSTYLE
350
C25C
  3
ACAD_MLINESTYLE
350
1A
  3
ACAD_PLOTSETTINGS
350
ACB9
  3
ACAD_PLOTSTYLENAME
350
ACB6
  3
ACAD_SCALELIST
350
C23A
  3
ACAD_SECTIONVIEWSTYLE
350
C9CF
  3
ACAD_TABLESTYLE
350
C119
  3
ACAD_VISUALSTYLE
350
C229
  3
ACDB_RECOMPOSE_DATA
350
CB1B
  3
ACDBVARIABLEDICTIONARY
350
3E
  0
DICTIONARY
  5
C277
330
8
100
AcDbDictionary
280
     1
281
     1
  0
DICTIONARY
  5
C13B
330
2
100
AcDbDictionary
280
     1
281
     1
  3
ACAD_LAYERSTATES
360
C13C
  0
DICTIONARY
  5
C261
330
E
100
AcDbDictionary
280
     1
281
     1
  3
ADSK_XREC_LAYER_RECONCILED
360
C262
  0
DICTIONARY
  5
C263
330
A48F
100
AcDbDictionary
280
     1
281
     1
  3
ADSK_XREC_LAYER_RECONCILED
360
C264
  0
DICTIONARY
  5
C265
330
A491
100
AcDbDictionary
280
     1
281
     1
  3
ADSK_XREC_LAYER_RECONCILED
360
C266
  0
DICTIONARY
  5
C267
330
A492
100
AcDbDictionary
280
     1
281
     1
  3
ADSK_XREC_LAYER_RECONCILED
360
C268
  0
DICTIONARY
  5
C269
330
A682
100
AcDbDictionary
280
     1
281
     1
  3
ADSK_XREC_LAYER_RECONCILED
360
C26A
  0
DICTIONARY
  5
C26B
330
B401
100
AcDbDictionary
280
     1
281
     1
  3
ADSK_XREC_LAYER_RECONCILED
360
C26C
  0
DICTIONARY
  5
C271
330
C158
100
AcDbDictionary
280
     1
281
     1
  3
ADSK_XREC_LAYER_RECONCILED
360
C272
  0
DICTIONARY
  5
ACE4
330
17
100
AcDbDictionary
280
     1
281
     1
  3
ACAD_LAYOUTSELFREF
360
C113
  3
ACAD_SORTENTS
360
C20A
  0
DICTIONARY
  5
ACE2
330
14
100
AcDbDictionary
280
     1
281
     1
  3
ACAD_LAYOUTSELFREF
360
C112
  0
DICTIONARY
  5
C8F1
330
C8E7
100
AcDbDictionary
280
     1
281
     1
  3
ACAD_SORTENTS
360
C8F2
  0
DICTIONARY
  5
C98C
330
C8E8
100
AcDbDictionary
280
     1
281
     1
  3
ACAD_MTEXT_2008_RT
360
CB16
  0
XRECORD
  5
C29B
102
{ACAD_REACTORS
330
C
102
}
330
C
100
AcDbXrecord
280
     1
300
ACD
300
2016
300
86445ACD_2016_0F
  0
DICTIONARY
  5
C118
102
{ACAD_REACTORS
330
C
102
}
330
C
100
AcDbDictionary
281
     1
  0
DICTIONARY
  5
C9D1
102
{ACAD_REACTORS
330
C
102
}
330
C
100
AcDbDictionary
281
     1
  3
Imperial24
350
C9D2
  0
DICTIONARY
  5
D
102
{ACAD_REACTORS
330
C
102
}
330
C
100
AcDbDictionary
281
     1
  0
DICTIONARY
  5
ACB8
102
{ACAD_REACTORS
330
C
102
}
330
C
100
AcDbDictionary
281
     1
  3
Layout1
350
ACBB
  3
Model
350
ACBA
  0
DICTIONARY
  5
C117
102
{ACAD_REACTORS
330
C
102
}
330
C
100
AcDbDictionary
281
     1
  3
ByBlock
350
C221
  3
ByLayer
350
C219
  3
Global
350
C1E2
  0
DICTIONARY
  5
C25C
102
{ACAD_REACTORS
330
C
102
}
330
C
100
AcDbDictionary
281
     1
  3
Standard
350
C25D
  0
DICTIONARY
  5
1A
102
{ACAD_REACTORS
330
C
102
}
330
C
100
AcDbDictionary
281
     1
  3
STANDARD
350
1B
  0
DICTIONARY
  5
ACB9
102
{ACAD_REACTORS
330
C
102
}
330
C
100
AcDbDictionary
281
     1
  0
ACDBDICTIONARYWDFLT
  5
ACB6
102
{ACAD_REACTORS
330
C
102
}
330
C
100
AcDbDictionary
281
     1
  3
Normal
350
ACB7
100
AcDbDictionaryWithDefault
340
ACB7
  0
DICTIONARY
  5
C23A
102
{ACAD_REACTORS
330
C
102
}
330
C
100
AcDbDictionary
281
     1
  3
A0
350
C23B
  3
A1
350
CAFE
  3
A2
350
CAFF
  3
A3
350
CB00
  3
A4
350
CB01
  3
A5
350
CB02
  3
A6
350
CB03
  3
A7
350
CB04
  3
A8
350
CB05
  3
A9
350
CB06
  3
B0
350
CB07
  3
B1
350
CB08
  3
B2
350
CB09
  3
B3
350
CB0A
  3
B4
350
CB0B
  3
B5
350
CB0C
  3
B6
350
CB0D
  0
DICTIONARY
  5
C9CF
102
{ACAD_REACTORS
330
C
102
}
330
C
100
AcDbDictionary
281
     1
  3
Imperial24
350
C9D0
  0
DICTIONARY
  5
C119
102
{ACAD_REACTORS
330
C
102
}
330
C
100
AcDbDictionary
281
     1
  3
Standard
350
C11A
  0
DICTIONARY
  5
C229
102
{ACAD_REACTORS
330
C
102
}
330
C
100
AcDbDictionary
281
     1
  3
2dWireframe
350
C22F
  3
3D Hidden
350
C231
  3
3dWireframe
350
C230
  3
Basic
350
C22E
  3
Brighten
350
C235
  3
ColorChange
350
C239
  3
Conceptual
350
C232
  3
Dim
350
C234
  3
EdgeColorOff
350
C298
  3
Facepattern
350
C238
  3
Flat
350
C22A
  3
FlatWithEdges
350
C22B
  3
Gouraud
350
C22C
  3
GouraudWithEdges
350
C22D
  3
Hidden
350
C290
  3
JitterOff
350
C296
  3
Linepattern
350
C237
  3
OverhangOff
350
C297
  3
Realistic
350
C233
  3
Shaded
350
C295
  3
Shaded with edges
350
C294
  3
Shades of Gray
350
C291
  3
Sketchy
350
C292
  3
Thicken
350
C236
  3
Wireframe
350
C28F
  3
X-Ray
350
C293
  0
XRECORD
  5
CB1B
102
{ACAD_REACTORS
330
C
102
}
330
C
100
AcDbXrecord
280
     1
 90
        1
330
C11A
330
C82C
330
C8E8
330
C9D0
330
C9D2
  0
DICTIONARY
  5
3E
102
{ACAD_REACTORS
330
C
102
}
330
C
100
AcDbDictionary
281
     1
  3
CANNOSCALE
350
C28B
  3
CMLEADERSTYLE
350
C28A
  3
CTABLESTYLE
350
C146
  3
CVIEWDETAILSTYLE
350
CA2F
  3
CVIEWSECTIONSTYLE
350
CA30
  3
DIMADEC
350
3F
  3
DIMASSOC
350
C216
  3
INDEXCTL
350
C28D
  3
LAYEREVAL
350
C41D
  3
LAYERNOTIFY
350
C41E
  3
LIGHTINGUNITS
350
C41C
  3
MSLTSCALE
350
C41B
  3
PROJECTNAME
350
C217
  3
SORTENTS
350
C28C
  0
DICTIONARY
  5
C13C
102
{ACAD_REACTORS
330
C13B
102
}
330
C13B
100
AcDbDictionary
281
     1
  0
XRECORD
  5
C262
102
{ACAD_REACTORS
330
C261
102
}
330
C261
100
AcDbXrecord
280
     1
290
     1
  0
XRECORD
  5
C264
102
{ACAD_REACTORS
330
C263
102
}
330
C263
100
AcDbXrecord
280
     1
290
     1
  0
XRECORD
  5
C266
102
{ACAD_REACTORS
330
C265
102
}
330
C265
100
AcDbXrecord
280
     1
290
     1
  0
XRECORD
  5
C268
102
{ACAD_REACTORS
330
C267
102
}
330
C267
100
AcDbXrecord
280
     1
290
     1
  0
XRECORD
  5
C26A
102
{ACAD_REACTORS
330
C269
102
}
330
C269
100
AcDbXrecord
280
     1
290
     1
  0
XRECORD
  5
C26C
102
{ACAD_REACTORS
330
C26B
102
}
330
C26B
100
AcDbXrecord
280
     1
290
     1
  0
XRECORD
  5
C272
102
{ACAD_REACTORS
330
C271
102
}
330
C271
100
AcDbXrecord
280
     1
290
     1
  0
XRECORD
  5
C113
102
{ACAD_REACTORS
330
ACE4
102
}
330
ACE4
100
AcDbXrecord
280
     1
340
17
  0
SORTENTSTABLE
  5
C20A
102
{ACAD_REACTORS
330
ACE4
102
}
330
ACE4
100
AcDbSortentsTable
330
17
331
20CE
  5
20CE
331
BDBE
  5
BDBE
331
BD44
  5
BD44
331
BDBA
  5
BDBA
331
BD7F
  5
BD7F
331
BFB6
  5
BFB6
331
BE34
  5
BE34
331
BDF5
  5
BDF5
331
BDB6
  5
BDB6
331
BD7B
  5
BD7B
331
C1CE
  5
C1CF
331
BFB2
  5
BFB2
331
BE30
  5
BE30
331
BEBF
  5
BEBF
331
BDB2
  5
BDB2
331
BEBB
  5
BEBB
331
BFED
  5
BFED
331
C1CA
  5
C1CB
331
BFAE
  5
BFAE
331
BE2C
  5
BE2C
331
BFE9
  5
BFE9
331
BFAA
  5
BFAA
331
BE28
  5
BE28
331
BD77
  5
BD77
331
BD73
  5
BD73
331
BDED
  5
BDED
331
BD34
  5
BD34
331
BEB7
  5
BEB7
331
BD6F
  5
BD6F
331
BDE9
  5
BDE9
331
BD30
  5
BD30
331
BFE5
  5
BFE5
331
BEB3
  5
BEB3
331
BDA6
  5
BDA6
331
BDE5
  5
BDE5
331
BD2C
  5
BD2C
331
BD6B
  5
BD6B
331
BEAF
  5
BEAF
331
C05B
  5
C05B
331
BE20
  5
BE20
331
BDE1
  5
BDE1
331
BDA2
  5
BDA2
331
BD28
  5
BD28
331
BEAB
  5
BEAB
331
BEE6
  5
BEE6
331
BE1C
  5
BE1C
331
C205
  5
C206
331
BEE2
  5
BEE2
331
C201
  5
C202
331
BD67
  5
BD67
331
BD9E
  5
BD9E
331
BDDD
  5
BDDD
331
BD63
  5
BD63
331
BEA7
  5
BEA7
331
BD9A
  5
BD9A
331
BDD9
  5
BDD9
331
BD5F
  5
BD5F
331
BEA3
  5
BEA3
331
BFD5
  5
BFD5
331
BEDE
  5
BEDE
331
BE14
  5
BE14
331
BDD5
  5
BDD5
331
BD96
  5
BD96
331
BD5B
  5
BD5B
331
BE9F
  5
BE9F
331
BFD1
  5
BFD1
331
C1FD
  5
C1FE
331
BEDA
  5
BEDA
331
BE10
  5
BE10
331
BDD1
  5
BDD1
331
BFCD
  5
BFCD
331
C1F9
  5
C1FA
331
BED6
  5
BED6
331
BE0C
  5
BE0C
331
C1F5
  5
C1F6
331
BFC9
  5
BFC9
331
BE08
  5
BE08
331
BDCD
  5
BDCD
331
BD8E
  5
BD8E
331
BD53
  5
BD53
331
BE97
  5
BE97
331
BDC9
  5
BDC9
331
BD8A
  5
BD8A
331
BD4F
  5
BD4F
331
BFC5
  5
BFC5
331
BE04
  5
BE04
331
BDC5
  5
BDC5
331
BD4B
  5
BD4B
331
BECA
  5
BECA
331
BFC1
  5
BFC1
331
BE00
  5
BE00
331
BDC1
  5
BDC1
331
BD82
  5
BD82
331
C0EA
  5
C0EA
331
BEC6
  5
BEC6
331
BFBD
  5
BFBD
331
BDFC
  5
BDFC
331
BFB9
  5
BFB9
331
BFF4
  5
BFF4
331
C0E6
  5
C0E6
331
BEC2
  5
BEC2
331
BDF8
  5
BDF8
331
BFF0
  5
BFF0
331
C0E2
  5
C0E2
331
BD47
  5
BD47
331
BD43
  5
BD43
331
BDBD
  5
BDBD
331
BE37
  5
BE37
331
BD3F
  5
BD3F
331
BDB9
  5
BDB9
331
BD7E
  5
BD7E
331
BFB5
  5
BFB5
331
BE33
  5
BE33
331
20C5
  5
20C5
331
BD3B
  5
BD3B
331
BDB5
  5
BDB5
331
BD7A
  5
BD7A
331
BFB1
  5
BFB1
331
BEBE
  5
BEBE
331
C1CD
  5
C1CE
331
BDB1
  5
BDB1
331
BDF0
  5
BDF0
331
BFAD
  5
BFAD
331
BFEC
  5
BFEC
331
BE2B
  5
BE2B
331
BEBA
  5
BEBA
331
BFA9
  5
BFA9
331
BFE8
  5
BFE8
331
BD76
  5
BD76
331
BD72
  5
BD72
331
BDAD
  5
BDAD
331
BDEC
  5
BDEC
331
BEB6
  5
BEB6
331
BE27
  5
BE27
331
BD2F
  5
BD2F
331
BDE8
  5
BDE8
331
BD6E
  5
BD6E
331
BEB2
  5
BEB2
331
BD2B
  5
BD2B
331
BDE4
  5
BDE4
331
BD6A
  5
BD6A
331
BE1F
  5
BE1F
331
BEAE
  5
BEAE
331
BDE0
  5
BDE0
331
BEE5
  5
BEE5
331
BEAA
  5
BEAA
331
C208
  5
C209
331
BFD8
  5
BFD8
331
C204
  5
C205
331
C200
  5
C201
331
BD66
  5
BD66
331
BD62
  5
BD62
331
BDDC
  5
BDDC
331
BD9D
  5
BD9D
331
BEA6
  5
BEA6
331
BE17
  5
BE17
331
BD5E
  5
BD5E
331
BDD8
  5
BDD8
331
BD99
  5
BD99
331
BEA2
  5
BEA2
331
BEDD
  5
BEDD
331
BFD4
  5
BFD4
331
BE13
  5
BE13
331
BD5A
  5
BD5A
331
BDD4
  5
BDD4
331
BD95
  5
BD95
331
BED9
  5
BED9
331
BFD0
  5
BFD0
331
BE0F
  5
BE0F
331
BE9E
  5
BE9E
331
C1FC
  5
C1FD
331
BDD0
  5
BDD0
331
BFCC
  5
BFCC
331
BED5
  5
BED5
331
BE0B
  5
BE0B
331
C1F8
  5
C1F9
331
BFC8
  5
BFC8
331
BED1
  5
BED1
331
C1F4
  5
C1F5
331
BD56
  5
BD56
331
BD52
  5
BD52
331
BD8D
  5
BD8D
331
BDCC
  5
BDCC
331
BE07
  5
BE07
331
BD4E
  5
BD4E
331
BD89
  5
BD89
331
BDC8
  5
BDC8
331
BFC4
  5
BFC4
331
BE03
  5
BE03
331
2E0C
  5
2E0C
331
BD4A
  5
BD4A
331
BDC4
  5
BDC4
331
BD85
  5
BD85
331
BE3E
  5
BE3E
331
BFC0
  5
BFC0
331
BEC9
  5
BEC9
331
BDFF
  5
BDFF
331
BDC0
  5
BDC0
331
BD81
  5
BD81
331
BE3A
  5
BE3A
331
BFBC
  5
BFBC
331
BEC5
  5
BEC5
331
BDFB
  5
BDFB
331
C0E9
  5
C0E9
331
BFB8
  5
BFB8
331
BEC1
  5
BEC1
331
C0E5
  5
C0E5
331
BFF3
  5
BFF3
331
BD46
  5
BD46
331
BDBC
  5
BDBC
331
BD42
  5
BD42
331
BE36
  5
BE36
331
BDF7
  5
BDF7
331
BDB8
  5
BDB8
331
BD3E
  5
BD3E
331
BD7D
  5
BD7D
331
BE32
  5
BE32
331
BFB4
  5
BFB4
331
BDB4
  5
BDB4
331
BDF3
  5
BDF3
331
BD3A
  5
BD3A
331
BD79
  5
BD79
331
BEBD
  5
BEBD
331
C1CC
  5
C1CD
331
BFB0
  5
BFB0
331
BFEF
  5
BFEF
331
BE2A
  5
BE2A
331
C075
  5
C075
331
BFAC
  5
BFAC
331
BFEB
  5
BFEB
331
BFA8
  5
BFA8
331
BDEF
  5
BDEF
331
BD75
  5
BD75
331
BDAC
  5
BDAC
331
BDEB
  5
BDEB
331
BD71
  5
BD71
331
BE26
  5
BE26
331
BFE7
  5
BFE7
331
BEB5
  5
BEB5
331
BDE7
  5
BDE7
331
BDA8
  5
BDA8
331
BD2E
  5
BD2E
331
BD6D
  5
BD6D
331
C05D
  5
C05D
331
BEB1
  5
BEB1
331
BDE3
  5
BDE3
331
BD2A
  5
BD2A
331
BD69
  5
BD69
331
BE1E
  5
BE1E
331
BEAD
  5
BEAD
331
BEA9
  5
BEA9
331
C207
  5
C208
331
BEE4
  5
BEE4
331
C203
  5
C204
331
BEE0
  5
BEE0
331
BDDF
  5
BDDF
331
BD65
  5
BD65
331
BD61
  5
BD61
331
BD9C
  5
BD9C
331
BDDB
  5
BDDB
331
B4BA
  5
B4BA
331
BEA5
  5
BEA5
331
BE16
  5
BE16
331
BFD7
  5
BFD7
331
BDD7
  5
BDD7
331
BD98
  5
BD98
331
BD5D
  5
BD5D
331
BE12
  5
BE12
331
BFD3
  5
BFD3
331
C1FF
  5
C200
331
BEDC
  5
BEDC
331
BDD3
  5
BDD3
331
BD94
  5
BD94
331
BD59
  5
BD59
331
BE9D
  5
BE9D
331
BE0E
  5
BE0E
331
BFCF
  5
BFCF
331
C1FB
  5
C1FC
331
BED8
  5
BED8
331
BD90
  5
BD90
331
BE0A
  5
BE0A
331
C1F7
  5
C1F8
331
BFCB
  5
BFCB
331
C1F3
  5
C1F4
331
BDCF
  5
BDCF
331
BD55
  5
BD55
331
BDCB
  5
BDCB
331
BD8C
  5
BD8C
331
BD51
  5
BD51
331
BE06
  5
BE06
331
BFC7
  5
BFC7
331
BDC7
  5
BDC7
331
BD88
  5
BD88
331
BD4D
  5
BD4D
331
BE02
  5
BE02
331
BECC
  5
BECC
331
BFC3
  5
BFC3
331
BD84
  5
BD84
331
BDC3
  5
BDC3
331
BD49
  5
BD49
331
BDFE
  5
BDFE
331
BFBF
  5
BFBF
331
C0EC
  5
C0EC
331
BEC8
  5
BEC8
331
BE3D
  5
BE3D
331
BD80
  5
BD80
331
BDFA
  5
BDFA
331
BFBB
  5
BFBB
331
BFF6
  5
BFF6
331
C0E8
  5
C0E8
331
BEC4
  5
BEC4
331
BE39
  5
BE39
331
BFF2
  5
BFF2
331
C0E4
  5
C0E4
331
BEC0
  5
BEC0
331
20CF
  5
20CF
331
BDBF
  5
BDBF
331
BD45
  5
BD45
331
BDBB
  5
BDBB
331
BD41
  5
BD41
331
BFB7
  5
BFB7
331
BE35
  5
BE35
331
BDB7
  5
BDB7
331
BDF6
  5
BDF6
331
BD7C
  5
BD7C
331
C1CF
  5
C1F2
331
BFB3
  5
BFB3
331
BE31
  5
BE31
331
BDB3
  5
BDB3
331
BD78
  5
BD78
331
C1CB
  5
C1CC
331
BFAF
  5
BFAF
331
BFEE
  5
BFEE
331
BEBC
  5
BEBC
331
BFAB
  5
BFAB
331
BFEA
  5
BFEA
331
BE29
  5
BE29
331
BEB8
  5
BEB8
331
C070
  5
C070
331
BDEE
  5
BDEE
331
BDAF
  5
BDAF
331
BD74
  5
BD74
331
BD70
  5
BD70
331
BDEA
  5
BDEA
331
BDAB
  5
BDAB
331
BD31
  5
BD31
331
BEB4
  5
BEB4
331
BFA7
  5
BFA7
331
BFE6
  5
BFE6
331
BE25
  5
BE25
331
BDA7
  5
BDA7
331
BDE6
  5
BDE6
331
BD2D
  5
BD2D
331
BD6C
  5
BD6C
331
C05C
  5
C05C
331
BEB0
  5
BEB0
331
BDE2
  5
BDE2
331
BD29
  5
BD29
331
BD68
  5
BD68
331
BE1D
  5
BE1D
331
BEAC
  5
BEAC
331
C206
  5
C207
331
BEE3
  5
BEE3
331
BEA8
  5
BEA8
331
C202
  5
C203
331
BDDE
  5
BDDE
331
BD9F
  5
BD9F
331
BD64
  5
BD64
331
BD60
  5
BD60
331
BDDA
  5
BDDA
331
BD9B
  5
BD9B
331
B4B9
  5
B4B9
331
BEA4
  5
BEA4
331
BEDF
  5
BEDF
331
BFD6
  5
BFD6
331
BE15
  5
BE15
331
BDD6
  5
BDD6
331
BD97
  5
BD97
331
BD5C
  5
BD5C
331
C1FE
  5
C1FF
331
BEDB
  5
BEDB
331
BFD2
  5
BFD2
331
BE11
  5
BE11
331
BEA0
  5
BEA0
331
BDD2
  5
BDD2
331
BD58
  5
BD58
331
C1FA
  5
C1FB
331
BED7
  5
BED7
331
BFCE
  5
BFCE
331
BE0D
  5
BE0D
331
C1F6
  5
C1F7
331
BE09
  5
BE09
331
BE98
  5
BE98
331
BD8F
  5
BD8F
331
BDCE
  5
BDCE
331
BD54
  5
BD54
331
BD8B
  5
BD8B
331
BDCA
  5
BDCA
331
BD50
  5
BD50
331
BFC6
  5
BFC6
331
BE05
  5
BE05
331
BD87
  5
BD87
331
BDC6
  5
BDC6
331
BD4C
  5
BD4C
331
BECB
  5
BECB
331
BE01
  5
BE01
331
BDC2
  5
BDC2
331
BD83
  5
BD83
331
BD48
  5
BD48
331
BFBE
  5
BFBE
331
C0EB
  5
C0EB
331
BEC7
  5
BEC7
331
BDFD
  5
BDFD
331
BE38
  5
BE38
331
BFBA
  5
BFBA
331
BFF5
  5
BFF5
331
C0E7
  5
C0E7
331
BEC3
  5
BEC3
331
BDF9
  5
BDF9
331
BFF1
  5
BFF1
331
C0E3
  5
C0E3
  0
XRECORD
  5
C112
102
{ACAD_REACTORS
330
ACE2
102
}
330
ACE2
100
AcDbXrecord
280
     1
340
14
  0
SORTENTSTABLE
  5
C8F2
102
{ACAD_REACTORS
330
C8F1
102
}
330
C8F1
100
AcDbSortentsTable
330
C8E7
  0
XRECORD
  5
CB16
102
{ACAD_REACTORS
330
C98C
102
}
330
C98C
100
AcDbXrecord
280
     1
 40
102645.0
  1
\pxqr;{\fArial TUR|b0|i0|c0|p34;\T1.05;AN ARCONIC COMPANY}
  0
ACDBDETAILVIEWSTYLE
  5
C9D2
102
{ACAD_XDICTIONARY
360
CB19
102
}
102
{ACAD_REACTORS
330
C9D1
102
}
330
C9D1
100
AcDbModelDocViewStyle
 70
     0
  3
Imperial24
290
     0
100
AcDbDetailViewStyle
 70
     0
 71
     0
 90
        3
 71
     1
340
F
 62
   256
 40
0.24
340
0
 62
   256
 40
0.24
300

 40
0.36
280
     3
 71
     2
340
13
 90
       25
 62
   256
 71
     3
340
F
 62
   256
 40
0.24
 90
        1
 40
0.75
 90
        1
300
%<\AcVar ViewType \f "%tc1">% %<\AcVar ViewDetailId>%\PSCALE %<\AcVar ViewScale \f "%sn">%
 71
     4
340
13
 90
       25
 62
   256
340
13
 90
       25
 62
   256
280
     0
  0
LAYOUT
  5
ACBB
102
{ACAD_REACTORS
330
ACB8
102
}
330
ACB8
100
AcDbPlotSettings
  1

  2
HP LaserJet 5Si/5Si MX PS
  4

  6

 40
0.0
 41
0.0
 42
0.0
 43
0.0
 44
0.0
 45
0.0
 46
0.0
 47
0.0
 48
0.0
 49
0.0
140
0.0
141
0.0
142
1.0
143
1.0
 70
   688
 72
     0
 73
     0
 74
     5
  7
monochrome2.ctb
 75
    16
147
1.0
 76
     0
 77
     2
 78
   300
148
0.0
149
0.0
100
AcDbLayout
  1
Layout1
 70
     1
 71
     1
 10
0.0
 20
0.0
 11
12.0
 21
9.0
 12
0.0
 22
0.0
 32
0.0
 14
1.000000000000000E+20
 24
1.000000000000000E+20
 34
1.000000000000000E+20
 15
-1.000000000000000E+20
 25
-1.000000000000000E+20
 35
-1.000000000000000E+20
146
0.0
 13
0.0
 23
0.0
 33
0.0
 16
1.0
 26
0.0
 36
0.0
 17
0.0
 27
1.0
 37
0.0
 76
     0
330
14
  0
LAYOUT
  5
ACBA
102
{ACAD_XDICTIONARY
360
C9F5
102
}
102
{ACAD_REACTORS
330
ACB8
102
}
330
ACB8
100
AcDbPlotSettings
  1

  2
\\NOAKCI-SRV7\Marketing Communications - HP 9000n
  4
User132
  6

 40
4.233333110809326
 41
4.233341693878173
 42
4.23333740234375
 43
4.23333740234375
 44
279.3999938964844
 45
431.7999877929687
 46
0.0
 47
0.0
 48
0.0
 49
0.0
140
0.0
141
0.0
142
1.0
143
5.98331041632545
 70
 11952
 72
     0
 73
     1
 74
     1
  7
monochrome2.ctb
 75
     0
147
0.1671315593574256
 76
     0
 77
     2
 78
   300
148
0.0386212066366625
149
0.0224473924222906
100
AcDbLayout
  1
Model
 70
     1
 71
     0
 10
0.0
 20
0.0
 11
12.0
 21
9.0
 12
0.0
 22
0.0
 32
0.0
 14
0.0
 24
0.0
 34
0.0
 15
0.0
 25
0.0
 35
0.0
146
0.0
 13
0.0
 23
0.0
 33
0.0
 16
1.0
 26
0.0
 36
0.0
 17
0.0
 27
1.0
 37
0.0
 76
     0
330
17
331
C210
  0
MATERIAL
  5
C221
102
{ACAD_XDICTIONARY
360
C222
102
}
102
{ACAD_REACTORS
330
C117
102
}
330
C117
100
AcDbMaterial
  1
ByBlock
 72
     0
 43
0.0208333333333333
 43
0.0
 43
0.0
 43
0.0
 43
0.0
 43
0.0208333333333333
 43
0.0
 43
0.0
 43
0.0
 43
0.0
 43
1.0
 43
0.0
 43
0.0
 43
0.0
 43
0.0
 43
1.0
 77
     0
 47
0.0208333333333333
 47
0.0
 47
0.0
 47
0.0
 47
0.0
 47
0.0208333333333333
 47
0.0
 47
0.0
 47
0.0
 47
0.0
 47
1.0
 47
0.0
 47
0.0
 47
0.0
 47
0.0
 47
1.0
171
     0
 49
0.0208333333333333
 49
0.0
 49
0.0
 49
0.0
 49
0.0
 49
0.0208333333333333
 49
0.0
 49
0.0
 49
0.0
 49
0.0
 49
1.0
 49
0.0
 49
0.0
 49
0.0
 49
0.0
 49
1.0
175
     0
142
0.0208333333333333
142
0.0
142
0.0
142
0.0
142
0.0
142
0.0208333333333333
142
0.0
142
0.0
142
0.0
142
0.0
142
1.0
142
0.0
142
0.0
142
0.0
142
0.0
142
1.0
179
     0
144
0.0208333333333333
144
0.0
144
0.0
144
0.0
144
0.0
144
0.0208333333333333
144
0.0
144
0.0
144
0.0
144
0.0
144
1.0
144
0.0
144
0.0
144
0.0
144
0.0
144
1.0
147
0.0208333333333333
147
0.0
147
0.0
147
0.0
147
0.0
147
0.0208333333333333
147
0.0
147
0.0
147
0.0
147
0.0
147
1.0
147
0.0
147
0.0
147
0.0
147
0.0
147
1.0
  0
MATERIAL
  5
C219
102
{ACAD_XDICTIONARY
360
C21A
102
}
102
{ACAD_REACTORS
330
C117
102
}
330
C117
100
AcDbMaterial
  1
ByLayer
 72
     0
 43
0.0208333333333333
 43
0.0
 43
0.0
 43
0.0
 43
0.0
 43
0.0208333333333333
 43
0.0
 43
0.0
 43
0.0
 43
0.0
 43
1.0
 43
0.0
 43
0.0
 43
0.0
 43
0.0
 43
1.0
 77
     0
 47
0.0208333333333333
 47
0.0
 47
0.0
 47
0.0
 47
0.0
 47
0.0208333333333333
 47
0.0
 47
0.0
 47
0.0
 47
0.0
 47
1.0
 47
0.0
 47
0.0
 47
0.0
 47
0.0
 47
1.0
171
     0
 49
0.0208333333333333
 49
0.0
 49
0.0
 49
0.0
 49
0.0
 49
0.0208333333333333
 49
0.0
 49
0.0
 49
0.0
 49
0.0
 49
1.0
 49
0.0
 49
0.0
 49
0.0
 49
0.0
 49
1.0
175
     0
142
0.0208333333333333
142
0.0
142
0.0
142
0.0
142
0.0
142
0.0208333333333333
142
0.0
142
0.0
142
0.0
142
0.0
142
1.0
142
0.0
142
0.0
142
0.0
142
0.0
142
1.0
179
     0
144
0.0208333333333333
144
0.0
144
0.0
144
0.0
144
0.0
144
0.0208333333333333
144
0.0
144
0.0
144
0.0
144
0.0
144
1.0
144
0.0
144
0.0
144
0.0
144
0.0
144
1.0
147
0.0208333333333333
147
0.0
147
0.0
147
0.0
147
0.0
147
0.0208333333333333
147
0.0
147
0.0
147
0.0
147
0.0
147
1.0
147
0.0
147
0.0
147
0.0
147
0.0
147
1.0
  0
MATERIAL
  5
C1E2
102
{ACAD_XDICTIONARY
360
C1E3
102
}
102
{ACAD_REACTORS
330
C117
102
}
330
C117
100
AcDbMaterial
  1
Global
 72
     0
 43
0.0208333333333333
 43
0.0
 43
0.0
 43
0.0
 43
0.0
 43
0.0208333333333333
 43
0.0
 43
0.0
 43
0.0
 43
0.0
 43
1.0
 43
0.0
 43
0.0
 43
0.0
 43
0.0
 43
1.0
 77
     0
 47
0.0208333333333333
 47
0.0
 47
0.0
 47
0.0
 47
0.0
 47
0.0208333333333333
 47
0.0
 47
0.0
 47
0.0
 47
0.0
 47
1.0
 47
0.0
 47
0.0
 47
0.0
 47
0.0
 47
1.0
171
     0
 49
0.0208333333333333
 49
0.0
 49
0.0
 49
0.0
 49
0.0
 49
0.0208333333333333
 49
0.0
 49
0.0
 49
0.0
 49
0.0
 49
1.0
 49
0.0
 49
0.0
 49
0.0
 49
0.0
 49
1.0
175
     0
142
0.0208333333333333
142
0.0
142
0.0
142
0.0
142
0.0
142
0.0208333333333333
142
0.0
142
0.0
142
0.0
142
0.0
142
1.0
142
0.0
142
0.0
142
0.0
142
0.0
142
1.0
179
     0
144
0.0208333333333333
144
0.0
144
0.0
144
0.0
144
0.0
144
0.0208333333333333
144
0.0
144
0.0
144
0.0
144
0.0
144
1.0
144
0.0
144
0.0
144
0.0
144
0.0
144
1.0
147
0.0208333333333333
147
0.0
147
0.0
147
0.0
147
0.0
147
0.0208333333333333
147
0.0
147
0.0
147
0.0
147
0.0
147
1.0
147
0.0
147
0.0
147
0.0
147
0.0
147
1.0
  0
MLEADERSTYLE
  5
C25D
102
{ACAD_REACTORS
330
C25C
102
}
330
C25C
100
AcDbMLeaderStyle
179
     2
170
     2
171
     1
172
     0
 90
        2
 40
0.0
 41
0.0
173
     1
 91
-1056964608
340
11
 92
       -2
290
     1
 42
0.09
291
     1
 43
0.36
  3
Standard
 44
0.18
300

342
F
174
     1
178
     6
175
     1
176
     0
 93
-1056964608
 45
0.18
292
     0
297
     0
 46
0.18
 94
-1056964608
 47
1.0
 49
1.0
140
1.0
293
     1
141
0.0
294
     1
177
     0
142
1.0
295
     0
296
     0
143
0.125
271
     0
272
     9
273
     9
298
     0
  0
MLINESTYLE
  5
1B
102
{ACAD_REACTORS
330
1A
102
}
330
1A
100
AcDbMlineStyle
  2
STANDARD
 70
     0
  3

 62
   256
 51
90.0
 52
90.0
 71
     2
 49
0.5
 62
   256
  6
BYLAYER
 49
-0.5
 62
   256
  6
BYLAYER
  0
ACDBPLACEHOLDER
  5
ACB7
102
{ACAD_REACTORS
330
ACB6
102
}
330
ACB6
  0
SCALE
  5
C23B
102
{ACAD_REACTORS
330
C23A
102
}
330
C23A
100
AcDbScale
 70
     0
300
1:1
140
1.0
141
1.0
290
     1
  0
SCALE
  5
CAFE
102
{ACAD_REACTORS
330
C23A
102
}
330
C23A
100
AcDbScale
 70
     0
300
1/128" = 1'-0"
140
0.0078125
141
12.0
290
     0
  0
SCALE
  5
CAFF
102
{ACAD_REACTORS
330
C23A
102
}
330
C23A
100
AcDbScale
 70
     0
300
1/64" = 1'-0"
140
0.015625
141
12.0
290
     0
  0
SCALE
  5
CB00
102
{ACAD_REACTORS
330
C23A
102
}
330
C23A
100
AcDbScale
 70
     0
300
1/32" = 1'-0"
140
0.03125
141
12.0
290
     0
  0
SCALE
  5
CB01
102
{ACAD_REACTORS
330
C23A
102
}
330
C23A
100
AcDbScale
 70
     0
300
1/16" = 1'-0"
140
0.0625
141
12.0
290
     0
  0
SCALE
  5
CB02
102
{ACAD_REACTORS
330
C23A
102
}
330
C23A
100
AcDbScale
 70
     0
300
3/32" = 1'-0"
140
0.09375
141
12.0
290
     0
  0
SCALE
  5
CB03
102
{ACAD_REACTORS
330
C23A
102
}
330
C23A
100
AcDbScale
 70
     0
300
1/8" = 1'-0"
140
0.125
141
12.0
290
     0
  0
SCALE
  5
CB04
102
{ACAD_REACTORS
330
C23A
102
}
330
C23A
100
AcDbScale
 70
     0
300
3/16" = 1'-0"
140
0.1875
141
12.0
290
     0
  0
SCALE
  5
CB05
102
{ACAD_REACTORS
330
C23A
102
}
330
C23A
100
AcDbScale
 70
     0
300
1/4" = 1'-0"
140
0.25
141
12.0
290
     0
  0
SCALE
  5
CB06
102
{ACAD_REACTORS
330
C23A
102
}
330
C23A
100
AcDbScale
 70
     0
300
3/8" = 1'-0"
140
0.375
141
12.0
290
     0
  0
SCALE
  5
CB07
102
{ACAD_REACTORS
330
C23A
102
}
330
C23A
100
AcDbScale
 70
     0
300
1/2" = 1'-0"
140
0.5
141
12.0
290
     0
  0
SCALE
  5
CB08
102
{ACAD_REACTORS
330
C23A
102
}
330
C23A
100
AcDbScale
 70
     0
300
3/4" = 1'-0"
140
0.75
141
12.0
290
     0
  0
SCALE
  5
CB09
102
{ACAD_REACTORS
330
C23A
102
}
330
C23A
100
AcDbScale
 70
     0
300
1" = 1'-0"
140
1.0
141
12.0
290
     0
  0
SCALE
  5
CB0A
102
{ACAD_REACTORS
330
C23A
102
}
330
C23A
100
AcDbScale
 70
     0
300
1-1/2" = 1'-0"
140
1.5
141
12.0
290
     0
  0
SCALE
  5
CB0B
102
{ACAD_REACTORS
330
C23A
102
}
330
C23A
100
AcDbScale
 70
     0
300
3" = 1'-0"
140
3.0
141
12.0
290
     0
  0
SCALE
  5
CB0C
102
{ACAD_REACTORS
330
C23A
102
}
330
C23A
100
AcDbScale
 70
     0
300
6" = 1'-0"
140
6.0
141
12.0
290
     0
  0
SCALE
  5
CB0D
102
{ACAD_REACTORS
330
C23A
102
}
330
C23A
100
AcDbScale
 70
     0
300
1'-0" = 1'-0"
140
12.0
141
12.0
290
     0
  0
ACDBSECTIONVIEWSTYLE
  5
C9D0
102
{ACAD_XDICTIONARY
360
CB17
102
}
102
{ACAD_REACTORS
330
C9CF
102
}
330
C9CF
100
AcDbModelDocViewStyle
 70
     0
  3
Imperial24
290
     0
100
AcDbSectionViewStyle
 70
     0
 71
     0
 90
       78
 71
     1
340
F
 62
   256
 40
0.24
340
0
340
0
 62
   256
 40
0.24
300
I, O, Q, S, X, Z
 40
0.48
 90
        3
 40
0.18
 90
        1
 71
     2
340
13
 90
       25
 62
   256
340
13
 90
       50
 62
   256
 40
0.24
 40
0.0
 40
0.24
 71
     3
340
F
 62
   256
 40
0.24
 90
        1
 40
0.75
 90
        1
300
%<\AcVar ViewType \f "%tc1">% %<\AcVar ViewSectionStartId>%-%<\AcVar ViewSectionEndId>%\PSCALE %<\AcVar ViewScale \f "%sn">%
 71
     4
 62
   256
 62
   257
300
ANSI31
 40
1.0
 90
        0
290
     0
290
     0
 90
        6
 40
0.0
 40
1.570796326794896
 40
0.2617993877991494
 40
1.308996938995747
 40
-0.2617993877991494
 40
1.832595714594046
  0
TABLESTYLE
  5
C11A
102
{ACAD_XDICTIONARY
360
C273
102
}
102
{ACAD_REACTORS
330
C119
102
}
330
C119
100
AcDbTableStyle
280
     0
  3
Standard
 70
     0
 71
     0
 40
0.06
 41
0.06
280
     0
281
     0
  7
STANDARD
140
0.18
170
     2
 62
     0
 63
     7
283
     0
 90
        4
 91
        0
  1

274
    -2
284
     1
 64
     0
275
    -2
285
     1
 65
     0
276
    -2
286
     1
 66
     0
277
    -2
287
     1
 67
     0
278
    -2
288
     1
 68
     0
279
    -2
289
     1
 69
     0
  7
STANDARD
140
0.25
170
     5
 62
     0
 63
     7
283
     0
 90
        4
 91
        0
  1

274
    -2
284
     1
 64
     0
275
    -2
285
     1
 65
     0
276
    -2
286
     1
 66
     0
277
    -2
287
     1
 67
     0
278
    -2
288
     1
 68
     0
279
    -2
289
     1
 69
     0
  7
STANDARD
140
0.18
170
     5
 62
     0
 63
     7
283
     0
 90
        4
 91
        0
  1

274
    -2
284
     1
 64
     0
275
    -2
285
     1
 65
     0
276
    -2
286
     1
 66
     0
277
    -2
287
     1
 67
     0
278
    -2
288
     1
 68
     0
279
    -2
289
     1
 69
     0
  0
VISUALSTYLE
  5
C22F
102
{ACAD_REACTORS
330
C229
102
}
330
C229
100
AcDbVisualStyle
  2
2dWireframe
 70
     4
177
     3
291
     0
 70
    58
 90
        0
176
     1
 90
        2
176
     1
 90
        0
176
     1
 90
        0
176
     1
 40
0.6
176
     1
 40
30.0
176
     1
 62
     7
176
     1
 90
        1
176
     1
 90
        4
176
     1
 62
     7
176
     1
 62
   257
176
     1
 90
        1
176
     1
 90
        1
176
     1
 40
1.0
176
     1
 90
        0
176
     1
 62
   257
176
     1
 40
1.0
176
     1
 90
        1
176
     1
 90
        6
176
     1
 90
        2
176
     1
 62
     7
176
     1
 90
        5
176
     1
 90
        0
176
     1
 90
        0
176
     1
290
     0
176
     1
 90
        1
176
     1
 40
0.0
176
     1
 90
        0
176
     1
290
     1
176
     1
290
     1
176
     1
290
     0
176
     1
290
     0
176
     1
290
     0
176
     1
290
     0
176
     1
290
     0
176
     1
290
     0
176
     1
290
     0
176
     1
 90
       50
176
     1
 40
0.0
176
     1
 40
1.0
176
     1
 90
        0
176
     1
 62
    18
420
        0
176
     1
 90
       50
176
     1
 90
        3
176
     1
 62
     5
420
      255
176
     1
290
     0
176
     1
 90
       50
176
     1
 90
       50
176
     1
 90
       50
176
     1
290
     0
176
     1
 90
       50
176
     1
 62
   256
176
     0
 40
1.0
176
     0
 90
        2
176
     1
  1
strokes_ogs.tif
176
     1
290
     0
176
     1
 40
1.0
176
     1
 40
1.0
176
     1
  0
VISUALSTYLE
  5
C231
102
{ACAD_REACTORS
330
C229
102
}
330
C229
100
AcDbVisualStyle
  2
3D Hidden
 70
     6
177
     3
291
     0
 70
    58
 90
        1
176
     1
 90
        2
176
     1
 90
        2
176
     1
 90
        0
176
     1
 40
0.6
176
     1
 40
30.0
176
     1
 62
     7
176
     1
 90
        2
176
     1
 90
        2
176
     1
 62
     7
176
     1
 62
   257
176
     1
 90
        2
176
     1
 90
        1
176
     1
 40
40.0
176
     1
 90
        0
176
     1
 62
   257
176
     1
 40
1.0
176
     1
 90
        1
176
     1
 90
        6
176
     1
 90
        2
176
     1
 62
     7
176
     1
 90
        3
176
     1
 90
        0
176
     1
 90
        0
176
     1
290
     0
176
     1
 90
        1
176
     1
 40
0.0
176
     1
 90
        0
176
     1
290
     0
176
     1
290
     1
176
     1
290
     1
176
     1
290
     0
176
     1
290
     0
176
     1
290
     0
176
     1
290
     0
176
     1
290
     0
176
     1
290
     0
176
     1
 90
       50
176
     1
 40
0.0
176
     1
 40
1.0
176
     1
 90
        0
176
     1
 62
    18
420
        0
176
     1
 90
       50
176
     1
 90
        3
176
     1
 62
     5
420
      255
176
     1
290
     0
176
     1
 90
       50
176
     1
 90
       50
176
     1
 90
       50
176
     1
290
     0
176
     1
 90
       50
176
     1
 62
   256
176
     0
 40
1.0
176
     0
 90
        2
176
     1
  1
strokes_ogs.tif
176
     1
290
     0
176
     1
 40
1.0
176
     1
 40
1.0
176
     1
  0
VISUALSTYLE
  5
C230
102
{ACAD_REACTORS
330
C229
102
}
330
C229
100
AcDbVisualStyle
  2
3dWireframe
 70
     5
177
     3
291
     0
 70
    58
 90
        0
176
     1
 90
        2
176
     1
 90
        0
176
     1
 90
        0
176
     1
 40
0.6
176
     1
 40
30.0
176
     1
 62
     7
176
     1
 90
        1
176
     1
 90
        4
176
     1
 62
     7
176
     1
 62
   257
176
     1
 90
        1
176
     1
 90
        1
176
     1
 40
1.0
176
     1
 90
        0
176
     1
 62
   257
176
     1
 40
1.0
176
     1
 90
        1
176
     1
 90
        6
176
     1
 90
        2
176
     1
 62
     7
176
     1
 90
        5
176
     1
 90
        0
176
     1
 90
        0
176
     1
290
     0
176
     1
 90
        1
176
     1
 40
0.0
176
     1
 90
        0
176
     1
290
     0
176
     1
290
     1
176
     1
290
     1
176
     1
290
     0
176
     1
290
     0
176
     1
290
     0
176
     1
290
     0
176
     1
290
     0
176
     1
290
     0
176
     1
 90
       50
176
     1
 40
0.0
176
     1
 40
1.0
176
     1
 90
        0
176
     1
 62
    18
420
        0
176
     1
 90
       50
176
     1
 90
        3
176
     1
 62
     5
420
      255
176
     1
290
     0
176
     1
 90
       50
176
     1
 90
       50
176
     1
 90
       50
176
     1
290
     0
176
     1
 90
       50
176
     1
 62
   256
176
     0
 40
1.0
176
     0
 90
        2
176
     1
  1
strokes_ogs.tif
176
     1
290
     0
176
     1
 40
1.0
176
     1
 40
1.0
176
     1
  0
VISUALSTYLE
  5
C22E
102
{ACAD_REACTORS
330
C229
102
}
330
C229
100
AcDbVisualStyle
  2
Basic
 70
     7
177
     3
291
     1
 70
    58
 90
        1
176
     1
 90
        0
176
     1
 90
        1
176
     1
 90
        0
176
     1
 40
0.6
176
     1
 40
30.0
176
     1
 62
     7
176
     1
 90
        0
176
     1
 90
        4
176
     1
 62
     7
176
     1
 62
   257
176
     1
 90
        1
176
     1
 90
        1
176
     1
 40
1.0
176
     1
 90
        8
176
     1
 62
     7
176
     1
 40
1.0
176
     1
 90
        1
176
     1
 90
        6
176
     1
 90
        2
176
     1
 62
     7
176
     1
 90
        5
176
     1
 90
        0
176
     1
 90
        0
176
     1
290
     0
176
     1
 90
        1
176
     1
 40
0.0
176
     1
 90
        0
176
     1
290
     0
176
     1
290
     1
176
     1
290
     1
176
     1
290
     0
176
     1
290
     0
176
     1
290
     0
176
     1
290
     0
176
     1
290
     0
176
     1
290
     0
176
     1
 90
       50
176
     1
 40
0.0
176
     1
 40
1.0
176
     1
 90
        0
176
     1
 62
    18
420
        0
176
     1
 90
       50
176
     1
 90
        3
176
     1
 62
     5
420
      255
176
     1
290
     0
176
     1
 90
       50
176
     1
 90
       50
176
     1
 90
       50
176
     1
290
     0
176
     1
 90
       50
176
     1
 62
   256
176
     0
 40
1.0
176
     0
 90
        2
176
     1
  1
strokes_ogs.tif
176
     1
290
     0
176
     1
 40
1.0
176
     1
 40
1.0
176
     1
  0
VISUALSTYLE
  5
C235
102
{ACAD_REACTORS
330
C229
102
}
330
C229
100
AcDbVisualStyle
  2
Brighten
 70
    12
177
     3
291
     1
 70
    58
 90
        2
176
     1
 90
        2
176
     1
 90
        0
176
     1
 90
        0
176
     1
 40
0.6
176
     1
 40
30.0
176
     1
 62
     7
176
     1
 90
        1
176
     1
 90
        4
176
     1
 62
     7
176
     1
 62
   257
176
     1
 90
        1
176
     1
 90
        1
176
     1
 40
1.0
176
     1
 90
        8
176
     1
 62
     7
176
     1
 40
1.0
176
     1
 90
        1
176
     1
 90
        6
176
     1
 90
        2
176
     1
 62
     7
176
     1
 90
        5
176
     1
 90
        0
176
     1
 90
        0
176
     1
290
     0
176
     1
 90
        1
176
     1
 40
50.0
176
     1
 90
        0
176
     1
290
     0
176
     1
290
     1
176
     1
290
     1
176
     1
290
     0
176
     1
290
     0
176
     1
290
     0
176
     1
290
     0
176
     1
290
     0
176
     1
290
     0
176
     1
 90
       50
176
     1
 40
0.0
176
     1
 40
1.0
176
     1
 90
        0
176
     1
 62
    18
420
        0
176
     1
 90
       50
176
     1
 90
        3
176
     1
 62
     5
420
      255
176
     1
290
     0
176
     1
 90
       50
176
     1
 90
       50
176
     1
 90
       50
176
     1
290
     0
176
     1
 90
       50
176
     1
 62
   256
176
     0
 40
1.0
176
     0
 90
        2
176
     1
  1
strokes_ogs.tif
176
     1
290
     0
176
     1
 40
1.0
176
     1
 40
1.0
176
     1
  0
VISUALSTYLE
  5
C239
102
{ACAD_REACTORS
330
C229
102
}
330
C229
100
AcDbVisualStyle
  2
ColorChange
 70
    16
177
     3
291
     1
 70
    58
 90
        2
176
     1
 90
        2
176
     1
 90
        3
176
     1
 90
        0
176
     1
 40
0.6
176
     1
 40
30.0
176
     1
 62
     8
176
     1
 90
        1
176
     1
 90
        4
176
     1
 62
     7
176
     1
 62
   257
176
     1
 90
        1
176
     1
 90
        1
176
     1
 40
1.0
176
     1
 90
        8
176
     1
 62
     8
176
     1
 40
1.0
176
     1
 90
        1
176
     1
 90
        6
176
     1
 90
        2
176
     1
 62
     7
176
     1
 90
        5
176
     1
 90
        0
176
     1
 90
        0
176
     1
290
     0
176
     1
 90
        1
176
     1
 40
0.0
176
     1
 90
        0
176
     1
290
     0
176
     1
290
     1
176
     1
290
     1
176
     1
290
     0
176
     1
290
     0
176
     1
290
     0
176
     1
290
     0
176
     1
290
     0
176
     1
290
     0
176
     1
 90
       50
176
     1
 40
0.0
176
     1
 40
1.0
176
     1
 90
        0
176
     1
 62
    18
420
        0
176
     1
 90
       50
176
     1
 90
        3
176
     1
 62
     5
420
      255
176
     1
290
     0
176
     1
 90
       50
176
     1
 90
       50
176
     1
 90
       50
176
     1
290
     0
176
     1
 90
       50
176
     1
 62
   256
176
     0
 40
1.0
176
     0
 90
        2
176
     1
  1
strokes_ogs.tif
176
     1
290
     0
176
     1
 40
1.0
176
     1
 40
1.0
176
     1
  0
VISUALSTYLE
  5
C232
102
{ACAD_REACTORS
330
C229
102
}
330
C229
100
AcDbVisualStyle
  2
Conceptual
 70
     9
177
     3
291
     0
 70
    58
 90
        3
176
     1
 90
        2
176
     1
 90
        0
176
     1
 90
        0
176
     1
 40
0.6
176
     1
 40
30.0
176
     1
 62
     7
176
     1
 90
        2
176
     1
 90
        2
176
     1
 62
     7
176
     1
 62
   257
176
     1
 90
        1
176
     1
 90
        1
176
     1
 40
40.0
176
     1
 90
        8
176
     1
 62
     7
176
     1
 40
1.0
176
     1
 90
        1
176
     1
 90
        6
176
     1
 90
        2
176
     1
 62
     7
176
     1
 90
        3
176
     1
 90
        0
176
     1
 90
        0
176
     1
290
     0
176
     1
 90
        1
176
     1
 40
0.0
176
     1
 90
        0
176
     1
290
     0
176
     1
290
     1
176
     1
290
     1
176
     1
290
     0
176
     1
290
     0
176
     1
290
     0
176
     1
290
     0
176
     1
290
     0
176
     1
290
     0
176
     1
 90
       50
176
     1
 40
0.0
176
     1
 40
1.0
176
     1
 90
        0
176
     1
 62
    18
420
        0
176
     1
 90
       50
176
     1
 90
        3
176
     1
 62
     5
420
      255
176
     1
290
     0
176
     1
 90
       50
176
     1
 90
       50
176
     1
 90
       50
176
     1
290
     0
176
     1
 90
       50
176
     1
 62
   256
176
     0
 40
1.0
176
     0
 90
        2
176
     1
  1
strokes_ogs.tif
176
     1
290
     0
176
     1
 40
1.0
176
     1
 40
1.0
176
     1
  0
VISUALSTYLE
  5
C234
102
{ACAD_REACTORS
330
C229
102
}
330
C229
100
AcDbVisualStyle
  2
Dim
 70
    11
177
     3
291
     1
 70
    58
 90
        2
176
     1
 90
        2
176
     1
 90
        0
176
     1
 90
        0
176
     1
 40
0.6
176
     1
 40
30.0
176
     1
 62
     7
176
     1
 90
        1
176
     1
 90
        4
176
     1
 62
     7
176
     1
 62
   257
176
     1
 90
        1
176
     1
 90
        1
176
     1
 40
1.0
176
     1
 90
        8
176
     1
 62
     7
176
     1
 40
1.0
176
     1
 90
        1
176
     1
 90
        6
176
     1
 90
        2
176
     1
 62
     7
176
     1
 90
        5
176
     1
 90
        0
176
     1
 90
        0
176
     1
290
     0
176
     1
 90
        1
176
     1
 40
-50.0
176
     1
 90
        0
176
     1
290
     0
176
     1
290
     1
176
     1
290
     1
176
     1
290
     0
176
     1
290
     0
176
     1
290
     0
176
     1
290
     0
176
     1
290
     0
176
     1
290
     0
176
     1
 90
       50
176
     1
 40
0.0
176
     1
 40
1.0
176
     1
 90
        0
176
     1
 62
    18
420
        0
176
     1
 90
       50
176
     1
 90
        3
176
     1
 62
     5
420
      255
176
     1
290
     0
176
     1
 90
       50
176
     1
 90
       50
176
     1
 90
       50
176
     1
290
     0
176
     1
 90
       50
176
     1
 62
   256
176
     0
 40
1.0
176
     0
 90
        2
176
     1
  1
strokes_ogs.tif
176
     1
290
     0
176
     1
 40
1.0
176
     1
 40
1.0
176
     1
  0
VISUALSTYLE
  5
C298
102
{ACAD_REACTORS
330
C229
102
}
330
C229
100
AcDbVisualStyle
  2
EdgeColorOff
 70
    22
177
     3
291
     1
 70
    58
 90
        2
176
     0
 90
        2
176
     0
 90
        0
176
     0
 90
        0
176
     0
 40
0.6
176
     0
 40
30.0
176
     0
 62
     7
176
     0
 90
        1
176
     0
 90
        4
176
     0
 62
     7
176
     0
 62
   257
176
     0
 90
        1
176
     0
 90
        1
176
     0
 40
1.0
176
     0
 90
        8
176
     2
 62
     7
176
     0
 40
1.0
176
     0
 90
        1
176
     0
 90
        6
176
     0
 90
        2
176
     0
 62
     7
176
     0
 90
        5
176
     0
 90
        0
176
     0
 90
        0
176
     0
290
     0
176
     0
 90
        1
176
     0
 40
0.0
176
     0
 90
        0
176
     0
290
     0
176
     1
290
     1
176
     1
290
     1
176
     1
290
     0
176
     1
290
     0
176
     1
290
     0
176
     1
290
     0
176
     1
290
     0
176
     1
290
     0
176
     1
 90
       50
176
     1
 40
0.0
176
     1
 40
1.0
176
     1
 90
        0
176
     1
 62
    18
420
        0
176
     1
 90
       50
176
     1
 90
        3
176
     1
 62
     5
420
      255
176
     1
290
     0
176
     1
 90
       50
176
     1
 90
       50
176
     1
 90
       50
176
     1
290
     0
176
     1
 90
       50
176
     1
 62
   256
176
     0
 40
1.0
176
     0
 90
        2
176
     1
  1
strokes_ogs.tif
176
     1
290
     0
176
     1
 40
1.0
176
     1
 40
1.0
176
     1
  0
VISUALSTYLE
  5
C238
102
{ACAD_REACTORS
330
C229
102
}
330
C229
100
AcDbVisualStyle
  2
Facepattern
 70
    15
177
     3
291
     1
 70
    58
 90
        2
176
     1
 90
        2
176
     1
 90
        0
176
     1
 90
        0
176
     1
 40
0.6
176
     1
 40
30.0
176
     1
 62
     7
176
     1
 90
        1
176
     1
 90
        4
176
     1
 62
     7
176
     1
 62
   257
176
     1
 90
        1
176
     1
 90
        1
176
     1
 40
1.0
176
     1
 90
        8
176
     1
 62
     7
176
     1
 40
1.0
176
     1
 90
        1
176
     1
 90
        6
176
     1
 90
        2
176
     1
 62
     7
176
     1
 90
        5
176
     1
 90
        0
176
     1
 90
        0
176
     1
290
     0
176
     1
 90
        1
176
     1
 40
0.0
176
     1
 90
        0
176
     1
290
     0
176
     1
290
     1
176
     1
290
     1
176
     1
290
     0
176
     1
290
     0
176
     1
290
     0
176
     1
290
     0
176
     1
290
     0
176
     1
290
     0
176
     1
 90
       50
176
     1
 40
0.0
176
     1
 40
1.0
176
     1
 90
        0
176
     1
 62
    18
420
        0
176
     1
 90
       50
176
     1
 90
        3
176
     1
 62
     5
420
      255
176
     1
290
     0
176
     1
 90
       50
176
     1
 90
       50
176
     1
 90
       50
176
     1
290
     0
176
     1
 90
       50
176
     1
 62
   256
176
     0
 40
1.0
176
     0
 90
        2
176
     1
  1
strokes_ogs.tif
176
     1
290
     0
176
     1
 40
1.0
176
     1
 40
1.0
176
     1
  0
VISUALSTYLE
  5
C22A
102
{ACAD_REACTORS
330
C229
102
}
330
C229
100
AcDbVisualStyle
  2
Flat
 70
     0
177
     3
291
     1
 70
    58
 90
        2
176
     1
 90
        1
176
     1
 90
        1
176
     1
 90
        2
176
     1
 40
0.6
176
     1
 40
30.0
176
     1
 62
     7
176
     1
 90
        0
176
     1
 90
        4
176
     1
 62
     7
176
     1
 62
   257
176
     1
 90
        1
176
     1
 90
        1
176
     1
 40
1.0
176
     1
 90
        8
176
     1
 62
     7
176
     1
 40
1.0
176
     1
 90
        1
176
     1
 90
        6
176
     1
 90
        2
176
     1
 62
     7
176
     1
 90
        5
176
     1
 90
        0
176
     1
 90
        0
176
     1
290
     0
176
     1
 90
       13
176
     1
 40
0.0
176
     1
 90
        0
176
     1
290
     0
176
     1
290
     1
176
     1
290
     1
176
     1
290
     0
176
     1
290
     0
176
     1
290
     0
176
     1
290
     0
176
     1
290
     0
176
     1
290
     0
176
     1
 90
       50
176
     1
 40
0.0
176
     1
 40
1.0
176
     1
 90
        0
176
     1
 62
    18
420
        0
176
     1
 90
       50
176
     1
 90
        3
176
     1
 62
     5
420
      255
176
     1
290
     0
176
     1
 90
       50
176
     1
 90
       50
176
     1
 90
       50
176
     1
290
     0
176
     1
 90
       50
176
     1
 62
   256
176
     0
 40
1.0
176
     0
 90
        2
176
     1
  1
strokes_ogs.tif
176
     1
290
     0
176
     1
 40
1.0
176
     1
 40
1.0
176
     1
  0
VISUALSTYLE
  5
C22B
102
{ACAD_REACTORS
330
C229
102
}
330
C229
100
AcDbVisualStyle
  2
FlatWithEdges
 70
     1
177
     3
291
     1
 70
    58
 90
        2
176
     1
 90
        1
176
     1
 90
        1
176
     1
 90
        2
176
     1
 40
0.6
176
     1
 40
30.0
176
     1
 62
     7
176
     1
 90
        1
176
     1
 90
        4
176
     1
 62
     7
176
     1
 62
   257
176
     1
 90
        1
176
     1
 90
        1
176
     1
 40
1.0
176
     1
 90
        0
176
     1
 62
   257
176
     1
 40
1.0
176
     1
 90
        1
176
     1
 90
        6
176
     1
 90
        2
176
     1
 62
     7
176
     1
 90
        5
176
     1
 90
        0
176
     1
 90
        0
176
     1
290
     0
176
     1
 90
       13
176
     1
 40
0.0
176
     1
 90
        0
176
     1
290
     0
176
     1
290
     1
176
     1
290
     1
176
     1
290
     0
176
     1
290
     0
176
     1
290
     0
176
     1
290
     0
176
     1
290
     0
176
     1
290
     0
176
     1
 90
       50
176
     1
 40
0.0
176
     1
 40
1.0
176
     1
 90
        0
176
     1
 62
    18
420
        0
176
     1
 90
       50
176
     1
 90
        3
176
     1
 62
     5
420
      255
176
     1
290
     0
176
     1
 90
       50
176
     1
 90
       50
176
     1
 90
       50
176
     1
290
     0
176
     1
 90
       50
176
     1
 62
   256
176
     0
 40
1.0
176
     0
 90
        2
176
     1
  1
strokes_ogs.tif
176
     1
290
     0
176
     1
 40
1.0
176
     1
 40
1.0
176
     1
  0
VISUALSTYLE
  5
C22C
102
{ACAD_REACTORS
330
C229
102
}
330
C229
100
AcDbVisualStyle
  2
Gouraud
 70
     2
177
     3
291
     1
 70
    58
 90
        2
176
     1
 90
        2
176
     1
 90
        1
176
     1
 90
        2
176
     1
 40
0.6
176
     1
 40
30.0
176
     1
 62
     7
176
     1
 90
        0
176
     1
 90
        4
176
     1
 62
     7
176
     1
 62
   257
176
     1
 90
        1
176
     1
 90
        1
176
     1
 40
1.0
176
     1
 90
        0
176
     1
 62
     7
176
     1
 40
1.0
176
     1
 90
        1
176
     1
 90
        6
176
     1
 90
        2
176
     1
 62
     7
176
     1
 90
        5
176
     1
 90
        0
176
     1
 90
        0
176
     1
290
     0
176
     1
 90
       13
176
     1
 40
0.0
176
     1
 90
        0
176
     1
290
     0
176
     1
290
     1
176
     1
290
     1
176
     1
290
     0
176
     1
290
     0
176
     1
290
     0
176
     1
290
     0
176
     1
290
     0
176
     1
290
     0
176
     1
 90
       50
176
     1
 40
0.0
176
     1
 40
1.0
176
     1
 90
        0
176
     1
 62
    18
420
        0
176
     1
 90
       50
176
     1
 90
        3
176
     1
 62
     5
420
      255
176
     1
290
     0
176
     1
 90
       50
176
     1
 90
       50
176
     1
 90
       50
176
     1
290
     0
176
     1
 90
       50
176
     1
 62
   256
176
     0
 40
1.0
176
     0
 90
        2
176
     1
  1
strokes_ogs.tif
176
     1
290
     0
176
     1
 40
1.0
176
     1
 40
1.0
176
     1
  0
VISUALSTYLE
  5
C22D
102
{ACAD_REACTORS
330
C229
102
}
330
C229
100
AcDbVisualStyle
  2
GouraudWithEdges
 70
     3
177
     3
291
     1
 70
    58
 90
        2
176
     1
 90
        2
176
     1
 90
        1
176
     1
 90
        2
176
     1
 40
0.6
176
     1
 40
30.0
176
     1
 62
     7
176
     1
 90
        1
176
     1
 90
        4
176
     1
 62
     7
176
     1
 62
   257
176
     1
 90
        1
176
     1
 90
        1
176
     1
 40
1.0
176
     1
 90
        0
176
     1
 62
   257
176
     1
 40
1.0
176
     1
 90
        1
176
     1
 90
        6
176
     1
 90
        2
176
     1
 62
     7
176
     1
 90
        5
176
     1
 90
        0
176
     1
 90
        0
176
     1
290
     0
176
     1
 90
       13
176
     1
 40
0.0
176
     1
 90
        0
176
     1
290
     0
176
     1
290
     1
176
     1
290
     1
176
     1
290
     0
176
     1
290
     0
176
     1
290
     0
176
     1
290
     0
176
     1
290
     0
176
     1
290
     0
176
     1
 90
       50
176
     1
 40
0.0
176
     1
 40
1.0
176
     1
 90
        0
176
     1
 62
    18
420
        0
176
     1
 90
       50
176
     1
 90
        3
176
     1
 62
     5
420
      255
176
     1
290
     0
176
     1
 90
       50
176
     1
 90
       50
176
     1
 90
       50
176
     1
290
     0
176
     1
 90
       50
176
     1
 62
   256
176
     0
 40
1.0
176
     0
 90
        2
176
     1
  1
strokes_ogs.tif
176
     1
290
     0
176
     1
 40
1.0
176
     1
 40
1.0
176
     1
  0
VISUALSTYLE
  5
C290
102
{ACAD_REACTORS
330
C229
102
}
330
C229
100
AcDbVisualStyle
  2
Hidden
 70
     6
177
     3
291
     0
 70
    58
 90
        1
176
     1
 90
        2
176
     1
 90
        2
176
     1
 90
        0
176
     1
 40
0.6
176
     1
 40
30.0
176
     1
 62
     7
176
     1
 90
        2
176
     1
 90
        2
176
     1
 62
     7
176
     1
 62
   257
176
     1
 90
        2
176
     1
 90
        1
176
     1
 40
40.0
176
     1
 90
        0
176
     1
 62
   257
176
     1
 40
1.0
176
     1
 90
        1
176
     1
 90
        6
176
     1
 90
        2
176
     1
 62
     7
176
     1
 90
        3
176
     1
 90
        0
176
     1
 90
        0
176
     1
290
     0
176
     1
 90
        1
176
     1
 40
0.0
176
     1
 90
        0
176
     1
290
     0
176
     1
290
     1
176
     1
290
     1
176
     1
290
     0
176
     1
290
     0
176
     1
290
     0
176
     1
290
     0
176
     1
290
     0
176
     1
290
     0
176
     1
 90
       50
176
     1
 40
0.0
176
     1
 40
1.0
176
     1
 90
        0
176
     1
 62
    18
420
        0
176
     1
 90
       50
176
     1
 90
        3
176
     1
 62
     5
420
      255
176
     1
290
     0
176
     1
 90
       50
176
     1
 90
       50
176
     1
 90
       50
176
     1
290
     0
176
     1
 90
       50
176
     1
 62
   256
176
     0
 40
1.0
176
     0
 90
        2
176
     1
  1
strokes_ogs.tif
176
     1
290
     0
176
     1
 40
1.0
176
     1
 40
1.0
176
     1
  0
VISUALSTYLE
  5
C296
102
{ACAD_REACTORS
330
C229
102
}
330
C229
100
AcDbVisualStyle
  2
JitterOff
 70
    20
177
     3
291
     1
 70
    58
 90
        2
176
     0
 90
        2
176
     0
 90
        0
176
     0
 90
        0
176
     0
 40
0.6
176
     0
 40
30.0
176
     0
 62
     7
176
     0
 90
        1
176
     0
 90
        4
176
     0
 62
     7
176
     0
 62
   257
176
     0
 90
        1
176
     0
 90
        1
176
     0
 40
1.0
176
     0
 90
       10
176
     2
 62
     7
176
     0
 40
1.0
176
     0
 90
        1
176
     0
 90
        6
176
     0
 90
        2
176
     0
 62
     7
176
     0
 90
        5
176
     0
 90
        0
176
     0
 90
        0
176
     0
290
     0
176
     0
 90
        1
176
     0
 40
0.0
176
     0
 90
        0
176
     0
290
     0
176
     1
290
     1
176
     1
290
     1
176
     1
290
     0
176
     1
290
     0
176
     1
290
     0
176
     1
290
     0
176
     1
290
     0
176
     1
290
     0
176
     1
 90
       50
176
     1
 40
0.0
176
     1
 40
1.0
176
     1
 90
        0
176
     1
 62
    18
420
        0
176
     1
 90
       50
176
     1
 90
        3
176
     1
 62
     5
420
      255
176
     1
290
     0
176
     1
 90
       50
176
     1
 90
       50
176
     1
 90
       50
176
     1
290
     0
176
     1
 90
       50
176
     1
 62
   256
176
     0
 40
1.0
176
     0
 90
        2
176
     1
  1
strokes_ogs.tif
176
     1
290
     0
176
     1
 40
1.0
176
     1
 40
1.0
176
     1
  0
VISUALSTYLE
  5
C237
102
{ACAD_REACTORS
330
C229
102
}
330
C229
100
AcDbVisualStyle
  2
Linepattern
 70
    14
177
     3
291
     1
 70
    58
 90
        2
176
     1
 90
        2
176
     1
 90
        0
176
     1
 90
        0
176
     1
 40
0.6
176
     1
 40
30.0
176
     1
 62
     7
176
     1
 90
        1
176
     1
 90
        4
176
     1
 62
     7
176
     1
 62
   257
176
     1
 90
        7
176
     1
 90
        7
176
     1
 40
1.0
176
     1
 90
        8
176
     1
 62
     7
176
     1
 40
1.0
176
     1
 90
        1
176
     1
 90
        6
176
     1
 90
        2
176
     1
 62
     7
176
     1
 90
        5
176
     1
 90
        0
176
     1
 90
        0
176
     1
290
     0
176
     1
 90
        1
176
     1
 40
0.0
176
     1
 90
        0
176
     1
290
     0
176
     1
290
     1
176
     1
290
     1
176
     1
290
     0
176
     1
290
     0
176
     1
290
     0
176
     1
290
     0
176
     1
290
     0
176
     1
290
     0
176
     1
 90
       50
176
     1
 40
0.0
176
     1
 40
1.0
176
     1
 90
        0
176
     1
 62
    18
420
        0
176
     1
 90
       50
176
     1
 90
        3
176
     1
 62
     5
420
      255
176
     1
290
     0
176
     1
 90
       50
176
     1
 90
       50
176
     1
 90
       50
176
     1
290
     0
176
     1
 90
       50
176
     1
 62
   256
176
     0
 40
1.0
176
     0
 90
        2
176
     1
  1
strokes_ogs.tif
176
     1
290
     0
176
     1
 40
1.0
176
     1
 40
1.0
176
     1
  0
VISUALSTYLE
  5
C297
102
{ACAD_REACTORS
330
C229
102
}
330
C229
100
AcDbVisualStyle
  2
OverhangOff
 70
    21
177
     3
291
     1
 70
    58
 90
        2
176
     0
 90
        2
176
     0
 90
        0
176
     0
 90
        0
176
     0
 40
0.6
176
     0
 40
30.0
176
     0
 62
     7
176
     0
 90
        1
176
     0
 90
        4
176
     0
 62
     7
176
     0
 62
   257
176
     0
 90
        1
176
     0
 90
        1
176
     0
 40
1.0
176
     0
 90
        9
176
     2
 62
     7
176
     0
 40
1.0
176
     0
 90
        1
176
     0
 90
        6
176
     0
 90
        2
176
     0
 62
     7
176
     0
 90
        5
176
     0
 90
        0
176
     0
 90
        0
176
     0
290
     0
176
     0
 90
        1
176
     0
 40
0.0
176
     0
 90
        0
176
     0
290
     0
176
     1
290
     1
176
     1
290
     1
176
     1
290
     0
176
     1
290
     0
176
     1
290
     0
176
     1
290
     0
176
     1
290
     0
176
     1
290
     0
176
     1
 90
       50
176
     1
 40
0.0
176
     1
 40
1.0
176
     1
 90
        0
176
     1
 62
    18
420
        0
176
     1
 90
       50
176
     1
 90
        3
176
     1
 62
     5
420
      255
176
     1
290
     0
176
     1
 90
       50
176
     1
 90
       50
176
     1
 90
       50
176
     1
290
     0
176
     1
 90
       50
176
     1
 62
   256
176
     0
 40
1.0
176
     0
 90
        2
176
     1
  1
strokes_ogs.tif
176
     1
290
     0
176
     1
 40
1.0
176
     1
 40
1.0
176
     1
  0
VISUALSTYLE
  5
C233
102
{ACAD_REACTORS
330
C229
102
}
330
C229
100
AcDbVisualStyle
  2
Realistic
 70
     8
177
     3
291
     0
 70
    58
 90
        2
176
     1
 90
        2
176
     1
 90
        0
176
     1
 90
        0
176
     1
 40
0.6
176
     1
 40
30.0
176
     1
 62
     7
176
     1
 90
        1
176
     1
 90
        0
176
     1
 62
     7
176
     1
 62
   257
176
     1
 90
        1
176
     1
 90
        1
176
     1
 40
1.0
176
     1
 90
        8
176
     1
 62
     8
176
     1
 40
1.0
176
     1
 90
        1
176
     1
 90
        6
176
     1
 90
        2
176
     1
 62
     7
176
     1
 90
        5
176
     1
 90
        0
176
     1
 90
        0
176
     1
290
     0
176
     1
 90
       13
176
     1
 40
0.0
176
     1
 90
        0
176
     1
290
     0
176
     1
290
     1
176
     1
290
     1
176
     1
290
     0
176
     1
290
     0
176
     1
290
     0
176
     1
290
     0
176
     1
290
     0
176
     1
290
     0
176
     1
 90
       50
176
     1
 40
0.0
176
     1
 40
1.0
176
     1
 90
        0
176
     1
 62
    18
420
        0
176
     1
 90
       50
176
     1
 90
        3
176
     1
 62
     5
420
      255
176
     1
290
     0
176
     1
 90
       50
176
     1
 90
       50
176
     1
 90
       50
176
     1
290
     0
176
     1
 90
       50
176
     1
 62
   256
176
     0
 40
1.0
176
     0
 90
        2
176
     1
  1
strokes_ogs.tif
176
     1
290
     0
176
     1
 40
1.0
176
     1
 40
1.0
176
     1
  0
VISUALSTYLE
  5
C295
102
{ACAD_REACTORS
330
C229
102
}
330
C229
100
AcDbVisualStyle
  2
Shaded
 70
    27
177
     3
291
     0
 70
    58
 90
        2
176
     1
 90
        2
176
     1
 90
        1
176
     1
 90
        2
176
     1
 40
0.6
176
     1
 40
30.0
176
     1
 62
     7
176
     1
 90
        0
176
     1
 90
        4
176
     1
 62
     7
176
     1
 62
   257
176
     1
 90
        1
176
     1
 90
        1
176
     1
 40
1.0
176
     1
 90
        8
176
     1
 62
   257
176
     1
 40
1.0
176
     1
 90
        1
176
     1
 90
        6
176
     1
 90
        2
176
     1
 62
     8
176
     1
 90
        3
176
     1
 90
        0
176
     1
 90
        0
176
     1
290
     0
176
     1
 90
        5
176
     1
 40
0.0
176
     1
 90
        0
176
     1
290
     0
176
     1
290
     1
176
     1
290
     1
176
     1
290
     0
176
     1
290
     0
176
     1
290
     0
176
     1
290
     0
176
     1
290
     0
176
     1
290
     0
176
     1
 90
       50
176
     1
 40
0.0
176
     1
 40
1.0
176
     1
 90
        0
176
     1
 62
    18
420
        0
176
     1
 90
       50
176
     1
 90
        3
176
     1
 62
     5
420
      255
176
     1
290
     0
176
     1
 90
       50
176
     1
 90
       50
176
     1
 90
       50
176
     1
290
     0
176
     1
 90
       50
176
     1
 62
   256
176
     0
 40
1.0
176
     0
 90
        2
176
     1
  1
strokes_ogs.tif
176
     1
290
     0
176
     1
 40
1.0
176
     1
 40
1.0
176
     1
  0
VISUALSTYLE
  5
C294
102
{ACAD_REACTORS
330
C229
102
}
330
C229
100
AcDbVisualStyle
  2
Shaded with edges
 70
    26
177
     3
291
     0
 70
    58
 90
        2
176
     1
 90
        2
176
     1
 90
        1
176
     1
 90
        2
176
     1
 40
0.6
176
     1
 40
30.0
176
     1
 62
     7
176
     1
 90
        1
176
     1
 90
       10
176
     1
 62
     7
176
     1
 62
   257
176
     1
 90
        2
176
     1
 90
        1
176
     1
 40
1.0
176
     1
 90
        8
176
     1
 62
   257
176
     1
 40
1.0
176
     1
 90
        1
176
     1
 90
        6
176
     1
 90
        2
176
     1
 62
     7
176
     1
 90
        3
176
     1
 90
        0
176
     1
 90
        0
176
     1
290
     0
176
     1
 90
        5
176
     1
 40
0.0
176
     1
 90
        0
176
     1
290
     0
176
     1
290
     1
176
     1
290
     1
176
     1
290
     0
176
     1
290
     0
176
     1
290
     0
176
     1
290
     0
176
     1
290
     0
176
     1
290
     0
176
     1
 90
       50
176
     1
 40
0.0
176
     1
 40
1.0
176
     1
 90
        0
176
     1
 62
    18
420
        0
176
     1
 90
       50
176
     1
 90
        3
176
     1
 62
     5
420
      255
176
     1
290
     0
176
     1
 90
       50
176
     1
 90
       50
176
     1
 90
       50
176
     1
290
     0
176
     1
 90
       50
176
     1
 62
   256
176
     0
 40
1.0
176
     0
 90
        2
176
     1
  1
strokes_ogs.tif
176
     1
290
     0
176
     1
 40
1.0
176
     1
 40
1.0
176
     1
  0
VISUALSTYLE
  5
C291
102
{ACAD_REACTORS
330
C229
102
}
330
C229
100
AcDbVisualStyle
  2
Shades of Gray
 70
    23
177
     3
291
     0
 70
    58
 90
        2
176
     1
 90
        2
176
     1
 90
        3
176
     1
 90
        0
176
     1
 40
0.6
176
     1
 40
30.0
176
     1
 62
     7
176
     1
 90
        2
176
     1
 90
        2
176
     1
 62
     7
176
     1
 62
     7
176
     1
 90
        1
176
     1
 90
        1
176
     1
 40
40.0
176
     1
 90
        8
176
     1
 62
     7
176
     1
 40
1.0
176
     1
 90
        1
176
     1
 90
        6
176
     1
 90
        2
176
     1
 62
     7
176
     1
 90
        3
176
     1
 90
        0
176
     1
 90
        0
176
     1
290
     0
176
     1
 90
        1
176
     1
 40
0.0
176
     1
 90
        0
176
     1
290
     0
176
     1
290
     1
176
     1
290
     1
176
     1
290
     0
176
     1
290
     0
176
     1
290
     0
176
     1
290
     0
176
     1
290
     0
176
     1
290
     0
176
     1
 90
       50
176
     1
 40
0.0
176
     1
 40
1.0
176
     1
 90
        0
176
     1
 62
    18
420
        0
176
     1
 90
       50
176
     1
 90
        3
176
     1
 62
     5
420
      255
176
     1
290
     0
176
     1
 90
       50
176
     1
 90
       50
176
     1
 90
       50
176
     1
290
     0
176
     1
 90
       50
176
     1
 62
   256
176
     0
 40
1.0
176
     0
 90
        2
176
     1
  1
strokes_ogs.tif
176
     1
290
     0
176
     1
 40
1.0
176
     1
 40
1.0
176
     1
  0
VISUALSTYLE
  5
C292
102
{ACAD_REACTORS
330
C229
102
}
330
C229
100
AcDbVisualStyle
  2
Sketchy
 70
    24
177
     3
291
     0
 70
    58
 90
        1
176
     1
 90
        2
176
     1
 90
        2
176
     1
 90
        0
176
     1
 40
0.6
176
     1
 40
30.0
176
     1
 62
     7
176
     1
 90
        2
176
     1
 90
        2
176
     1
 62
     7
176
     1
 62
     7
176
     1
 90
        1
176
     1
 90
        1
176
     1
 40
40.0
176
     1
 90
       11
176
     1
 62
     7
176
     1
 40
1.0
176
     1
 90
        1
176
     1
 90
        6
176
     1
 90
        2
176
     1
 62
     7
176
     1
 90
        6
176
     1
 90
        0
176
     1
 90
        0
176
     1
290
     0
176
     1
 90
        1
176
     1
 40
0.0
176
     1
 90
        0
176
     1
290
     0
176
     1
290
     1
176
     1
290
     1
176
     1
290
     0
176
     1
290
     0
176
     1
290
     0
176
     1
290
     0
176
     1
290
     0
176
     1
290
     0
176
     1
 90
       50
176
     1
 40
0.0
176
     1
 40
1.0
176
     1
 90
        0
176
     1
 62
    18
420
        0
176
     1
 90
       50
176
     1
 90
        3
176
     1
 62
     5
420
      255
176
     1
290
     0
176
     1
 90
       50
176
     1
 90
       50
176
     1
 90
       50
176
     1
290
     0
176
     1
 90
       50
176
     1
 62
   256
176
     0
 40
1.0
176
     0
 90
        2
176
     1
  1
strokes_ogs.tif
176
     1
290
     0
176
     1
 40
1.0
176
     1
 40
1.0
176
     1
  0
VISUALSTYLE
  5
C236
102
{ACAD_REACTORS
330
C229
102
}
330
C229
100
AcDbVisualStyle
  2
Thicken
 70
    13
177
     3
291
     1
 70
    58
 90
        2
176
     1
 90
        2
176
     1
 90
        0
176
     1
 90
        0
176
     1
 40
0.6
176
     1
 40
30.0
176
     1
 62
     7
176
     1
 90
        1
176
     1
 90
        4
176
     1
 62
     7
176
     1
 62
   257
176
     1
 90
        1
176
     1
 90
        1
176
     1
 40
1.0
176
     1
 90
       12
176
     1
 62
     7
176
     1
 40
1.0
176
     1
 90
        1
176
     1
 90
        6
176
     1
 90
        2
176
     1
 62
     7
176
     1
 90
        5
176
     1
 90
        0
176
     1
 90
        0
176
     1
290
     0
176
     1
 90
        1
176
     1
 40
0.0
176
     1
 90
        0
176
     1
290
     0
176
     1
290
     1
176
     1
290
     1
176
     1
290
     0
176
     1
290
     0
176
     1
290
     0
176
     1
290
     0
176
     1
290
     0
176
     1
290
     0
176
     1
 90
       50
176
     1
 40
0.0
176
     1
 40
1.0
176
     1
 90
        0
176
     1
 62
    18
420
        0
176
     1
 90
       50
176
     1
 90
        3
176
     1
 62
     5
420
      255
176
     1
290
     0
176
     1
 90
       50
176
     1
 90
       50
176
     1
 90
       50
176
     1
290
     0
176
     1
 90
       50
176
     1
 62
   256
176
     0
 40
1.0
176
     0
 90
        2
176
     1
  1
strokes_ogs.tif
176
     1
290
     0
176
     1
 40
1.0
176
     1
 40
1.0
176
     1
  0
VISUALSTYLE
  5
C28F
102
{ACAD_REACTORS
330
C229
102
}
330
C229
100
AcDbVisualStyle
  2
Wireframe
 70
     5
177
     3
291
     0
 70
    58
 90
        0
176
     1
 90
        2
176
     1
 90
        0
176
     1
 90
        0
176
     1
 40
0.6
176
     1
 40
30.0
176
     1
 62
     7
176
     1
 90
        1
176
     1
 90
        4
176
     1
 62
     7
176
     1
 62
   257
176
     1
 90
        1
176
     1
 90
        1
176
     1
 40
1.0
176
     1
 90
        0
176
     1
 62
   257
176
     1
 40
1.0
176
     1
 90
        1
176
     1
 90
        6
176
     1
 90
        2
176
     1
 62
     7
176
     1
 90
        3
176
     1
 90
        0
176
     1
 90
        0
176
     1
290
     0
176
     1
 90
        1
176
     1
 40
0.0
176
     1
 90
        0
176
     1
290
     0
176
     1
290
     1
176
     1
290
     1
176
     1
290
     0
176
     1
290
     0
176
     1
290
     0
176
     1
290
     0
176
     1
290
     0
176
     1
290
     0
176
     1
 90
       50
176
     1
 40
0.0
176
     1
 40
1.0
176
     1
 90
        0
176
     1
 62
    18
420
        0
176
     1
 90
       50
176
     1
 90
        3
176
     1
 62
     5
420
      255
176
     1
290
     0
176
     1
 90
       50
176
     1
 90
       50
176
     1
 90
       50
176
     1
290
     0
176
     1
 90
       50
176
     1
 62
   256
176
     0
 40
1.0
176
     0
 90
        2
176
     1
  1
strokes_ogs.tif
176
     1
290
     0
176
     1
 40
1.0
176
     1
 40
1.0
176
     1
  0
VISUALSTYLE
  5
C293
102
{ACAD_REACTORS
330
C229
102
}
330
C229
100
AcDbVisualStyle
  2
X-Ray
 70
    25
177
     3
291
     0
 70
    58
 90
        2
176
     1
 90
        2
176
     1
 90
        1
176
     1
 90
        1
176
     1
 40
0.5
176
     1
 40
30.0
176
     1
 62
     7
176
     1
 90
        1
176
     1
 90
        0
176
     1
 62
     7
176
     1
 62
   257
176
     1
 90
        1
176
     1
 90
        1
176
     1
 40
1.0
176
     1
 90
        8
176
     1
 62
     7
176
     1
 40
1.0
176
     1
 90
        1
176
     1
 90
        6
176
     1
 90
        2
176
     1
 62
     7
176
     1
 90
        3
176
     1
 90
        0
176
     1
 90
        0
176
     1
290
     0
176
     1
 90
       13
176
     1
 40
0.0
176
     1
 90
        0
176
     1
290
     0
176
     1
290
     1
176
     1
290
     1
176
     1
290
     0
176
     1
290
     0
176
     1
290
     0
176
     1
290
     0
176
     1
290
     0
176
     1
290
     0
176
     1
 90
       50
176
     1
 40
0.0
176
     1
 40
1.0
176
     1
 90
        0
176
     1
 62
    18
420
        0
176
     1
 90
       50
176
     1
 90
        3
176
     1
 62
     5
420
      255
176
     1
290
     0
176
     1
 90
       50
176
     1
 90
       50
176
     1
 90
       50
176
     1
290
     0
176
     1
 90
       50
176
     1
 62
   256
176
     0
 40
1.0
176
     0
 90
        2
176
     1
  1
strokes_ogs.tif
176
     1
290
     0
176
     1
 40
1.0
176
     1
 40
1.0
176
     1
  0
DICTIONARYVAR
  5
C28B
102
{ACAD_REACTORS
330
3E
102
}
330
3E
100
DictionaryVariables
280
     0
  1
1:1
  0
DICTIONARYVAR
  5
C28A
102
{ACAD_REACTORS
330
3E
102
}
330
3E
100
DictionaryVariables
280
     0
  1
STANDARD
  0
DICTIONARYVAR
  5
C146
102
{ACAD_REACTORS
330
3E
102
}
330
3E
100
DictionaryVariables
280
     0
  1
STANDARD
  0
DICTIONARYVAR
  5
CA2F
102
{ACAD_REACTORS
330
3E
102
}
330
3E
100
DictionaryVariables
280
     0
  1
Imperial24
  0
DICTIONARYVAR
  5
CA30
102
{ACAD_REACTORS
330
3E
102
}
330
3E
100
DictionaryVariables
280
     0
  1
Imperial24
  0
DICTIONARYVAR
  5
3F
102
{ACAD_REACTORS
330
3E
102
}
330
3E
100
DictionaryVariables
280
     0
  1
0
  0
DICTIONARYVAR
  5
C216
102
{ACAD_REACTORS
330
3E
102
}
330
3E
100
DictionaryVariables
280
     0
  1
1
  0
DICTIONARYVAR
  5
C28D
102
{ACAD_REACTORS
330
3E
102
}
330
3E
100
DictionaryVariables
280
     0
  1
0
  0
DICTIONARYVAR
  5
C41D
102
{ACAD_REACTORS
330
3E
102
}
330
3E
100
DictionaryVariables
280
     0
  1
1
  0
DICTIONARYVAR
  5
C41E
102
{ACAD_REACTORS
330
3E
102
}
330
3E
100
DictionaryVariables
280
     0
  1
15
  0
DICTIONARYVAR
  5
C41C
102
{ACAD_REACTORS
330
3E
102
}
330
3E
100
DictionaryVariables
280
     0
  1
0
  0
DICTIONARYVAR
  5
C41B
102
{ACAD_REACTORS
330
3E
102
}
330
3E
100
DictionaryVariables
280
     0
  1
0
  0
DICTIONARYVAR
  5
C217
102
{ACAD_REACTORS
330
3E
102
}
330
3E
100
DictionaryVariables
280
     0
  1

  0
DICTIONARYVAR
  5
C28C
102
{ACAD_REACTORS
330
3E
102
}
330
3E
100
DictionaryVariables
280
     0
  1
127
  0
DICTIONARY
  5
CB19
330
C9D2
100
AcDbDictionary
280
     1
281
     1
  3
ACAD_XREC_ROUNDTRIP
360
CB1A
  0
DICTIONARY
  5
C9F5
330
ACBA
100
AcDbDictionary
280
     1
281
     1
  0
DICTIONARY
  5
C222
330
C221
100
AcDbDictionary
280
     1
281
     1
  3
BUMPTILE
360
C224
  3
DIFFUSETILE
360
C223
  3
OPACITYTILE
360
C227
  3
REFLECTIONTILE
360
C226
  3
REFRACTIONTILE
360
C228
  3
SPECULARTILE
360
C225
  0
DICTIONARY
  5
C21A
330
C219
100
AcDbDictionary
280
     1
281
     1
  3
BUMPTILE
360
C21C
  3
DIFFUSETILE
360
C21B
  3
OPACITYTILE
360
C21F
  3
REFLECTIONTILE
360
C21E
  3
REFRACTIONTILE
360
C220
  3
SPECULARTILE
360
C21D
  0
DICTIONARY
  5
C1E3
330
C1E2
100
AcDbDictionary
280
     1
281
     1
  3
BUMPTILE
360
C1E5
  3
DIFFUSETILE
360
C1E6
  3
OPACITYTILE
360
C1E7
  3
REFLECTIONTILE
360
C1E8
  3
REFRACTIONTILE
360
C1E9
  3
SPECULARTILE
360
C1EA
  0
DICTIONARY
  5
CB17
330
C9D0
100
AcDbDictionary
280
     1
281
     1
  3
ACAD_XREC_ROUNDTRIP
360
CB18
  0
DICTIONARY
  5
C273
330
C11A
100
AcDbDictionary
280
     1
281
     1
  3
ACAD_ROUNDTRIP_2008_TABLESTYLE_CELLSTYLEMAP
360
CB15
  0
XRECORD
  5
CB1A
102
{ACAD_REACTORS
330
CB19
102
}
330
CB19
100
AcDbXrecord
280
     1
102
DISPLAYNAME
  1
Imperial24
102
FLAGS
 90
        0
  0
XRECORD
  5
C224
102
{ACAD_REACTORS
330
C222
102
}
330
C222
100
AcDbXrecord
280
     1
270
     1
271
     1
  0
XRECORD
  5
C223
102
{ACAD_REACTORS
330
C222
102
}
330
C222
100
AcDbXrecord
280
     1
270
     1
271
     1
  0
XRECORD
  5
C227
102
{ACAD_REACTORS
330
C222
102
}
330
C222
100
AcDbXrecord
280
     1
270
     1
271
     1
  0
XRECORD
  5
C226
102
{ACAD_REACTORS
330
C222
102
}
330
C222
100
AcDbXrecord
280
     1
270
     1
271
     1
  0
XRECORD
  5
C228
102
{ACAD_REACTORS
330
C222
102
}
330
C222
100
AcDbXrecord
280
     1
270
     1
271
     1
  0
XRECORD
  5
C225
102
{ACAD_REACTORS
330
C222
102
}
330
C222
100
AcDbXrecord
280
     1
270
     1
271
     1
  0
XRECORD
  5
C21C
102
{ACAD_REACTORS
330
C21A
102
}
330
C21A
100
AcDbXrecord
280
     1
270
     1
271
     1
  0
XRECORD
  5
C21B
102
{ACAD_REACTORS
330
C21A
102
}
330
C21A
100
AcDbXrecord
280
     1
270
     1
271
     1
  0
XRECORD
  5
C21F
102
{ACAD_REACTORS
330
C21A
102
}
330
C21A
100
AcDbXrecord
280
     1
270
     1
271
     1
  0
XRECORD
  5
C21E
102
{ACAD_REACTORS
330
C21A
102
}
330
C21A
100
AcDbXrecord
280
     1
270
     1
271
     1
  0
XRECORD
  5
C220
102
{ACAD_REACTORS
330
C21A
102
}
330
C21A
100
AcDbXrecord
280
     1
270
     1
271
     1
  0
XRECORD
  5
C21D
102
{ACAD_REACTORS
330
C21A
102
}
330
C21A
100
AcDbXrecord
280
     1
270
     1
271
     1
  0
XRECORD
  5
C1E5
102
{ACAD_REACTORS
330
C1E3
102
}
330
C1E3
100
AcDbXrecord
280
     1
270
     1
271
     1
  0
XRECORD
  5
C1E6
102
{ACAD_REACTORS
330
C1E3
102
}
330
C1E3
100
AcDbXrecord
280
     1
270
     1
271
     1
  0
XRECORD
  5
C1E7
102
{ACAD_REACTORS
330
C1E3
102
}
330
C1E3
100
AcDbXrecord
280
     1
270
     1
271
     1
  0
XRECORD
  5
C1E8
102
{ACAD_REACTORS
330
C1E3
102
}
330
C1E3
100
AcDbXrecord
280
     1
270
     1
271
     1
  0
XRECORD
  5
C1E9
102
{ACAD_REACTORS
330
C1E3
102
}
330
C1E3
100
AcDbXrecord
280
     1
270
     1
271
     1
  0
XRECORD
  5
C1EA
102
{ACAD_REACTORS
330
C1E3
102
}
330
C1E3
100
AcDbXrecord
280
     1
270
     1
271
     1
  0
XRECORD
  5
CB18
102
{ACAD_REACTORS
330
CB17
102
}
330
CB17
100
AcDbXrecord
280
     1
102
DISPLAYNAME
  1
Imperial24
102
FLAGS
 90
        0
  0
CELLSTYLEMAP
  5
CB15
102
{ACAD_REACTORS
330
C273
102
}
330
C273
100
AcDbCellStyleMap
 90
        3
300
CELLSTYLE
  1
TABLEFORMAT_BEGIN
 90
        5
170
     1
 91
        0
 92
    32768
 62
   257
 93
        1
300
CONTENTFORMAT
  1
CONTENTFORMAT_BEGIN
 90
        0
 91
        0
 92
        4
 93
        0
300

 40
0.0
140
1.0
 94
        5
 62
     0
340
F
144
0.25
309
CONTENTFORMAT_END
171
     0
 94
        6
 95
        1
302
GRIDFORMAT
  1
GRIDFORMAT_BEGIN
 90
        0
 91
        1
 62
     0
 92
       -2
340
0
 93
        0
 40
0.045
309
GRIDFORMAT_END
 95
        2
302
GRIDFORMAT
  1
GRIDFORMAT_BEGIN
 90
        0
 91
        1
 62
     0
 92
       -2
340
0
 93
        0
 40
0.045
309
GRIDFORMAT_END
 95
        4
302
GRIDFORMAT
  1
GRIDFORMAT_BEGIN
 90
        0
 91
        1
 62
     0
 92
       -2
340
0
 93
        0
 40
0.045
309
GRIDFORMAT_END
 95
        8
302
GRIDFORMAT
  1
GRIDFORMAT_BEGIN
 90
        0
 91
        1
 62
     0
 92
       -2
340
0
 93
        0
 40
0.045
309
GRIDFORMAT_END
 95
       16
302
GRIDFORMAT
  1
GRIDFORMAT_BEGIN
 90
        0
 91
        1
 62
     0
 92
       -2
340
0
 93
        0
 40
0.045
309
GRIDFORMAT_END
 95
       32
302
GRIDFORMAT
  1
GRIDFORMAT_BEGIN
 90
        0
 91
        1
 62
     0
 92
       -2
340
0
 93
        0
 40
0.045
309
GRIDFORMAT_END
309
TABLEFORMAT_END
  1
CELLSTYLE_BEGIN
 90
        1
 91
        1
300
_TITLE
309
CELLSTYLE_END
300
CELLSTYLE
  1
TABLEFORMAT_BEGIN
 90
        5
170
     1
 91
        0
 92
        0
 62
   257
 93
        1
300
CONTENTFORMAT
  1
CONTENTFORMAT_BEGIN
 90
        0
 91
        0
 92
        4
 93
        0
300

 40
0.0
140
1.0
 94
        5
 62
     0
340
F
144
0.18
309
CONTENTFORMAT_END
171
     0
 94
        6
 95
        1
302
GRIDFORMAT
  1
GRIDFORMAT_BEGIN
 90
        0
 91
        1
 62
     0
 92
       -2
340
0
 93
        0
 40
0.045
309
GRIDFORMAT_END
 95
        2
302
GRIDFORMAT
  1
GRIDFORMAT_BEGIN
 90
        0
 91
        1
 62
     0
 92
       -2
340
0
 93
        0
 40
0.045
309
GRIDFORMAT_END
 95
        4
302
GRIDFORMAT
  1
GRIDFORMAT_BEGIN
 90
        0
 91
        1
 62
     0
 92
       -2
340
0
 93
        0
 40
0.045
309
GRIDFORMAT_END
 95
        8
302
GRIDFORMAT
  1
GRIDFORMAT_BEGIN
 90
        0
 91
        1
 62
     0
 92
       -2
340
0
 93
        0
 40
0.045
309
GRIDFORMAT_END
 95
       16
302
GRIDFORMAT
  1
GRIDFORMAT_BEGIN
 90
        0
 91
        1
 62
     0
 92
       -2
340
0
 93
        0
 40
0.045
309
GRIDFORMAT_END
 95
       32
302
GRIDFORMAT
  1
GRIDFORMAT_BEGIN
 90
        0
 91
        1
 62
     0
 92
       -2
340
0
 93
        0
 40
0.045
309
GRIDFORMAT_END
309
TABLEFORMAT_END
  1
CELLSTYLE_BEGIN
 90
        2
 91
        1
300
_HEADER
309
CELLSTYLE_END
300
CELLSTYLE
  1
TABLEFORMAT_BEGIN
 90
        5
170
     1
 91
        0
 92
        0
 62
   257
 93
        1
300
CONTENTFORMAT
  1
CONTENTFORMAT_BEGIN
 90
        0
 91
        0
 92
        4
 93
        0
300

 40
0.0
140
1.0
 94
        2
 62
     0
340
F
144
0.18
309
CONTENTFORMAT_END
171
     0
 94
        6
 95
        1
302
GRIDFORMAT
  1
GRIDFORMAT_BEGIN
 90
        0
 91
        1
 62
     0
 92
       -2
340
0
 93
        0
 40
0.045
309
GRIDFORMAT_END
 95
        2
302
GRIDFORMAT
  1
GRIDFORMAT_BEGIN
 90
        0
 91
        1
 62
     0
 92
       -2
340
0
 93
        0
 40
0.045
309
GRIDFORMAT_END
 95
        4
302
GRIDFORMAT
  1
GRIDFORMAT_BEGIN
 90
        0
 91
        1
 62
     0
 92
       -2
340
0
 93
        0
 40
0.045
309
GRIDFORMAT_END
 95
        8
302
GRIDFORMAT
  1
GRIDFORMAT_BEGIN
 90
        0
 91
        1
 62
     0
 92
       -2
340
0
 93
        0
 40
0.045
309
GRIDFORMAT_END
 95
       16
302
GRIDFORMAT
  1
GRIDFORMAT_BEGIN
 90
        0
 91
        1
 62
     0
 92
       -2
340
0
 93
        0
 40
0.045
309
GRIDFORMAT_END
 95
       32
302
GRIDFORMAT
  1
GRIDFORMAT_BEGIN
 90
        0
 91
        1
 62
     0
 92
       -2
340
0
 93
        0
 40
0.045
309
GRIDFORMAT_END
309
TABLEFORMAT_END
  1
CELLSTYLE_BEGIN
 90
        3
 91
        2
300
_DATA
309
CELLSTYLE_END
  0
ENDSEC
  0
SECTION
  2
ACDSDATA
 70
     2
 71
     8
  0
ACDSSCHEMA
 90
        0
  1
AcDb_Thumbnail_Schema
  2
AcDbDs::ID
280
    10
 91
        8
  2
Thumbnail_Data
280
    15
 91
        0
101
ACDSRECORD
 95
        0
 90
        1
  2
AcDbDs::TreatedAsObjectData
280
     1
291
     1
101
ACDSRECORD
 95
        0
 90
        2
  2
AcDbDs::Legacy
280
     1
291
     1
101
ACDSRECORD
  1
AcDbDs::ID
 90
        3
  2
AcDs:Indexable
280
     1
291
     1
101
ACDSRECORD
  1
AcDbDs::ID
 90
        4
  2
AcDbDs::HandleAttribute
280
     7
282
     1
  0
ACDSSCHEMA
 90
        1
  1
AcDbDs::TreatedAsObjectDataSchema
  2
AcDbDs::TreatedAsObjectData
280
     1
 91
        0
  0
ACDSSCHEMA
 90
        2
  1
AcDbDs::LegacySchema
  2
AcDbDs::Legacy
280
     1
 91
        0
  0
ACDSSCHEMA
 90
        3
  1
AcDbDs::IndexedPropertySchema
  2
AcDs:Indexable
280
     1
 91
        0
  0
ACDSSCHEMA
 90
        4
  1
AcDbDs::HandleAttributeSchema
  2
AcDbDs::HandleAttribute
280
     7
 91
        1
284
     1
  0
ACDSRECORD
 90
        0
  2
AcDbDs::ID
280
    10
320
ACBA
  2
Thumbnail_Data
280
    15
 94
     1778
310
89504E470D0A1A0A0000000D49484452000001000000008B0803000000B9ACB7FB00000300504C54451E2830000000C8C8C80000000000000000000000000000000000000000000000000000330000660000990000CC0000FF0033000033330033660033990033CC0033FF0066000066330066660066990066CC0066FF0099
310
000099330099660099990099CC0099FF00CC0000CC3300CC6600CC9900CCCC00CCFF00FF0000FF3300FF6600FF9900FFCC00FFFF3300003300333300663300993300CC3300FF3333003333333333663333993333CC3333FF3366003366333366663366993366CC3366FF3399003399333399663399993399CC3399FF33CC00
310
33CC3333CC6633CC9933CCCC33CCFF33FF0033FF3333FF6633FF9933FFCC33FFFF6600006600336600666600996600CC6600FF6633006633336633666633996633CC6633FF6666006666336666666666996666CC6666FF6699006699336699666699996699CC6699FF66CC0066CC3366CC6666CC9966CCCC66CCFF66FF0066
310
FF3366FF6666FF9966FFCC66FFFF9900009900339900669900999900CC9900FF9933009933339933669933999933CC9933FF9966009966339966669966999966CC9966FF9999009999339999669999999999CC9999FF99CC0099CC3399CC6699CC9999CCCC99CCFF99FF0099FF3399FF6699FF9999FFCC99FFFFCC0000CC00
310
33CC0066CC0099CC00CCCC00FFCC3300CC3333CC3366CC3399CC33CCCC33FFCC6600CC6633CC6666CC6699CC66CCCC66FFCC9900CC9933CC9966CC9999CC99CCCC99FFCCCC00CCCC33CCCC66CCCC99CCCCCCCCCCFFCCFF00CCFF33CCFF66CCFF99CCFFCCCCFFFFFF0000FF0033FF0066FF0099FF00CCFF00FFFF3300FF3333
310
FF3366FF3399FF33CCFF33FFFF6600FF6633FF6666FF6699FF66CCFF66FFFF9900FF9933FF9966FF9999FF99CCFF99FFFFCC00FFCC33FFCC66FFCC99FFCCCCFFCCFFFFFF00FFFF33FFFF66FFFF99FFFFCCFFFFFF0000000D0D0D1A1A1A2828283535354343435050505D5D5D6B6B6B787878868686939393A1A1A1AEAEAEBB
310
BBBBC9C9C9D6D6D6E4E4E4F1F1F1FFFFFF0000000000000000000000000000000000000000000000000000000000000F42FBE2000003AD4944415478DAEDDA4D9A9B300C0660DFC0D7D0C6F7DF6933D7C835B22F58F8879006631B19924FCFCCF499B429E845B66C82313E9EE6C70300000000000000000000000000000000
310
0000000000000000000000000000000000000000000000000000000000000000002E157F79A803D05E7C3D40E3DFDF1D80AE06F037A802E87F6993F624D08EF0AC1901FA237F0B30A40B90D9A9806F6F835700E003AF9E06D07CD416002E7DB13300A526C05358CE43B502B8E8B53301E6B0865D88EAA3D74CE6BCAD3C363A
310
0094868024BE1C3C011C4DA712E0355D3580D8F5D84D65EFAF3DAF2AE06867AEE9E711203660D69904E7A3519C735C1E5C7D452B16352C3F96E1385F0D952E20DC01C0BABE00C7DB603C24B1D1038893A08D2560DE019427B37D03970184C6171A90CE10C801F251505D01FC26F6D6D61180E34FA3DE05ACE9330438CD2821
310
15DE5B5AC68CFDFA6314C05C00ECFBA03FF7460097BAEA1E0065501980C24A70B5F99B26C1D552309C722D802C2C8A000CAFBAA15E05BC6E80D9FAB2F59301D76E8A138071A66408500270C2366608CCA3C02E972CAE04695D01E703E4F3CF0000CE00FCD5A7E32BBBC300F91090FC9D2280D9056819022E017C184D444BA3
310
64923588D3DC0EBF02B8655F540BC0DB49907700E2D677AA0039B8E67678530172E6CB32B9A1025EDAE0E70AB0C4520114D8783A9B8115E027C14A007F6BC5A6EFA5CB7F9C03AC95FD6FAC80297F3B700EA0AC0BD454809DC2F9AF29B3A22EE0051680792D242F9CBF193A01C04A3827DF7641F80C20094780F0EB0800D7A3
310
02FC1B6D7C7F4105B0879399836D2888210073906B5809CAFE6FF5C7CE1C30B74126A99B69FAF135C35A15B0BA293ADF0C5C4EB6FAE8EF00F62D971A980A2FE6DF7097B916407E9793AD07C8C70E152FE9384CFCCCCDF9570F010FD05A01660B5008C761026DCDBF7E0EC83E2653074802CDF93700A48F86F50182407BFE63
310
2BC0AF1FFD17BDDC772E12E00EF937AC040FDCC92DBCCB72A899B2DC1233B706688A2ED7FFCE00A6CFA7D23706E873DC3B03985100431F901806705609DE19C0000000EDF1C8E3C4F700A007C0E37DF448BDF47F7B3CFA9E0400300916FC93F240170000000000000000000000000000000000000000000000000000000000
310
000000000000000000000000000000F84580475900E0EB87C0C5125F03683CDF7400803AC40180EB3DDF3500C09CFECC5BE1E0A7AE0180C23920647C81C71E8701A417863FF6A998BDEE4AB0B407AA03F49C537B00A8AF03B4002EBB17F8E1EC0180ED30009E3F1892F93F74DB1F59EA01F29B0000000049454E44AE426082
  0
ENDSEC
  0
EOF
