  0
SECTION
  2
HEADER
  9
$ACADVER
  1
AC1027
  9
$ACADMAINTVER
 70
   106
  9
$DWGCODEPAGE
  3
ANSI_1252
  9
$LASTSAVEDBY
  1
quadiss
  9
$REQUIREDVERSIONS
160
                 0
  9
$INSBASE
 10
0.0
 20
0.0
 30
0.0
  9
$EXTMIN
 10
-0.0011374868293785
 20
-0.0007258388827154
 30
-0.0000000000112498
  9
$EXTMAX
 10
74.59983935968967
 20
47.60271737030786
 30
0.0000000000002956
  9
$LIMMIN
 10
0.0
 20
0.0
  9
$LIMMAX
 10
12.0
 20
9.0
  9
$ORTHOMODE
 70
     0
  9
$REGENMODE
 70
     1
  9
$FILLMODE
 70
     1
  9
$QTEXTMODE
 70
     0
  9
$MIRRTEXT
 70
     1
  9
$LTSCALE
 40
0.5
  9
$ATTMODE
 70
     1
  9
$TEXTSIZE
 40
0.25
  9
$TRACEWID
 40
0.05
  9
$TEXTSTYLE
  7
STANDARD
  9
$CLAYER
  8
0
  9
$CELTYPE
  6
BYLAYER
  9
$CECOLOR
 62
   256
  9
$CELTSCALE
 40
1.0
  9
$DISPSILH
 70
     0
  9
$DIMSCALE
 40
1.0
  9
$DIMASZ
 40
0.2
  9
$DIMEXO
 40
0.125
  9
$DIMDLI
 40
0.375
  9
$DIMRND
 40
0.0
  9
$DIMDLE
 40
0.0
  9
$DIMEXE
 40
0.125
  9
$DIMTP
 40
0.0
  9
$DIMTM
 40
0.0
  9
$DIMTXT
 40
0.25
  9
$DIMCEN
 40
0.0
  9
$DIMTSZ
 40
0.0
  9
$DIMTOL
 70
     0
  9
$DIMLIM
 70
     0
  9
$DIMTIH
 70
     0
  9
$DIMTOH
 70
     0
  9
$DIMSE1
 70
     0
  9
$DIMSE2
 70
     0
  9
$DIMTAD
 70
     1
  9
$DIMZIN
 70
     3
  9
$DIMBLK
  1

  9
$DIMASO
 70
     1
  9
$DIMSHO
 70
     1
  9
$DIMPOST
  1

  9
$DIMAPOST
  1

  9
$DIMALT
 70
     0
  9
$DIMALTD
 70
     2
  9
$DIMALTF
 40
25.4
  9
$DIMLFAC
 40
1.0
  9
$DIMTOFL
 70
     0
  9
$DIMTVP
 40
0.0
  9
$DIMTIX
 70
     0
  9
$DIMSOXD
 70
     0
  9
$DIMSAH
 70
     0
  9
$DIMBLK1
  1

  9
$DIMBLK2
  1

  9
$DIMSTYLE
  2
STANDARD
  9
$DIMCLRD
 70
     0
  9
$DIMCLRE
 70
     0
  9
$DIMCLRT
 70
     0
  9
$DIMTFAC
 40
1.0
  9
$DIMGAP
 40
0.125
  9
$DIMJUST
 70
     0
  9
$DIMSD1
 70
     0
  9
$DIMSD2
 70
     0
  9
$DIMTOLJ
 70
     1
  9
$DIMTZIN
 70
     3
  9
$DIMALTZ
 70
     3
  9
$DIMALTTZ
 70
     3
  9
$DIMUPT
 70
     0
  9
$DIMDEC
 70
     5
  9
$DIMTDEC
 70
     5
  9
$DIMALTU
 70
     4
  9
$DIMALTTD
 70
     2
  9
$DIMTXSTY
  7
STANDARD
  9
$DIMAUNIT
 70
     0
  9
$DIMADEC
 70
     0
  9
$DIMALTRND
 40
0.0
  9
$DIMAZIN
 70
     0
  9
$DIMDSEP
 70
    46
  9
$DIMATFIT
 70
     0
  9
$DIMFRAC
 70
     2
  9
$DIMLDRBLK
  1

  9
$DIMLUNIT
 70
     4
  9
$DIMLWD
 70
    -2
  9
$DIMLWE
 70
    -2
  9
$DIMTMOVE
 70
     0
  9
$DIMFXL
 40
1.0
  9
$DIMFXLON
 70
     0
  9
$DIMJOGANG
 40
0.7853981633974483
  9
$DIMTFILL
 70
     0
  9
$DIMTFILLCLR
 70
     0
  9
$DIMARCSYM
 70
     0
  9
$DIMLTYPE
  6

  9
$DIMLTEX1
  6

  9
$DIMLTEX2
  6

  9
$DIMTXTDIRECTION
 70
     0
  9
$LUNITS
 70
     2
  9
$LUPREC
 70
     5
  9
$SKETCHINC
 40
0.1
  9
$FILLETRAD
 40
0.0
  9
$AUNITS
 70
     0
  9
$AUPREC
 70
     0
  9
$MENU
  1
ACAD
  9
$ELEVATION
 40
0.0
  9
$PELEVATION
 40
0.0
  9
$THICKNESS
 40
0.0
  9
$LIMCHECK
 70
     0
  9
$CHAMFERA
 40
0.0
  9
$CHAMFERB
 40
0.0
  9
$CHAMFERC
 40
0.0
  9
$CHAMFERD
 40
0.0
  9
$SKPOLY
 70
     0
  9
$TDCREATE
 40
2450777.579237616
  9
$TDUCREATE
 40
2450777.745904282
  9
$TDUPDATE
 40
2458311.609368438
  9
$TDUUPDATE
 40
2458311.776035104
  9
$TDINDWG
 40
0.8982764352
  9
$TDUSRTIMER
 40
0.8982764352
  9
$USRTIMER
 70
     1
  9
$ANGBASE
 50
0.0
  9
$ANGDIR
 70
     0
  9
$PDMODE
 70
     0
  9
$PDSIZE
 40
0.0
  9
$PLINEWID
 40
0.0
  9
$SPLFRAME
 70
     0
  9
$SPLINETYPE
 70
     6
  9
$SPLINESEGS
 70
     8
  9
$HANDSEED
  5
D868
  9
$SURFTAB1
 70
     6
  9
$SURFTAB2
 70
     6
  9
$SURFTYPE
 70
     6
  9
$SURFU
 70
     6
  9
$SURFV
 70
     6
  9
$UCSBASE
  2

  9
$UCSNAME
  2

  9
$UCSORG
 10
0.0
 20
0.0
 30
0.0
  9
$UCSXDIR
 10
1.0
 20
0.0
 30
0.0
  9
$UCSYDIR
 10
0.0
 20
1.0
 30
0.0
  9
$UCSORTHOREF
  2

  9
$UCSORTHOVIEW
 70
     0
  9
$UCSORGTOP
 10
0.0
 20
0.0
 30
0.0
  9
$UCSORGBOTTOM
 10
0.0
 20
0.0
 30
0.0
  9
$UCSORGLEFT
 10
0.0
 20
0.0
 30
0.0
  9
$UCSORGRIGHT
 10
0.0
 20
0.0
 30
0.0
  9
$UCSORGFRONT
 10
0.0
 20
0.0
 30
0.0
  9
$UCSORGBACK
 10
0.0
 20
0.0
 30
0.0
  9
$PUCSBASE
  2

  9
$PUCSNAME
  2

  9
$PUCSORG
 10
0.0
 20
0.0
 30
0.0
  9
$PUCSXDIR
 10
1.0
 20
0.0
 30
0.0
  9
$PUCSYDIR
 10
0.0
 20
1.0
 30
0.0
  9
$PUCSORTHOREF
  2

  9
$PUCSORTHOVIEW
 70
     0
  9
$PUCSORGTOP
 10
0.0
 20
0.0
 30
0.0
  9
$PUCSORGBOTTOM
 10
0.0
 20
0.0
 30
0.0
  9
$PUCSORGLEFT
 10
0.0
 20
0.0
 30
0.0
  9
$PUCSORGRIGHT
 10
0.0
 20
0.0
 30
0.0
  9
$PUCSORGFRONT
 10
0.0
 20
0.0
 30
0.0
  9
$PUCSORGBACK
 10
0.0
 20
0.0
 30
0.0
  9
$USERI1
 70
     0
  9
$USERI2
 70
     0
  9
$USERI3
 70
     0
  9
$USERI4
 70
     0
  9
$USERI5
 70
     0
  9
$USERR1
 40
0.0
  9
$USERR2
 40
0.0
  9
$USERR3
 40
0.0
  9
$USERR4
 40
0.0
  9
$USERR5
 40
0.0
  9
$WORLDVIEW
 70
     1
  9
$SHADEDGE
 70
     3
  9
$SHADEDIF
 70
    70
  9
$TILEMODE
 70
     1
  9
$MAXACTVP
 70
    16
  9
$PINSBASE
 10
0.0
 20
0.0
 30
0.0
  9
$PLIMCHECK
 70
     0
  9
$PEXTMIN
 10
1.000000000000000E+20
 20
1.000000000000000E+20
 30
1.000000000000000E+20
  9
$PEXTMAX
 10
-1.000000000000000E+20
 20
-1.000000000000000E+20
 30
-1.000000000000000E+20
  9
$PLIMMIN
 10
0.0
 20
0.0
  9
$PLIMMAX
 10
12.0
 20
9.0
  9
$UNITMODE
 70
     0
  9
$VISRETAIN
 70
     1
  9
$PLINEGEN
 70
     0
  9
$PSLTSCALE
 70
     1
  9
$TREEDEPTH
 70
  3020
  9
$CMLSTYLE
  2
STANDARD
  9
$CMLJUST
 70
     0
  9
$CMLSCALE
 40
1.0
  9
$PROXYGRAPHICS
 70
     1
  9
$MEASUREMENT
 70
     0
  9
$CELWEIGHT
370
    -1
  9
$ENDCAPS
280
     0
  9
$JOINSTYLE
280
     0
  9
$LWDISPLAY
290
     0
  9
$INSUNITS
 70
     0
  9
$HYPERLINKBASE
  1

  9
$STYLESHEET
  1
monochrome2.ctb
  9
$XEDIT
290
     1
  9
$CEPSNTYPE
380
     0
  9
$PSTYLEMODE
290
     1
  9
$FINGERPRINTGUID
  2
{E59B5705-F463-11D5-8103-00A0C992F75F}
  9
$VERSIONGUID
  2
{A89DFD05-0169-4A97-9FC8-B1EDA8F08336}
  9
$EXTNAMES
290
     1
  9
$PSVPSCALE
 40
0.0
  9
$OLESTARTUP
290
     0
  9
$SORTENTS
280
   127
  9
$INDEXCTL
280
     0
  9
$HIDETEXT
280
     0
  9
$XCLIPFRAME
280
     2
  9
$HALOGAP
280
     0
  9
$OBSCOLOR
 70
   257
  9
$OBSLTYPE
280
     0
  9
$INTERSECTIONDISPLAY
280
     0
  9
$INTERSECTIONCOLOR
 70
   257
  9
$DIMASSOC
280
     2
  9
$PROJECTNAME
  1

  9
$CAMERADISPLAY
290
     0
  9
$LENSLENGTH
 40
50.0
  9
$CAMERAHEIGHT
 40
0.0
  9
$STEPSPERSEC
 40
2.0
  9
$STEPSIZE
 40
6.0
  9
$3DDWFPREC
 40
2.0
  9
$PSOLWIDTH
 40
0.25
  9
$PSOLHEIGHT
 40
4.0
  9
$LOFTANG1
 40
1.570796326794896
  9
$LOFTANG2
 40
1.570796326794896
  9
$LOFTMAG1
 40
0.0
  9
$LOFTMAG2
 40
0.0
  9
$LOFTPARAM
 70
     7
  9
$LOFTNORMALS
280
     1
  9
$LATITUDE
 40
37.795
  9
$LONGITUDE
 40
-122.394
  9
$NORTHDIRECTION
 40
0.0
  9
$TIMEZONE
 70
 -8000
  9
$LIGHTGLYPHDISPLAY
280
     1
  9
$TILEMODELIGHTSYNCH
280
     1
  9
$CMATERIAL
347
CFD0
  9
$SOLIDHIST
280
     0
  9
$SHOWHIST
280
     1
  9
$DWFFRAME
280
     2
  9
$DGNFRAME
280
     0
  9
$REALWORLDSCALE
290
     1
  9
$INTERFERECOLOR
 62
     1
  9
$INTERFEREOBJVS
345
CFF2
  9
$INTERFEREVPVS
346
D04E
  9
$CSHADOW
280
     0
  9
$SHADOWPLANELOCATION
 40
0.0
  0
ENDSEC
  0
SECTION
  2
CLASSES
  0
CLASS
  1
DICTIONARYVAR
  2
AcDbDictionaryVar
  3
ObjectDBX Classes
 90
        0
 91
       14
280
     0
281
     0
  0
CLASS
  1
ACDBDICTIONARYWDFLT
  2
AcDbDictionaryWithDefault
  3
ObjectDBX Classes
 90
        0
 91
        1
280
     0
281
     0
  0
CLASS
  1
TABLESTYLE
  2
AcDbTableStyle
  3
ObjectDBX Classes
 90
     4095
 91
        1
280
     0
281
     0
  0
CLASS
  1
SORTENTSTABLE
  2
AcDbSortentsTable
  3
ObjectDBX Classes
 90
        0
 91
        2
280
     0
281
     0
  0
CLASS
  1
MATERIAL
  2
AcDbMaterial
  3
ObjectDBX Classes
 90
     1153
 91
        3
280
     0
281
     0
  0
CLASS
  1
VISUALSTYLE
  2
AcDbVisualStyle
  3
ObjectDBX Classes
 90
     4095
 91
       26
280
     0
281
     0
  0
CLASS
  1
SCALE
  2
AcDbScale
  3
ObjectDBX Classes
 90
     1153
 91
       33
280
     0
281
     0
  0
CLASS
  1
MLEADERSTYLE
  2
AcDbMLeaderStyle
  3
ACDB_MLEADERSTYLE_CLASS
 90
     4095
 91
        1
280
     0
281
     0
  0
CLASS
  1
CELLSTYLEMAP
  2
AcDbCellStyleMap
  3
ObjectDBX Classes
 90
     1152
 91
        1
280
     0
281
     0
  0
CLASS
  1
EXACXREFPANELOBJECT
  2
ExAcXREFPanelObject
  3
EXAC_ESW
 90
     1025
 91
        1
280
     0
281
     0
  0
CLASS
  1
NPOCOLLECTION
  2
AcDbImpNonPersistentObjectsCollection
  3
ObjectDBX Classes
 90
     1153
 91
        1
280
     0
281
     0
  0
CLASS
  1
ACAD_EVALUATION_GRAPH
  2
AcDbEvalGraph
  3
ObjectDBX Classes
 90
     1153
 91
        0
280
     0
281
     0
  0
CLASS
  1
ACAECUSTOBJ
  2
AcAeEditorObj
  3
AcAeEditorObj
 90
     1024
 91
        0
280
     0
281
     0
  0
CLASS
  1
ACDB_DYNAMICBLOCKPURGEPREVENTER_VERSION
  2
AcDbDynamicBlockPurgePreventer
  3
ObjectDBX Classes
 90
     1153
 91
        0
280
     0
281
     0
  0
CLASS
  1
ACDBSECTIONVIEWSTYLE
  2
AcDbSectionViewStyle
  3
ObjectDBX Classes
 90
     1025
 91
        1
280
     0
281
     0
  0
CLASS
  1
ACDBDETAILVIEWSTYLE
  2
AcDbDetailViewStyle
  3
ObjectDBX Classes
 90
     1025
 91
        1
280
     0
281
     0
  0
ENDSEC
  0
SECTION
  2
TABLES
  0
TABLE
  2
VPORT
  5
8
102
{ACAD_XDICTIONARY
360
D036
102
}
330
0
100
AcDbSymbolTable
 70
     1
  0
VPORT
  5
CFC7
330
8
100
AcDbSymbolTableRecord
100
AcDbViewportTableRecord
  2
*Active
 70
     0
 10
0.0
 20
0.0
 11
1.0
 21
1.0
 12
37.29935093643014
 22
23.80099576571258
 13
0.0
 23
0.0
 14
1.0
 24
1.0
 15
0.0
 25
0.0
 16
0.0
 26
0.0
 36
1.0
 17
0.0
 27
0.0
 37
0.0
 40
47.93136589490258
 41
1.79655172413793
 42
50.0
 43
0.0
 44
0.0
 50
0.0
 51
0.0
 71
     0
 72
  2000
 73
     1
 74
     0
 75
     0
 76
     0
 77
     0
 78
     1
281
     0
 65
     1
110
0.0
120
0.0
130
0.0
111
1.0
121
0.0
131
0.0
112
0.0
122
1.0
132
0.0
 79
     0
146
0.0
348
CFEE
 60
     3
 61
     5
292
     1
282
     1
141
0.0
142
0.0
 63
   250
421
  3355443
1001
ACAD_NAV_VCDISPLAY
1070
     0
  0
ENDTAB
  0
TABLE
  2
LTYPE
  5
5
330
0
100
AcDbSymbolTable
 70
     5
  0
LTYPE
  5
11
330
5
100
AcDbSymbolTableRecord
100
AcDbLinetypeTableRecord
  2
BYBLOCK
 70
     0
  3

 72
    65
 73
     0
 40
0.0
  0
LTYPE
  5
12
330
5
100
AcDbSymbolTableRecord
100
AcDbLinetypeTableRecord
  2
BYLAYER
 70
     0
  3

 72
    65
 73
     0
 40
0.0
  0
LTYPE
  5
13
330
5
100
AcDbSymbolTableRecord
100
AcDbLinetypeTableRecord
  2
CONTINUOUS
 70
     0
  3
Solid line
 72
    65
 73
     0
 40
0.0
  0
LTYPE
  5
985C
330
5
100
AcDbSymbolTableRecord
100
AcDbLinetypeTableRecord
  2
HIDDEN
 70
     0
  3
Hidden __ __ __ __ __ __ __ __ __ __ __ __ __ _
 72
    65
 73
     2
 40
0.375
 49
0.25
 74
     0
 49
-0.125
 74
     0
  0
LTYPE
  5
98AB
330
5
100
AcDbSymbolTableRecord
100
AcDbLinetypeTableRecord
  2
CENTER
 70
     0
  3
CENTER LINE
 72
    65
 73
     4
 40
2.0
 49
1.25
 74
     0
 49
-0.25
 74
     0
 49
0.25
 74
     0
 49
-0.25
 74
     0
  0
LTYPE
  5
D65F
330
5
100
AcDbSymbolTableRecord
100
AcDbLinetypeTableRecord
  2
DASHED
 70
     0
  3
Dashed __ __ __ __ __ __ __ __ __ __ __ __ __ _
 72
    65
 73
     2
 40
0.75
 49
0.5
 74
     0
 49
-0.25
 74
     0
  0
LTYPE
  5
D660
330
5
100
AcDbSymbolTableRecord
100
AcDbLinetypeTableRecord
  2
DOT
 70
     0
  3
Dot . . . . . . . . . . . . . . . . . . . . . .
 72
    65
 73
     2
 40
0.25
 49
0.0
 74
     0
 49
-0.25
 74
     0
  0
ENDTAB
  0
TABLE
  2
LAYER
  5
2
102
{ACAD_XDICTIONARY
360
CEE1
102
}
330
0
100
AcDbSymbolTable
 70
    11
  0
LAYER
  5
E
102
{ACAD_XDICTIONARY
360
D020
102
}
330
2
100
AcDbSymbolTableRecord
100
AcDbLayerTableRecord
  2
0
 70
     0
 62
     4
  6
CONTINUOUS
370
    -3
390
ACB7
347
CFE0
348
0
  0
LAYER
  5
A48F
102
{ACAD_XDICTIONARY
360
D022
102
}
330
2
100
AcDbSymbolTableRecord
100
AcDbLayerTableRecord
  2
R-SWTS-DET1
 70
     0
 62
     1
  6
CONTINUOUS
370
    -3
390
ACB7
347
CFE0
348
0
  0
LAYER
  5
A491
102
{ACAD_XDICTIONARY
360
D024
102
}
330
2
100
AcDbSymbolTableRecord
100
AcDbLayerTableRecord
  2
R-SWTS-DET2
 70
     0
 62
     4
  6
CONTINUOUS
370
    -3
390
ACB7
347
CFE0
348
0
  0
LAYER
  5
A492
102
{ACAD_XDICTIONARY
360
D026
102
}
330
2
100
AcDbSymbolTableRecord
100
AcDbLayerTableRecord
  2
R-SWTS-DET3
 70
     0
 62
     5
  6
CONTINUOUS
370
    -3
390
ACB7
347
CFE0
348
0
  0
LAYER
  5
A682
102
{ACAD_XDICTIONARY
360
D028
102
}
330
2
100
AcDbSymbolTableRecord
100
AcDbLayerTableRecord
  2
R-ANNO-DIMS
 70
     0
 62
     3
  6
CONTINUOUS
370
    -3
390
ACB7
347
CFE0
348
0
  0
LAYER
  5
B401
102
{ACAD_XDICTIONARY
360
D02A
102
}
330
2
100
AcDbSymbolTableRecord
100
AcDbLayerTableRecord
  2
R-ANNO-TEXT
 70
     0
 62
     6
  6
CONTINUOUS
370
    -3
390
ACB7
347
CFE0
348
0
  0
LAYER
  5
CF18
102
{ACAD_XDICTIONARY
360
D030
102
}
330
2
100
AcDbSymbolTableRecord
100
AcDbLayerTableRecord
  2
HIDDEN
 70
     0
 62
     3
  6
HIDDEN
370
    -3
390
ACB7
347
CFE0
348
0
  0
LAYER
  5
D0E2
330
2
100
AcDbSymbolTableRecord
100
AcDbLayerTableRecord
  2
filler
 70
     0
 62
     1
  6
HIDDEN
370
    -3
390
ACB7
347
CFE0
348
0
1001
AcAecLayerStandard
1000

1000

1001
AcCmTransparency
1071
        0
  0
LAYER
  5
D5DA
330
2
100
AcDbSymbolTableRecord
100
AcDbLayerTableRecord
  2
FORMAT
 70
     0
 62
     7
  6
CONTINUOUS
370
    -3
390
ACB7
347
CFE0
348
0
1001
AcAecLayerStandard
1000

1000

1001
AcCmTransparency
1071
        0
  0
LAYER
  5
D5E8
330
2
100
AcDbSymbolTableRecord
100
AcDbLayerTableRecord
  2
TEXT
 70
     0
 62
     3
  6
CONTINUOUS
370
    -3
390
ACB7
347
CFE0
348
0
1001
AcAecLayerStandard
1000

1000

1001
AcCmTransparency
1071
        0
  0
LAYER
  5
D661
330
2
100
AcDbSymbolTableRecord
100
AcDbLayerTableRecord
  2
Kawneer Logo-English
 70
     0
 62
     7
  6
CONTINUOUS
370
    -3
390
ACB7
347
CFE0
348
0
1001
AcAecLayerStandard
1000

1000

1001
AcCmTransparency
1071
        0
  0
ENDTAB
  0
TABLE
  2
STYLE
  5
3
330
0
100
AcDbSymbolTable
 70
     1
  0
STYLE
  5
F
330
3
100
AcDbSymbolTableRecord
100
AcDbTextStyleTableRecord
  2
STANDARD
 70
     0
 40
0.0
 41
1.0
 50
0.0
 71
     0
 42
0.25
  3
arial.ttf
  4

1001
ACAD
1000
Arial
1071
       34
  0
ENDTAB
  0
TABLE
  2
VIEW
  5
6
330
0
100
AcDbSymbolTable
 70
     1
  0
ENDTAB
  0
TABLE
  2
UCS
  5
7
330
0
100
AcDbSymbolTable
 70
     0
  0
ENDTAB
  0
TABLE
  2
APPID
  5
9
330
0
100
AcDbSymbolTable
 70
    15
  0
APPID
  5
10
330
9
100
AcDbSymbolTableRecord
100
AcDbRegAppTableRecord
  2
ACAD
 70
     0
  0
APPID
  5
D0E8
330
9
100
AcDbSymbolTableRecord
100
AcDbRegAppTableRecord
  2
ACAD_NAV_VCDISPLAY
 70
     0
  0
APPID
  5
D0EB
330
9
100
AcDbSymbolTableRecord
100
AcDbRegAppTableRecord
  2
AcAecLayerStandard
 70
     0
  0
APPID
  5
D0ED
330
9
100
AcDbSymbolTableRecord
100
AcDbRegAppTableRecord
  2
AcCmTransparency
 70
     0
  0
ENDTAB
  0
TABLE
  2
DIMSTYLE
  5
A
330
0
100
AcDbSymbolTable
 70
     1
100
AcDbDimStyleTable
 71
     1
340
26C
  0
DIMSTYLE
105
26C
330
A
100
AcDbSymbolTableRecord
100
AcDbDimStyleTableRecord
  2
STANDARD
 70
     0
340
F
  0
ENDTAB
  0
TABLE
  2
BLOCK_RECORD
  5
1
330
0
100
AcDbSymbolTable
 70
     1
  0
BLOCK_RECORD
  5
17
102
{ACAD_XDICTIONARY
360
ACE4
102
}
330
1
100
AcDbSymbolTableRecord
100
AcDbBlockTableRecord
  2
*MODEL_SPACE
340
ACBA
 70
     0
280
     1
281
     0
  0
BLOCK_RECORD
  5
14
102
{ACAD_XDICTIONARY
360
ACE2
102
}
330
1
100
AcDbSymbolTableRecord
100
AcDbBlockTableRecord
  2
*PAPER_SPACE
340
ACBB
 70
     0
280
     1
281
     0
  0
BLOCK_RECORD
  5
D66D
102
{ACAD_XDICTIONARY
360
D677
102
}
330
1
100
AcDbSymbolTableRecord
100
AcDbBlockTableRecord
  2
Kawneer Logo English
340
0
102
{BLKREFS
331
D67B
102
}
 70
     1
280
     1
281
     0
  0
ENDTAB
  0
ENDSEC
  0
SECTION
  2
BLOCKS
  0
BLOCK
  5
3C
330
17
100
AcDbEntity
  8
0
100
AcDbBlockBegin
  2
*MODEL_SPACE
 70
     0
 10
0.0
 20
0.0
 30
0.0
  3
*MODEL_SPACE
  1

  0
ENDBLK
  5
3D
330
17
100
AcDbEntity
  8
0
100
AcDbBlockEnd
  0
BLOCK
  5
3A
330
14
100
AcDbEntity
 67
     1
  8
0
100
AcDbBlockBegin
  2
*PAPER_SPACE
 70
     0
 10
0.0
 20
0.0
 30
0.0
  3
*PAPER_SPACE
  1

  0
ENDBLK
  5
3B
330
14
100
AcDbEntity
 67
     1
  8
0
100
AcDbBlockEnd
  0
BLOCK
  5
D679
330
D66D
100
AcDbEntity
  8
0
100
AcDbBlockBegin
  2
Kawneer Logo English
 70
     0
 10
0.0
 20
0.0
 30
0.0
  3
Kawneer Logo English
  1

  0
MTEXT
  5
D66E
102
{ACAD_XDICTIONARY
360
D712
102
}
330
D66D
100
AcDbEntity
  8
Kawneer Logo-English
100
AcDbMText
 10
1.510096758583198
 20
0.0372523876656778
 30
0.0
 40
0.036
 41
0.6125900866323382
 46
0.0
 71
     3
 72
     5
  1
{\fArial TUR|b0|i0|c0|p34;\T1.05;AN ARCONIC COMPANY}
 73
     1
 44
1.0
1001
ACAD
1000
ACAD_MTEXT_COLUMN_INFO_BEGIN
1070
    75
1070
     2
1070
    79
1070
     0
1070
    76
1070
     1
1070
    78
1070
     0
1070
    48
1040
0.6125900866323382
1070
    49
1040
1.0
1070
    50
1070
     1
1040
0.0
1000
ACAD_MTEXT_COLUMN_INFO_END
  0
HATCH
  5
D66F
330
D66D
100
AcDbEntity
  8
Kawneer Logo-English
100
AcDbHatch
 10
0.0
 20
0.0
 30
0.0
210
0.0
220
0.0
230
1.0
  2
SOLID
 70
     1
 71
     0
 91
        1
 92
        1
 93
       81
 72
     1
 10
0.2706169776412204
 20
0.0336337282279411
 11
0.2687512969786691
 21
0.0350329887248546
 72
     1
 10
0.2687512969786696
 20
0.0350329887248547
 11
0.2633408230572721
 21
0.039137486182467
 72
     1
 10
0.2633408230572729
 20
0.0391374861824669
 11
0.2550385441089194
 21
0.0453875164020133
 72
     1
 10
0.2550385441089191
 20
0.0453875164020132
 11
0.2442175962661241
 21
0.053596511317238
 72
     1
 10
0.2442175962661235
 20
0.0535965113172379
 11
0.2314376837276472
 21
0.0632980507625037
 72
     1
 10
0.2314376837276479
 20
0.0632980507625037
 11
0.2172585106922595
 21
0.0741189986052996
 72
     1
 10
0.2172585106922598
 20
0.0741189986052996
 11
0.2019599292593419
 21
0.0856862187131167
 72
     1
 10
0.201959929259341
 20
0.0856862187131167
 11
0.1862882116939105
 21
0.0976265749534437
 72
     1
 10
0.1862882116939102
 20
0.0976265749534437
 11
0.1706164941284813
 21
0.1095669311937706
 72
     1
 10
0.1706164941284811
 20
0.1095669311937709
 11
0.1553179126955632
 21
0.1211341513015875
 72
     1
 10
0.1553179126955642
 20
0.1211341513015876
 11
0.1411387396601757
 21
0.131955099144384
 72
     1
 10
0.1411387396601755
 20
0.1319550991443839
 11
0.1284521111548274
 21
0.141749922622777
 72
     1
 10
0.1284521111548278
 20
0.1417499226227768
 11
0.117631163312031
 21
0.1499589175380016
 72
     1
 10
0.1176311633120304
 20
0.1499589175380017
 11
0.1094221683968068
 21
0.1563022317906752
 72
     1
 10
0.1094221683968062
 20
0.1563022317906754
 11
0.1041049785085351
 21
0.1604067292482882
 72
     1
 10
0.1041049785085351
 20
0.1604067292482878
 11
0.1023325818791119
 21
0.1618992737783286
 72
     1
 10
0.1023325818791116
 20
0.1618992737783289
 11
0.1043848306079176
 21
0.1636716704077524
 72
     1
 10
0.1043848306079194
 20
0.1636716704077524
 11
0.1100751566286996
 21
0.1683358720641301
 72
     1
 10
0.1100751566286986
 20
0.1683358720641301
 11
0.1189371397758159
 21
0.1757053106812067
 72
     1
 10
0.1189371397758161
 20
0.1757053106812067
 11
0.1304110758505067
 21
0.1851269980270901
 72
     1
 10
0.1304110758505059
 20
0.1851269980270902
 11
0.1439372606540007
 21
0.1963210820023967
 72
     1
 10
0.1439372606540017
 20
0.1963210820023967
 11
0.1589559899875385
 21
0.2087278584083611
 72
     1
 10
0.1589559899875379
 20
0.2087278584083611
 11
0.1750941277186041
 21
0.2220674751456017
 72
     1
 10
0.1750941277186047
 20
0.2220674751456017
 11
0.19169868561531
 21
0.2358735120484796
 72
     1
 10
0.1916986856153105
 20
0.2358735120484796
 11
0.208303243512014
 21
0.2495862649182301
 72
     1
 10
0.2083032435120131
 20
0.2495862649182304
 11
0.2244413812430811
 21
0.2628325976223432
 72
     1
 10
0.2244413812430812
 20
0.2628325976223429
 11
0.239460110576618
 21
0.2753326580614352
 72
     1
 10
0.2394601105766174
 20
0.2753326580614351
 11
0.2529862953801122
 21
0.2864334580036143
 72
     1
 10
0.2529862953801132
 20
0.2864334580036143
 11
0.2643669474216756
 21
0.2958551453494973
 72
     1
 10
0.2643669474216757
 20
0.2958551453494973
 11
0.2731356465356649
 21
0.3031312999334466
 72
     1
 10
0.273135646535664
 20
0.3031312999334466
 11
0.2788259725564443
 21
0.3077955015898243
 72
     1
 10
0.278825972556445
 20
0.3077955015898246
 11
0.2807849372521245
 21
0.3094746141861208
 72
     1
 10
0.2807849372521249
 20
0.3094746141861205
 11
0.2798520969208501
 21
0.3094746141861205
 72
     1
 10
0.2798520969208496
 20
0.3094746141861205
 11
0.2769602918938953
 21
0.3095678982192478
 72
     1
 10
0.2769602918938943
 20
0.3095678982192481
 11
0.2724826583037715
 21
0.3095678982192481
 72
     1
 10
0.2724826583037729
 20
0.3095678982192481
 11
0.2666057642167363
 21
0.3095678982192481
 72
     1
 10
0.266605764216735
 20
0.3095678982192481
 11
0.2597027457652953
 21
0.3095678982192481
 72
     1
 10
0.2597027457652956
 20
0.3095678982192481
 11
0.2519601710157094
 21
0.3095678982192481
 72
     1
 10
0.2519601710157104
 20
0.3095678982192481
 11
0.2437511761004851
 21
0.3095678982192481
 72
     1
 10
0.243751176100484
 20
0.3095678982192481
 11
0.2351690450527495
 21
0.3095678982192481
 72
     1
 10
0.2351690450527495
 20
0.3095678982192481
 11
0.2266801980381413
 21
0.3095678982192481
 72
     1
 10
0.2266801980381423
 20
0.3095678982192481
 11
0.2183779190897905
 21
0.3094746141861208
 72
     1
 10
0.2183779190897899
 20
0.3094746141861205
 11
0.2106353443402037
 21
0.3094746141861205
 72
     1
 10
0.2106353443402029
 20
0.3094746141861205
 11
0.2037323258887632
 21
0.3094746141861205
 72
     1
 10
0.203732325888764
 20
0.3094746141861205
 11
0.1978554318017273
 21
0.3094746141861205
 72
     1
 10
0.1978554318017278
 20
0.3094746141861205
 11
0.1932845141784786
 21
0.3094746141861205
 72
     1
 10
0.1932845141784787
 20
0.3094746141861205
 11
0.1903927091515244
 21
0.3094746141861205
 72
     1
 10
0.1903927091515234
 20
0.3094746141861205
 11
0.1893665847871204
 21
0.3094746141861205
 72
     1
 10
0.1893665847871206
 20
0.3094746141861205
 11
0.1879673242902067
 21
0.3077955015898243
 72
     1
 10
0.1879673242902076
 20
0.3077955015898246
 11
0.1841426789319786
 21
0.3030380159003196
 72
     1
 10
0.1841426789319787
 20
0.3030380159003192
 11
0.1780792167786874
 21
0.29576186131637
 72
     1
 10
0.1780792167786873
 20
0.29576186131637
 11
0.170243357995973
 21
0.2862468899373593
 72
     1
 10
0.170243357995973
 20
0.2862468899373593
 11
0.1610082387163447
 21
0.2750528059620528
 72
     1
 10
0.1610082387163438
 20
0.2750528059620528
 11
0.1507469950723126
 21
0.2624594614898328
 72
     1
 10
0.1507469950723133
 20
0.2624594614898328
 11
0.1396461951301336
 21
0.2491198447525922
 72
     1
 10
0.1396461951301333
 20
0.2491198447525922
 11
0.1282655430885727
 21
0.2352205238165866
 72
     1
 10
0.1282655430885726
 20
0.2352205238165868
 11
0.1168848910470102
 21
0.2214144869137089
 72
     1
 10
0.1168848910470102
 20
0.2214144869137087
 11
0.1058773751379587
 21
0.2079815861433408
 72
     1
 10
0.105877375137958
 20
0.2079815861433408
 11
0.0955228474608004
 21
0.1954815257042486
 72
     1
 10
0.0955228474608019
 20
0.1954815257042488
 11
0.0862877281811736
 21
0.1842874417289424
 72
     1
 10
0.0862877281811727
 20
0.1842874417289424
 11
0.0784518693984583
 21
0.1747724703499316
 72
     1
 10
0.0784518693984584
 20
0.1747724703499314
 11
0.0723884072451672
 21
0.1674963157659821
 72
     1
 10
0.0723884072451671
 20
0.1674963157659822
 11
0.0685637618869363
 21
0.1627388300764767
 72
     1
 10
0.0685637618869364
 20
0.1627388300764767
 11
0.0671645013900242
 21
0.1611530015133082
 72
     1
 10
0.0671645013900251
 20
0.1611530015133082
 11
0.0680040576881734
 21
0.1596604569832674
 72
     1
 10
0.0680040576881726
 20
0.1596604569832674
 11
0.0704294425494878
 21
0.1556492435587824
 72
     1
 10
0.0704294425494871
 20
0.1556492435587824
 11
0.0742540879077179
 21
0.1493059293061089
 72
     1
 10
0.0742540879077192
 20
0.1493059293061089
 11
0.0791048576303511
 21
0.1411902184240116
 72
     1
 10
0.0791048576303508
 20
0.1411902184240116
 11
0.0848884676842594
 21
0.1314886789787458
 72
     1
 10
0.0848884676842596
 20
0.1314886789787459
 11
0.0913250659700619
 21
0.1207610151690772
 72
     1
 10
0.0913250659700613
 20
0.1207610151690775
 11
0.0982280844214992
 21
0.1091937950612604
 72
     1
 10
0.0982280844214985
 20
0.1091937950612603
 11
0.1053176709391927
 21
0.0973467228540611
 72
     1
 10
0.105317670939193
 20
0.0973467228540612
 11
0.1124072574568872
 21
0.0854996506468619
 72
     1
 10
0.1124072574568871
 20
0.0854996506468617
 11
0.1193102759083267
 21
0.0739324305390446
 72
     1
 10
0.1193102759083278
 20
0.0739324305390448
 11
0.1257468741941283
 21
0.0632047667293762
 72
     1
 10
0.1257468741941277
 20
0.063204766729376
 11
0.1315304842480362
 21
0.0535032272841102
 72
     1
 10
0.1315304842480365
 20
0.0535032272841104
 11
0.1363812539706702
 21
0.0453875164020132
 72
     1
 10
0.1363812539706699
 20
0.0453875164020132
 11
0.1402058993288989
 21
0.0391374861824667
 72
     1
 10
0.1402058993288988
 20
0.0391374861824669
 11
0.1426312841902157
 21
0.0350329887248546
 72
     1
 10
0.1426312841902164
 20
0.0350329887248547
 11
0.1434708404883648
 21
0.0336337282279412
 72
     1
 10
0.143470840488364
 20
0.0336337282279411
 11
0.2706169776412211
 21
0.0336337282279411
 97
        0
 75
     0
 76
     1
 98
        1
 10
-0.3743130907707726
 20
-0.2500502867693841
450
        0
451
        0
460
0.0
461
0.0
452
        0
462
0.0
453
        0
470

1001
ACAD
1010
0.0
1020
0.0
1030
0.0
  0
HATCH
  5
D670
330
D66D
100
AcDbEntity
  8
Kawneer Logo-English
100
AcDbHatch
 10
0.0
 20
0.0
 30
0.0
210
0.0
220
0.0
230
1.0
  2
SOLID
 70
     1
 71
     0
 91
        1
 92
        1
 93
       18
 72
     1
 10
0.0001865656044393
 20
0.2563959993365415
 11
-0.0000000024618153
 21
0.113671428651383
 72
     1
 10
-0.0000000024618159
 20
0.1136714286513832
 11
0.0012126899688416
 21
0.1152572572145516
 72
     1
 10
0.0012126899688421
 20
0.1152572572145516
 11
0.0045709151614355
 21
0.1197348908046738
 72
     1
 10
0.004570915161435
 20
0.119734890804674
 11
0.0098881050497044
 21
0.1268244773223682
 72
     1
 10
0.0098881050497044
 20
0.1268244773223682
 11
0.0166978394680158
 21
0.1359663125688683
 72
     1
 10
0.016697839468016
 20
0.1359663125688683
 11
0.0248135503501131
 21
0.1467872604116651
 72
     1
 10
0.024813550350113
 20
0.1467872604116652
 11
0.0338621015634867
 21
0.1588209006851195
 72
     1
 10
0.0338621015634872
 20
0.1588209006851194
 11
0.0434703569756247
 21
0.1716940972567221
 72
     1
 10
0.0434703569756247
 20
0.1716940972567224
 11
0.0534517485202732
 21
0.1850337139939626
 72
     1
 10
0.0534517485202724
 20
0.1850337139939624
 11
0.0634331400649208
 21
0.1983733307312025
 72
     1
 10
0.0634331400649222
 20
0.1983733307312024
 11
0.0730413954770597
 21
0.2112465273028051
 72
     1
 10
0.0730413954770595
 20
0.2112465273028053
 11
0.0820899466904331
 21
0.2233734516093873
 72
     1
 10
0.0820899466904321
 20
0.2233734516093873
 11
0.0902056575725293
 21
0.2341943994521837
 72
     1
 10
0.0902056575725308
 20
0.2341943994521837
 11
0.0970153919908422
 21
0.2433362346986839
 72
     1
 10
0.0970153919908405
 20
0.2433362346986839
 11
0.1022392978459834
 21
0.2503325371832507
 72
     1
 10
0.1022392978459843
 20
0.2503325371832508
 11
0.1056908070717041
 21
0.2549034548065008
 72
     1
 10
0.1056908070717046
 20
0.254903454806501
 11
0.1069034995023621
 21
0.2564892833696694
 72
     1
 10
0.1069034995023625
 20
0.2564892833696695
 11
0.0001865656044399
 21
0.2563959993365418
 97
        0
 75
     0
 76
     1
 98
        1
 10
-0.3743130907707726
 20
-0.2500502867693841
450
        0
451
        0
460
0.0
461
0.0
452
        0
462
0.0
453
        0
470

1001
ACAD
1010
0.0
1020
0.0
1030
0.0
  0
HATCH
  5
D671
330
D66D
100
AcDbEntity
  8
Kawneer Logo-English
100
AcDbHatch
 10
0.0
 20
0.0
 30
0.0
210
0.0
220
0.0
230
1.0
  2
SOLID
 70
     1
 71
     0
 91
        2
 92
       16
 93
       76
 72
     1
 10
1.358402087941634
 20
0.1650709309046659
 11
1.358402087941634
 21
0.16796273593162
 72
     1
 10
1.358402087941634
 20
0.1679627359316202
 11
1.358402087941634
 21
0.1729067896873803
 72
     1
 10
1.358402087941634
 20
0.1729067896873803
 11
1.358402087941634
 21
0.1791568199069267
 72
     1
 10
1.358402087941634
 20
0.1791568199069267
 11
1.358402087941634
 21
0.1861531223914932
 72
     1
 10
1.358402087941634
 20
0.186153122391493
 11
1.358402087941634
 21
0.1931494248760595
 72
     1
 10
1.358402087941634
 20
0.1931494248760596
 11
1.358402087941634
 21
0.1994927391287338
 72
     1
 10
1.358402087941634
 20
0.1994927391287336
 11
1.358402087941634
 21
0.2044367928844937
 72
     1
 10
1.358402087941634
 20
0.2044367928844937
 11
1.358402087941634
 21
0.2072353138783208
 72
     1
 10
1.358402087941634
 20
0.2072353138783208
 11
1.359894632471676
 21
0.2072353138783208
 72
     1
 10
1.359894632471676
 20
0.2072353138783208
 11
1.362693153465502
 21
0.2072353138783208
 72
     1
 10
1.362693153465502
 20
0.2072353138783208
 11
1.366424514790605
 21
0.2072353138783208
 72
     1
 10
1.366424514790606
 20
0.2072353138783208
 11
1.371088716446983
 21
0.2072353138783208
 72
     1
 10
1.371088716446982
 20
0.2072353138783208
 11
1.376405906335254
 21
0.2072353138783208
 72
     1
 10
1.376405906335254
 20
0.2072353138783208
 11
1.382282800422289
 21
0.2072353138783208
 72
     1
 10
1.38228280042229
 20
0.2072353138783208
 11
1.388346262575581
 21
0.2072353138783208
 72
     1
 10
1.388346262575579
 20
0.2072353138783208
 11
1.394596292795125
 21
0.2072353138783208
 72
     1
 10
1.394596292795125
 20
0.2072353138783208
 11
1.400753038981545
 21
0.2072353138783208
 72
     1
 10
1.400753038981546
 20
0.2072353138783208
 11
1.406723217101709
 21
0.2072353138783208
 72
     1
 10
1.406723217101708
 20
0.2072353138783208
 11
1.412320259089362
 21
0.2072353138783208
 72
     1
 10
1.412320259089362
 20
0.2072353138783208
 11
1.417264312845122
 21
0.2072353138783208
 72
     1
 10
1.417264312845123
 20
0.2072353138783208
 11
1.421368810302735
 21
0.2072353138783208
 72
     1
 10
1.421368810302734
 20
0.2072353138783208
 11
1.424540467429071
 21
0.2072353138783208
 72
     1
 10
1.424540467429072
 20
0.2072353138783208
 11
1.426592716157878
 21
0.2072353138783208
 72
     1
 10
1.426592716157878
 20
0.2072353138783208
 11
1.427338988422898
 21
0.2072353138783208
 72
     1
 10
1.427338988422898
 20
0.2072353138783208
 11
1.430977065714873
 21
0.207142029845193
 72
     1
 10
1.430977065714872
 20
0.207142029845193
 11
1.434335290907465
 21
0.2068621777458102
 72
     1
 10
1.434335290907465
 20
0.2068621777458102
 11
1.435921119470633
 21
0.2066756096795552
 72
     1
 10
1.435921119470633
 20
0.206675609679555
 11
1.437413664000673
 21
0.2063957575801723
 72
     1
 10
1.437413664000674
 20
0.2063957575801723
 11
1.438906208530714
 21
0.2061159054807895
 72
     1
 10
1.438906208530714
 20
0.2061159054807898
 11
1.440398753060756
 21
0.2056494853151523
 72
     1
 10
1.440398753060756
 20
0.2056494853151521
 11
1.441704729524542
 21
0.2050897811163865
 72
     1
 10
1.441704729524542
 20
0.2050897811163866
 11
1.443010705988328
 21
0.204530076917621
 72
     1
 10
1.443010705988329
 20
0.204530076917621
 11
1.444223398418986
 21
0.2036905206194736
 72
     1
 10
1.444223398418985
 20
0.2036905206194736
 11
1.445436090849643
 21
0.2028509643213252
 72
     1
 10
1.445436090849643
 20
0.2028509643213252
 11
1.446555499247174
 21
0.2018248399569224
 72
     1
 10
1.446555499247173
 20
0.2018248399569223
 11
1.447581623611576
 21
0.2007054315593917
 72
     1
 10
1.447581623611578
 20
0.2007054315593915
 11
1.448607747975981
 21
0.1993061710624781
 72
     1
 10
1.448607747975981
 20
0.1993061710624781
 11
1.449540588307258
 21
0.1978136265324374
 72
     1
 10
1.449540588307256
 20
0.1978136265324373
 11
1.450380144605403
 21
0.1961345139361415
 72
     1
 10
1.450380144605404
 20
0.1961345139361415
 11
1.451126416870426
 21
0.1944554013398453
 72
     1
 10
1.451126416870426
 20
0.1944554013398454
 11
1.451592837036063
 21
0.1929628568098046
 72
     1
 10
1.451592837036062
 20
0.1929628568098046
 11
1.451965973168573
 21
0.1913770282466361
 72
     1
 10
1.451965973168574
 20
0.1913770282466361
 11
1.452245825267955
 21
0.1899777677497231
 72
     1
 10
1.452245825267954
 20
0.1899777677497231
 11
1.452432393334211
 21
0.188671791285937
 72
     1
 10
1.452432393334211
 20
0.1886717912859369
 11
1.452432393334211
 21
0.1874590988552789
 72
     1
 10
1.452432393334211
 20
0.1874590988552789
 11
1.452525677367338
 21
0.1863396904577482
 72
     1
 10
1.452525677367337
 20
0.1863396904577481
 11
1.452432393334211
 21
0.1844740097951972
 72
     1
 10
1.452432393334211
 20
0.1844740097951974
 11
1.452245825267955
 21
0.1827948971989012
 72
     1
 10
1.452245825267954
 20
0.1827948971989009
 11
1.451872689135445
 21
0.1810225005694773
 72
     1
 10
1.451872689135446
 20
0.1810225005694774
 11
1.451406268969809
 21
0.1794366720063093
 72
     1
 10
1.451406268969809
 20
0.1794366720063094
 11
1.450846564771043
 21
0.1779441274762682
 72
     1
 10
1.450846564771041
 20
0.1779441274762681
 11
1.450100292506021
 21
0.1764515829462274
 72
     1
 10
1.450100292506023
 20
0.1764515829462275
 11
1.449260736207875
 21
0.1750523224493141
 72
     1
 10
1.449260736207873
 20
0.1750523224493139
 11
1.448327895876597
 21
0.1737463459855283
 72
     1
 10
1.448327895876596
 20
0.1737463459855281
 11
1.44702191941281
 21
0.1723470854886151
 72
     1
 10
1.447021919412811
 20
0.1723470854886151
 11
1.445715942949025
 21
0.1711343930579568
 72
     1
 10
1.445715942949026
 20
0.1711343930579568
 11
1.444316682452114
 21
0.1700149846604262
 72
     1
 10
1.444316682452114
 20
0.1700149846604259
 11
1.442824137922072
 21
0.168988860296023
 72
     1
 10
1.442824137922072
 20
0.168988860296023
 11
1.441238309358904
 21
0.1682425880310024
 72
     1
 10
1.441238309358902
 20
0.1682425880310024
 11
1.439559196762608
 21
0.1674963157659821
 72
     1
 10
1.439559196762608
 20
0.1674963157659822
 11
1.437880084166311
 21
0.1669366115672166
 72
     1
 10
1.437880084166311
 20
0.1669366115672167
 11
1.436107687536888
 21
0.1664701914015788
 72
     1
 10
1.436107687536888
 20
0.1664701914015789
 11
1.434242006874337
 21
0.166003771235941
 72
     1
 10
1.434242006874337
 20
0.1660037712359412
 11
1.432376326211786
 21
0.1657239191365588
 72
     1
 10
1.432376326211785
 20
0.1657239191365585
 11
1.430417361516107
 21
0.1655373510703035
 72
     1
 10
1.430417361516108
 20
0.1655373510703037
 11
1.428458396820429
 21
0.1653507830040482
 72
     1
 10
1.428458396820428
 20
0.1653507830040482
 11
1.424353899362817
 21
0.1651642149377932
 72
     1
 10
1.424353899362817
 20
0.1651642149377932
 11
1.420156117872077
 21
0.1650709309046658
 72
     1
 10
1.420156117872076
 20
0.1650709309046659
 11
1.41773073301076
 21
0.1650709309046659
 72
     1
 10
1.417730733010761
 20
0.1650709309046659
 11
1.411107566658704
 21
0.1650709309046659
 72
     1
 10
1.411107566658702
 20
0.1650709309046659
 11
1.401779163345947
 21
0.1650709309046659
 72
     1
 10
1.401779163345949
 20
0.1650709309046659
 11
1.390958215503152
 21
0.1650709309046659
 72
     1
 10
1.390958215503152
 20
0.1650709309046659
 11
1.379950699594101
 21
0.1650709309046659
 72
     1
 10
1.379950699594099
 20
0.1650709309046659
 11
1.369969308049451
 21
0.1650709309046659
 72
     1
 10
1.369969308049451
 20
0.1650709309046659
 11
1.362320017332992
 21
0.1650709309046659
 72
     1
 10
1.362320017332992
 20
0.1650709309046659
 11
1.358402087941635
 21
0.1650709309046659
 97
        0
 92
        1
 93
      107
 72
     1
 10
1.443756978253348
 20
0.1485596570410883
 11
1.446928635379685
 21
0.1492126452729816
 72
     1
 10
1.446928635379685
 20
0.1492126452729817
 11
1.449540588307256
 21
0.1498656335048746
 72
     1
 10
1.449540588307256
 20
0.1498656335048745
 11
1.451872689135445
 21
0.1506119057698948
 72
     1
 10
1.451872689135446
 20
0.1506119057698946
 11
1.45401822189738
 21
0.1514514620680426
 72
     1
 10
1.45401822189738
 20
0.1514514620680425
 11
1.455883902559929
 21
0.1521977343330632
 72
     1
 10
1.455883902559929
 20
0.1521977343330631
 11
1.457563015156225
 21
0.1530372906312111
 72
     1
 10
1.457563015156225
 20
0.1530372906312111
 11
1.459148843719394
 21
0.1539701309624869
 72
     1
 10
1.459148843719394
 20
0.1539701309624866
 11
1.460641388249434
 21
0.1549029712937624
 72
     1
 10
1.460641388249434
 20
0.1549029712937622
 11
1.462133932779476
 21
0.155835811625038
 72
     1
 10
1.462133932779476
 20
0.155835811625038
 11
1.463439909243262
 21
0.1568619359894408
 72
     1
 10
1.463439909243262
 20
0.1568619359894408
 11
1.464745885707048
 21
0.1579813443869714
 72
     1
 10
1.464745885707047
 20
0.1579813443869716
 11
1.465865294104579
 21
0.1591007527845022
 72
     1
 10
1.465865294104579
 20
0.1591007527845025
 11
1.466984702502109
 21
0.1602201611820331
 72
     1
 10
1.466984702502108
 20
0.1602201611820328
 11
1.468010826866511
 21
0.1613395695795634
 72
     1
 10
1.468010826866511
 20
0.1613395695795637
 11
1.468943667197788
 21
0.1625522620102216
 72
     1
 10
1.468943667197788
 20
0.1625522620102216
 11
1.469876507529063
 21
0.1636716704077522
 72
     1
 10
1.469876507529063
 20
0.1636716704077524
 11
1.470622779794084
 21
0.1648843628384107
 72
     1
 10
1.470622779794084
 20
0.1648843628384107
 11
1.471462336092232
 21
0.1661903393021964
 72
     1
 10
1.471462336092232
 20
0.1661903393021967
 11
1.472115324324125
 21
0.1674030317328546
 72
     1
 10
1.472115324324124
 20
0.1674030317328546
 11
1.472768312556016
 21
0.1686157241635125
 72
     1
 10
1.472768312556017
 20
0.1686157241635125
 11
1.473328016754783
 21
0.1699217006272986
 72
     1
 10
1.473328016754782
 20
0.1699217006272989
 11
1.47379443692042
 21
0.1711343930579568
 72
     1
 10
1.47379443692042
 20
0.1711343930579568
 11
1.474260857086057
 21
0.1724403695217425
 72
     1
 10
1.474260857086058
 20
0.1724403695217424
 11
1.474727277251697
 21
0.1736530619524008
 72
     1
 10
1.474727277251697
 20
0.173653061952401
 11
1.475380265483589
 21
0.1760784468137175
 72
     1
 10
1.475380265483588
 20
0.1760784468137173
 11
1.475846685649225
 21
0.1785038316750338
 72
     1
 10
1.475846685649226
 20
0.1785038316750335
 11
1.476219821781737
 21
0.1808359325032223
 72
     1
 10
1.476219821781738
 20
0.1808359325032223
 11
1.47649967388112
 21
0.1830747492982838
 72
     1
 10
1.47649967388112
 20
0.1830747492982838
 11
1.476592957914248
 21
0.1851269980270901
 72
     1
 10
1.476592957914248
 20
0.1851269980270902
 11
1.476686241947374
 21
0.1870859627227688
 72
     1
 10
1.476686241947375
 20
0.1870859627227687
 11
1.476592957914249
 21
0.1888583593521923
 72
     1
 10
1.476592957914248
 20
0.1888583593521922
 11
1.476499673881119
 21
0.1906307559816158
 72
     1
 10
1.47649967388112
 20
0.1906307559816159
 11
1.476406389847991
 21
0.1924031526110394
 72
     1
 10
1.476406389847991
 20
0.1924031526110394
 11
1.476126537748608
 21
0.1940822652073352
 72
     1
 10
1.476126537748608
 20
0.1940822652073352
 11
1.475846685649226
 21
0.195761377803631
 72
     1
 10
1.475846685649226
 20
0.1957613778036309
 11
1.475566833549843
 21
0.1974404903999272
 72
     1
 10
1.475566833549843
 20
0.1974404903999272
 11
1.475100413384206
 21
0.1990263189630953
 72
     1
 10
1.475100413384205
 20
0.1990263189630952
 11
1.474633993218568
 21
0.2006121475262637
 72
     1
 10
1.474633993218568
 20
0.2006121475262639
 11
1.47416757305293
 21
0.2021046920563051
 72
     1
 10
1.474167573052932
 20
0.2021046920563049
 11
1.473514584821038
 21
0.2035972365863457
 72
     1
 10
1.473514584821037
 20
0.2035972365863459
 11
1.472954880622271
 21
0.2050897811163867
 72
     1
 10
1.472954880622272
 20
0.2050897811163866
 11
1.472208608357252
 21
0.2064890416133
 72
     1
 10
1.472208608357252
 20
0.2064890416133001
 11
1.471462336092232
 21
0.2078883021102135
 72
     1
 10
1.471462336092232
 20
0.2078883021102136
 11
1.470622779794083
 21
0.2091942785739993
 72
     1
 10
1.470622779794084
 20
0.2091942785739991
 11
1.469783223495935
 21
0.2105002550377848
 72
     1
 10
1.469783223495934
 20
0.2105002550377851
 11
1.468850383164659
 21
0.2118062315015707
 72
     1
 10
1.468850383164661
 20
0.2118062315015709
 11
1.467917542833386
 21
0.2130189239322288
 72
     1
 10
1.467917542833385
 20
0.2130189239322289
 11
1.466891418468982
 21
0.2141383323297595
 72
     1
 10
1.466891418468982
 20
0.2141383323297595
 11
1.465772010071451
 21
0.2153510247604178
 72
     1
 10
1.46577201007145
 20
0.215351024760418
 11
1.464652601673919
 21
0.2163771491248209
 72
     1
 10
1.46465260167392
 20
0.2163771491248209
 11
1.463533193276389
 21
0.2174032734892238
 72
     1
 10
1.463533193276389
 20
0.2174032734892238
 11
1.462227216812603
 21
0.2184293978536266
 72
     1
 10
1.462227216812602
 20
0.2184293978536266
 11
1.461014524381945
 21
0.2193622381849024
 72
     1
 10
1.461014524381946
 20
0.2193622381849023
 11
1.459615263885032
 21
0.2202950785161781
 72
     1
 10
1.459615263885031
 20
0.2202950785161782
 11
1.458309287421245
 21
0.2211346348143262
 72
     1
 10
1.458309287421246
 20
0.221134634814326
 11
1.456816742891206
 21
0.221974191112474
 72
     1
 10
1.456816742891206
 20
0.2219741911124738
 11
1.455417482394292
 21
0.2227204633774945
 72
     1
 10
1.455417482394291
 20
0.2227204633774944
 11
1.453831653831122
 21
0.2233734516093874
 72
     1
 10
1.453831653831123
 20
0.2233734516093873
 11
1.452339109301082
 21
0.2240264398412803
 72
     1
 10
1.452339109301082
 20
0.2240264398412803
 11
1.450659996704785
 21
0.2245861440400459
 72
     1
 10
1.450659996704787
 20
0.2245861440400457
 11
1.44907416814162
 21
0.2251458482388108
 72
     1
 10
1.449074168141619
 20
0.2251458482388109
 11
1.447301771512194
 21
0.2256122684044489
 72
     1
 10
1.447301771512194
 20
0.2256122684044488
 11
1.445249522783388
 21
0.2261719726032139
 72
     1
 10
1.445249522783388
 20
0.226171972603214
 11
1.44329055808771
 21
0.2265451087357246
 72
     1
 10
1.443290558087712
 20
0.2265451087357244
 11
1.441145025325778
 21
0.2269182448682345
 72
     1
 10
1.441145025325776
 20
0.2269182448682345
 11
1.438906208530714
 21
0.2271980969676173
 72
     1
 10
1.438906208530714
 20
0.2271980969676173
 11
1.436387539636271
 21
0.2273846650338724
 72
     1
 10
1.436387539636271
 20
0.2273846650338724
 11
1.433495734609316
 21
0.2275712331001274
 72
     1
 10
1.433495734609317
 20
0.2275712331001274
 11
1.430044225383597
 21
0.2276645171332552
 72
     1
 10
1.430044225383597
 20
0.2276645171332549
 11
1.42612629599224
 21
0.2277578011663822
 72
     1
 10
1.42612629599224
 20
0.2277578011663825
 11
1.426033011959112
 21
0.2277578011663825
 72
     1
 10
1.426033011959111
 20
0.2277578011663825
 11
1.33489451159349
 21
0.2277578011663825
 72
     1
 10
1.334894511593491
 20
0.2277578011663825
 11
1.334894511593491
 21
0.0926825211976832
 72
     1
 10
1.334894511593491
 20
0.0926825211976832
 11
1.358588656007891
 21
0.0926825211976832
 72
     1
 10
1.358588656007891
 20
0.0926825211976832
 11
1.358588656007891
 21
0.0947347699264896
 72
     1
 10
1.358588656007891
 20
0.0947347699264896
 11
1.358588656007891
 21
0.1001452438478876
 72
     1
 10
1.358588656007891
 20
0.1001452438478875
 11
1.358588656007891
 21
0.1079811026306024
 72
     1
 10
1.358588656007891
 20
0.1079811026306024
 11
1.358588656007891
 21
0.1170296538439752
 72
     1
 10
1.358588656007891
 20
0.1170296538439753
 11
1.358588656007891
 21
0.1262647731236032
 72
     1
 10
1.358588656007891
 20
0.1262647731236031
 11
1.358588656007891
 21
0.1347536201382103
 72
     1
 10
1.358588656007891
 20
0.1347536201382104
 11
1.358588656007891
 21
0.1412835024571394
 72
     1
 10
1.358588656007891
 20
0.1412835024571393
 11
1.358588656007891
 21
0.1448282957159864
 72
     1
 10
1.358588656007891
 20
0.1448282957159865
 11
1.362320017332992
 21
0.1448282957159865
 72
     1
 10
1.362320017332992
 20
0.1448282957159865
 11
1.369409603850688
 21
0.1448282957159865
 72
     1
 10
1.369409603850688
 20
0.1448282957159865
 11
1.378738007163443
 21
0.1448282957159865
 72
     1
 10
1.378738007163443
 20
0.1448282957159865
 11
1.388999250807475
 21
0.1448282957159865
 72
     1
 10
1.388999250807473
 20
0.1448282957159865
 11
1.399260494451505
 21
0.1448282957159865
 72
     1
 10
1.399260494451506
 20
0.1448282957159865
 11
1.408215761631749
 21
0.1448282957159865
 72
     1
 10
1.408215761631748
 20
0.1448282957159865
 11
1.414745643950677
 21
0.1448282957159865
 72
     1
 10
1.414745643950678
 20
0.1448282957159865
 11
1.41773073301076
 21
0.1448282957159865
 72
     1
 10
1.417730733010761
 20
0.1448282957159865
 11
1.420062833838949
 21
0.1420297747221594
 72
     1
 10
1.420062833838949
 20
0.1420297747221597
 11
1.425193455660966
 21
0.1359663125688683
 72
     1
 10
1.425193455660965
 20
0.1359663125688683
 11
1.432283042178659
 21
0.1275707495873888
 72
     1
 10
1.432283042178659
 20
0.1275707495873886
 11
1.440305469027628
 21
0.1180557782083779
 72
     1
 10
1.440305469027629
 20
0.1180557782083781
 11
1.448234611843471
 21
0.1087273748956225
 72
     1
 10
1.448234611843471
 20
0.1087273748956225
 11
1.455044346261782
 21
0.1006116640135252
 72
     1
 10
1.455044346261782
 20
0.1006116640135252
 11
1.459895115984414
 21
0.0948280539596167
 72
     1
 10
1.459895115984414
 20
0.0948280539596169
 11
1.461760796646965
 21
0.0926825211976832
 72
     1
 10
1.461760796646967
 20
0.0926825211976832
 11
1.49254452757906
 21
0.0926825211976832
 72
     1
 10
1.492544527579059
 20
0.0926825211976832
 11
1.490678846916508
 21
0.0948280539596169
 72
     1
 10
1.490678846916508
 20
0.0948280539596169
 11
1.48564150912762
 21
0.100518379980398
 72
     1
 10
1.48564150912762
 20
0.1005183799803981
 11
1.478458638576797
 21
0.1088206589287502
 72
     1
 10
1.478458638576798
 20
0.1088206589287502
 11
1.470063075595318
 21
0.1183356303077609
 72
     1
 10
1.470063075595317
 20
0.118335630307761
 11
1.461480944547582
 21
0.1282237378192818
 72
     1
 10
1.461480944547582
 20
0.1282237378192818
 11
1.453551801731739
 21
0.1372722890326546
 72
     1
 10
1.45355180173174
 20
0.1372722890326546
 11
1.447395055545323
 21
0.1444551595834761
 72
     1
 10
1.447395055545323
 20
0.1444551595834759
 11
1.443756978253349
 21
0.1485596570410882
 97
        0
 75
     0
 76
     1
 98
        1
 10
-0.3743130907707726
 20
-0.2500502867693841
450
        0
451
        0
460
0.0
461
0.0
452
        0
462
0.0
453
        0
470

1001
ACAD
1010
0.0
1020
0.0
1030
0.0
  0
HATCH
  5
D672
330
D66D
100
AcDbEntity
  8
Kawneer Logo-English
100
AcDbHatch
 10
0.0
 20
0.0
 30
0.0
210
0.0
220
0.0
230
1.0
  2
SOLID
 70
     1
 71
     0
 91
        1
 92
        1
 93
       87
 72
     1
 10
1.205602841678699
 20
0.1525708704655737
 11
1.207468522341251
 21
0.1525708704655737
 72
     1
 10
1.207468522341252
 20
0.1525708704655737
 11
1.211199883666355
 21
0.1525708704655737
 72
     1
 10
1.211199883666355
 20
0.1525708704655737
 11
1.216517073554626
 21
0.1525708704655737
 72
     1
 10
1.216517073554626
 20
0.1525708704655737
 11
1.223046955873555
 21
0.1525708704655737
 72
     1
 10
1.223046955873553
 20
0.1525708704655737
 11
1.230602962556885
 21
0.1525708704655737
 72
     1
 10
1.230602962556885
 20
0.1525708704655737
 11
1.238998525538365
 21
0.1525708704655737
 72
     1
 10
1.238998525538365
 20
0.1525708704655737
 11
1.247767224652354
 21
0.1525708704655737
 72
     1
 10
1.247767224652355
 20
0.1525708704655737
 11
1.256815775865728
 21
0.1525708704655737
 72
     1
 10
1.256815775865729
 20
0.1525708704655737
 11
1.265771043045974
 21
0.1525708704655737
 72
     1
 10
1.265771043045973
 20
0.1525708704655737
 11
1.274446458126836
 21
0.1525708704655737
 72
     1
 10
1.274446458126837
 20
0.1525708704655737
 11
1.282562169008935
 21
0.1525708704655737
 72
     1
 10
1.282562169008935
 20
0.1525708704655737
 11
1.289745039559756
 21
0.1525708704655737
 72
     1
 10
1.289745039559755
 20
0.1525708704655737
 11
1.295808501713046
 21
0.1525708704655737
 72
     1
 10
1.295808501713046
 20
0.1525708704655737
 11
1.300472703369423
 21
0.1525708704655737
 72
     1
 10
1.300472703369423
 20
0.1525708704655737
 11
1.303457792429505
 21
0.1525708704655737
 72
     1
 10
1.303457792429505
 20
0.1525708704655737
 11
1.304483916793908
 21
0.1525708704655737
 72
     1
 10
1.304483916793908
 20
0.1525708704655737
 11
1.304483916793908
 21
0.1730000737205081
 72
     1
 10
1.304483916793908
 20
0.1730000737205078
 11
1.303457792429505
 21
0.1730000737205078
 72
     1
 10
1.303457792429505
 20
0.1730000737205078
 11
1.300472703369423
 21
0.1730000737205078
 72
     1
 10
1.300472703369423
 20
0.1730000737205078
 11
1.295808501713045
 21
0.1730000737205078
 72
     1
 10
1.295808501713046
 20
0.1730000737205078
 11
1.289745039559754
 21
0.1730000737205078
 72
     1
 10
1.289745039559755
 20
0.1730000737205078
 11
1.282562169008934
 21
0.1730000737205078
 72
     1
 10
1.282562169008935
 20
0.1730000737205078
 11
1.274446458126837
 21
0.1730000737205078
 72
     1
 10
1.274446458126837
 20
0.1730000737205078
 11
1.265771043045975
 21
0.1730000737205078
 72
     1
 10
1.265771043045973
 20
0.1730000737205078
 11
1.256815775865728
 21
0.1730000737205078
 72
     1
 10
1.256815775865729
 20
0.1730000737205078
 11
1.247767224652355
 21
0.1730000737205078
 72
     1
 10
1.247767224652355
 20
0.1730000737205078
 11
1.238998525538365
 21
0.1730000737205078
 72
     1
 10
1.238998525538365
 20
0.1730000737205078
 11
1.230602962556885
 21
0.1730000737205078
 72
     1
 10
1.230602962556885
 20
0.1730000737205078
 11
1.223046955873553
 21
0.1730000737205078
 72
     1
 10
1.223046955873553
 20
0.1730000737205078
 11
1.216517073554625
 21
0.1730000737205078
 72
     1
 10
1.216517073554626
 20
0.1730000737205078
 11
1.211199883666355
 21
0.1730000737205078
 72
     1
 10
1.211199883666355
 20
0.1730000737205078
 11
1.207468522341252
 21
0.1730000737205078
 72
     1
 10
1.207468522341252
 20
0.1730000737205078
 11
1.205602841678701
 21
0.1730000737205078
 72
     1
 10
1.205602841678699
 20
0.1730000737205078
 11
1.205602841678699
 21
0.1754254585818243
 72
     1
 10
1.205602841678699
 20
0.1754254585818245
 11
1.205602841678699
 21
0.1794366720063095
 72
     1
 10
1.205602841678699
 20
0.1794366720063094
 11
1.205602841678699
 21
0.1843807257620694
 72
     1
 10
1.205602841678699
 20
0.1843807257620694
 11
1.205602841678699
 21
0.1898844837165951
 72
     1
 10
1.205602841678699
 20
0.1898844837165951
 11
1.205602841678699
 21
0.1952949576379935
 72
     1
 10
1.205602841678699
 20
0.1952949576379937
 11
1.205602841678699
 21
0.2003322954268815
 72
     1
 10
1.205602841678699
 20
0.2003322954268814
 11
1.205602841678699
 21
0.2042502248182386
 72
     1
 10
1.205602841678699
 20
0.2042502248182386
 11
1.205602841678699
 21
0.206675609679555
 72
     1
 10
1.205602841678699
 20
0.206675609679555
 11
1.207468522341251
 21
0.206675609679555
 72
     1
 10
1.207468522341252
 20
0.206675609679555
 11
1.211293167699483
 21
0.206675609679555
 72
     1
 10
1.211293167699483
 20
0.206675609679555
 11
1.21670364162088
 21
0.206675609679555
 72
     1
 10
1.216703641620879
 20
0.206675609679555
 11
1.223420092006063
 21
0.206675609679555
 72
     1
 10
1.223420092006064
 20
0.206675609679555
 11
1.231255950788778
 21
0.206675609679555
 72
     1
 10
1.231255950788778
 20
0.206675609679555
 11
1.239744797803386
 21
0.206675609679555
 72
     1
 10
1.239744797803385
 20
0.206675609679555
 11
1.248886633049885
 21
0.206675609679555
 72
     1
 10
1.248886633049885
 20
0.206675609679555
 11
1.258121752329513
 21
0.206675609679555
 72
     1
 10
1.258121752329514
 20
0.206675609679555
 11
1.267356871609143
 21
0.206675609679555
 72
     1
 10
1.267356871609142
 20
0.206675609679555
 11
1.276218854756259
 21
0.206675609679555
 72
     1
 10
1.276218854756259
 20
0.206675609679555
 11
1.284521133704611
 21
0.206675609679555
 72
     1
 10
1.284521133704611
 20
0.206675609679555
 11
1.291890572321688
 21
0.206675609679555
 72
     1
 10
1.291890572321688
 20
0.206675609679555
 11
1.298140602541234
 21
0.206675609679555
 72
     1
 10
1.298140602541234
 20
0.206675609679555
 11
1.30289808823074
 21
0.206675609679555
 72
     1
 10
1.30289808823074
 20
0.206675609679555
 11
1.305976461323949
 21
0.206675609679555
 72
     1
 10
1.305976461323949
 20
0.206675609679555
 11
1.30709586972148
 21
0.206675609679555
 72
     1
 10
1.307095869721479
 20
0.206675609679555
 11
1.307095869721479
 21
0.2277578011663822
 72
     1
 10
1.307095869721479
 20
0.2277578011663825
 11
1.304577200827036
 21
0.2277578011663825
 72
     1
 10
1.304577200827037
 20
0.2277578011663825
 11
1.182188549363684
 21
0.2277578011663825
 72
     1
 10
1.182188549363684
 20
0.2277578011663825
 11
1.182188549363684
 21
0.0926825211976832
 72
     1
 10
1.182188549363684
 20
0.0926825211976832
 11
1.311853355410986
 21
0.0926825211976832
 72
     1
 10
1.311853355410985
 20
0.0926825211976832
 11
1.311853355410985
 21
0.113671428651383
 72
     1
 10
1.311853355410985
 20
0.1136714286513832
 11
1.310733947013454
 21
0.1136714286513832
 72
     1
 10
1.310733947013455
 20
0.1136714286513832
 11
1.307469005853991
 21
0.1136714286513832
 72
     1
 10
1.307469005853991
 20
0.1136714286513832
 11
1.302431668065102
 21
0.1136714286513832
 72
     1
 10
1.302431668065103
 20
0.1136714286513832
 11
1.295901785746174
 21
0.1136714286513832
 72
     1
 10
1.295901785746174
 20
0.1136714286513832
 11
1.288159210996586
 21
0.1136714286513832
 72
     1
 10
1.288159210996587
 20
0.1136714286513832
 11
1.279483795915724
 21
0.1136714286513832
 72
     1
 10
1.279483795915723
 20
0.1136714286513832
 11
1.270155392602968
 21
0.1136714286513832
 72
     1
 10
1.270155392602969
 20
0.1136714286513832
 11
1.260547137190832
 21
0.1136714286513832
 72
     1
 10
1.260547137190831
 20
0.1136714286513832
 11
1.250752313712437
 21
0.1136714286513832
 72
     1
 10
1.250752313712437
 20
0.1136714286513832
 11
1.241330626366554
 21
0.1136714286513832
 72
     1
 10
1.241330626366555
 20
0.1136714286513832
 11
1.23237535918631
 21
0.1136714286513832
 72
     1
 10
1.232375359186308
 20
0.1136714286513832
 11
1.224166364271082
 21
0.1136714286513832
 72
     1
 10
1.224166364271083
 20
0.1136714286513832
 11
1.217170061786517
 21
0.1136714286513832
 72
     1
 10
1.217170061786517
 20
0.1136714286513832
 11
1.211479735765737
 21
0.1136714286513832
 72
     1
 10
1.211479735765737
 20
0.1136714286513832
 11
1.20756180637438
 21
0.1136714286513832
 72
     1
 10
1.207561806374379
 20
0.1136714286513832
 11
1.2056028416787
 21
0.1136714286513832
 72
     1
 10
1.205602841678699
 20
0.1136714286513832
 11
1.205602841678699
 21
0.1163766656120825
 72
     1
 10
1.205602841678699
 20
0.1163766656120823
 11
1.205602841678699
 21
0.1209475832353323
 72
     1
 10
1.205602841678699
 20
0.1209475832353325
 11
1.205602841678699
 21
0.1267311932892411
 72
     1
 10
1.205602841678699
 20
0.1267311932892408
 11
1.205602841678699
 21
0.1330745075419143
 72
     1
 10
1.205602841678699
 20
0.1330745075419144
 11
1.205602841678699
 21
0.1395111058277156
 72
     1
 10
1.205602841678699
 20
0.1395111058277158
 11
1.205602841678699
 21
0.1452947158816239
 72
     1
 10
1.205602841678699
 20
0.145294715881624
 11
1.205602841678699
 21
0.1498656335048746
 72
     1
 10
1.205602841678699
 20
0.1498656335048745
 11
1.205602841678699
 21
0.1525708704655738
 97
        0
 75
     0
 76
     1
 98
        1
 10
-0.3743130907707726
 20
-0.2500502867693841
450
        0
451
        0
460
0.0
461
0.0
452
        0
462
0.0
453
        0
470

1001
ACAD
1010
0.0
1020
0.0
1030
0.0
  0
HATCH
  5
D673
330
D66D
100
AcDbEntity
  8
Kawneer Logo-English
100
AcDbHatch
 10
0.0
 20
0.0
 30
0.0
210
0.0
220
0.0
230
1.0
  2
SOLID
 70
     1
 71
     0
 91
        1
 92
        1
 93
       87
 72
     1
 10
1.049352086190046
 20
0.1525708704655737
 11
1.051217766852597
 21
0.1525708704655737
 72
     1
 10
1.051217766852596
 20
0.1525708704655737
 11
1.054949128177699
 21
0.1525708704655737
 72
     1
 10
1.0549491281777
 20
0.1525708704655737
 11
1.060173034032843
 21
0.1525708704655737
 72
     1
 10
1.060173034032843
 20
0.1525708704655737
 11
1.0667962003849
 21
0.1525708704655737
 72
     1
 10
1.0667962003849
 20
0.1525708704655737
 11
1.074352207068231
 21
0.1525708704655737
 72
     1
 10
1.074352207068232
 20
0.1525708704655737
 11
1.082747770049711
 21
0.1525708704655737
 72
     1
 10
1.082747770049711
 20
0.1525708704655737
 11
1.0915164691637
 21
0.1525708704655737
 72
     1
 10
1.091516469163701
 20
0.1525708704655737
 11
1.100565020377075
 21
0.1525708704655737
 72
     1
 10
1.100565020377073
 20
0.1525708704655737
 11
1.109520287557319
 21
0.1525708704655737
 72
     1
 10
1.10952028755732
 20
0.1525708704655737
 11
1.118195702638183
 21
0.1525708704655737
 72
     1
 10
1.118195702638182
 20
0.1525708704655737
 11
1.126218129487151
 21
0.1525708704655737
 72
     1
 10
1.126218129487152
 20
0.1525708704655737
 11
1.133401000037974
 21
0.1525708704655737
 72
     1
 10
1.133401000037974
 20
0.1525708704655737
 11
1.139557746224391
 21
0.1525708704655737
 72
     1
 10
1.139557746224392
 20
0.1525708704655737
 11
1.14422194788077
 21
0.1525708704655737
 72
     1
 10
1.144221947880769
 20
0.1525708704655737
 11
1.147207036940851
 21
0.1525708704655737
 72
     1
 10
1.147207036940852
 20
0.1525708704655737
 11
1.148233161305255
 21
0.1525708704655737
 72
     1
 10
1.148233161305255
 20
0.1525708704655737
 11
1.148233161305255
 21
0.1730000737205081
 72
     1
 10
1.148233161305255
 20
0.1730000737205078
 11
1.147207036940852
 21
0.1730000737205078
 72
     1
 10
1.147207036940852
 20
0.1730000737205078
 11
1.14422194788077
 21
0.1730000737205078
 72
     1
 10
1.144221947880769
 20
0.1730000737205078
 11
1.139557746224391
 21
0.1730000737205078
 72
     1
 10
1.139557746224392
 20
0.1730000737205078
 11
1.133494284071101
 21
0.1730000737205078
 72
     1
 10
1.133494284071101
 20
0.1730000737205078
 11
1.126218129487152
 21
0.1730000737205078
 72
     1
 10
1.126218129487152
 20
0.1730000737205078
 11
1.118195702638183
 21
0.1730000737205078
 72
     1
 10
1.118195702638182
 20
0.1730000737205078
 11
1.10952028755732
 21
0.1730000737205078
 72
     1
 10
1.10952028755732
 20
0.1730000737205078
 11
1.100565020377074
 21
0.1730000737205078
 72
     1
 10
1.100565020377073
 20
0.1730000737205078
 11
1.0915164691637
 21
0.1730000737205078
 72
     1
 10
1.091516469163701
 20
0.1730000737205078
 11
1.082747770049712
 21
0.1730000737205078
 72
     1
 10
1.082747770049711
 20
0.1730000737205078
 11
1.074352207068231
 21
0.1730000737205078
 72
     1
 10
1.074352207068232
 20
0.1730000737205078
 11
1.0667962003849
 21
0.1730000737205078
 72
     1
 10
1.0667962003849
 20
0.1730000737205078
 11
1.060173034032843
 21
0.1730000737205078
 72
     1
 10
1.060173034032843
 20
0.1730000737205078
 11
1.054949128177701
 21
0.1730000737205078
 72
     1
 10
1.0549491281777
 20
0.1730000737205078
 11
1.051217766852597
 21
0.1730000737205078
 72
     1
 10
1.051217766852596
 20
0.1730000737205078
 11
1.049352086190045
 21
0.1730000737205078
 72
     1
 10
1.049352086190046
 20
0.1730000737205078
 11
1.049352086190046
 21
0.1754254585818243
 72
     1
 10
1.049352086190046
 20
0.1754254585818245
 11
1.049352086190046
 21
0.1794366720063095
 72
     1
 10
1.049352086190046
 20
0.1794366720063094
 11
1.049352086190046
 21
0.1843807257620694
 72
     1
 10
1.049352086190046
 20
0.1843807257620694
 11
1.049352086190046
 21
0.1898844837165951
 72
     1
 10
1.049352086190046
 20
0.1898844837165951
 11
1.049352086190046
 21
0.1952949576379935
 72
     1
 10
1.049352086190046
 20
0.1952949576379937
 11
1.049352086190046
 21
0.2003322954268815
 72
     1
 10
1.049352086190046
 20
0.2003322954268814
 11
1.049352086190046
 21
0.2042502248182386
 72
     1
 10
1.049352086190046
 20
0.2042502248182386
 11
1.049352086190046
 21
0.206675609679555
 72
     1
 10
1.049352086190046
 20
0.206675609679555
 11
1.051217766852597
 21
0.206675609679555
 72
     1
 10
1.051217766852596
 20
0.206675609679555
 11
1.055042412210825
 21
0.206675609679555
 72
     1
 10
1.055042412210827
 20
0.206675609679555
 11
1.060452886132226
 21
0.206675609679555
 72
     1
 10
1.060452886132225
 20
0.206675609679555
 11
1.067169336517409
 21
0.206675609679555
 72
     1
 10
1.06716933651741
 20
0.206675609679555
 11
1.075005195300124
 21
0.206675609679555
 72
     1
 10
1.075005195300123
 20
0.206675609679555
 11
1.083494042314731
 21
0.206675609679555
 72
     1
 10
1.083494042314732
 20
0.206675609679555
 11
1.092542593528105
 21
0.206675609679555
 72
     1
 10
1.092542593528106
 20
0.206675609679555
 11
1.10187099684086
 21
0.206675609679555
 72
     1
 10
1.101870996840861
 20
0.206675609679555
 11
1.111106116120489
 21
0.206675609679555
 72
     1
 10
1.111106116120488
 20
0.206675609679555
 11
1.119968099267605
 21
0.206675609679555
 72
     1
 10
1.119968099267605
 20
0.206675609679555
 11
1.128270378215957
 21
0.206675609679555
 72
     1
 10
1.128270378215957
 20
0.206675609679555
 11
1.135639816833034
 21
0.206675609679555
 72
     1
 10
1.135639816833034
 20
0.206675609679555
 11
1.14188984705258
 21
0.206675609679555
 72
     1
 10
1.141889847052581
 20
0.206675609679555
 11
1.146647332742086
 21
0.206675609679555
 72
     1
 10
1.146647332742086
 20
0.206675609679555
 11
1.149725705835295
 21
0.206675609679555
 72
     1
 10
1.149725705835296
 20
0.206675609679555
 11
1.150845114232827
 21
0.206675609679555
 72
     1
 10
1.150845114232826
 20
0.206675609679555
 11
1.150845114232826
 21
0.2277578011663822
 72
     1
 10
1.150845114232826
 20
0.2277578011663825
 11
1.148326445338383
 21
0.2277578011663825
 72
     1
 10
1.148326445338383
 20
0.2277578011663825
 11
1.025937793875031
 21
0.2277578011663825
 72
     1
 10
1.025937793875032
 20
0.2277578011663825
 11
1.025937793875032
 21
0.0926825211976832
 72
     1
 10
1.025937793875032
 20
0.0926825211976832
 11
1.155602599922332
 21
0.0926825211976832
 72
     1
 10
1.155602599922332
 20
0.0926825211976832
 11
1.155602599922332
 21
0.113671428651383
 72
     1
 10
1.155602599922332
 20
0.1136714286513832
 11
1.154483191524801
 21
0.1136714286513832
 72
     1
 10
1.154483191524799
 20
0.1136714286513832
 11
1.151218250365336
 21
0.1136714286513832
 72
     1
 10
1.151218250365338
 20
0.1136714286513832
 11
1.146180912576449
 21
0.1136714286513832
 72
     1
 10
1.146180912576449
 20
0.1136714286513832
 11
1.13965103025752
 21
0.1136714286513832
 72
     1
 10
1.13965103025752
 20
0.1136714286513832
 11
1.131908455507932
 21
0.1136714286513832
 72
     1
 10
1.131908455507931
 20
0.1136714286513832
 11
1.12323304042707
 21
0.1136714286513832
 72
     1
 10
1.123233040427071
 20
0.1136714286513832
 11
1.113904637114314
 21
0.1136714286513832
 72
     1
 10
1.113904637114314
 20
0.1136714286513832
 11
1.104296381702177
 21
0.1136714286513832
 72
     1
 10
1.104296381702177
 20
0.1136714286513832
 11
1.094501558223783
 21
0.1136714286513832
 72
     1
 10
1.094501558223784
 20
0.1136714286513832
 11
1.085079870877901
 21
0.1136714286513832
 72
     1
 10
1.085079870877899
 20
0.1136714286513832
 11
1.076124603697654
 21
0.1136714286513832
 72
     1
 10
1.076124603697655
 20
0.1136714286513832
 11
1.067915608782429
 21
0.1136714286513832
 72
     1
 10
1.067915608782429
 20
0.1136714286513832
 11
1.060919306297863
 21
0.1136714286513832
 72
     1
 10
1.060919306297863
 20
0.1136714286513832
 11
1.055228980277083
 21
0.1136714286513832
 72
     1
 10
1.055228980277082
 20
0.1136714286513832
 11
1.051311050885725
 21
0.1136714286513832
 72
     1
 10
1.051311050885726
 20
0.1136714286513832
 11
1.049352086190046
 21
0.1136714286513832
 72
     1
 10
1.049352086190046
 20
0.1136714286513832
 11
1.049352086190046
 21
0.1163766656120825
 72
     1
 10
1.049352086190046
 20
0.1163766656120823
 11
1.049352086190046
 21
0.1209475832353323
 72
     1
 10
1.049352086190046
 20
0.1209475832353325
 11
1.049352086190046
 21
0.1267311932892411
 72
     1
 10
1.049352086190046
 20
0.1267311932892408
 11
1.049352086190046
 21
0.1330745075419143
 72
     1
 10
1.049352086190046
 20
0.1330745075419144
 11
1.049352086190046
 21
0.1395111058277156
 72
     1
 10
1.049352086190046
 20
0.1395111058277158
 11
1.049352086190046
 21
0.1452947158816239
 72
     1
 10
1.049352086190046
 20
0.145294715881624
 11
1.049352086190046
 21
0.1498656335048746
 72
     1
 10
1.049352086190046
 20
0.1498656335048745
 11
1.049352086190046
 21
0.1525708704655738
 97
        0
 75
     0
 76
     1
 98
        1
 10
-0.3743130907707726
 20
-0.2500502867693841
450
        0
451
        0
460
0.0
461
0.0
452
        0
462
0.0
453
        0
470

1001
ACAD
1010
0.0
1020
0.0
1030
0.0
  0
HATCH
  5
D674
330
D66D
100
AcDbEntity
  8
Kawneer Logo-English
100
AcDbHatch
 10
0.0
 20
0.0
 30
0.0
210
0.0
220
0.0
230
1.0
  2
SOLID
 70
     1
 71
     0
 91
        1
 92
        1
 93
       42
 72
     1
 10
0.9725793269260698
 20
0.2277578011663825
 11
0.9725793269260698
 21
0.1354998924032311
 72
     1
 10
0.9725793269260698
 20
0.1354998924032311
 11
0.9729524630585808
 21
0.1264513411898582
 72
     1
 10
0.9729524630585796
 20
0.1264513411898583
 11
0.9729524630585796
 21
0.1255185008585825
 72
     1
 10
0.9729524630585796
 20
0.1255185008585824
 11
0.9731390311248343
 21
0.1238393882622866
 72
     1
 10
0.9731390311248349
 20
0.1238393882622866
 11
0.9717397706279211
 21
0.1254252168254551
 72
     1
 10
0.97173977062792
 20
0.1254252168254551
 11
0.9710867823960281
 21
0.1262647731236031
 72
     1
 10
0.9710867823960294
 20
0.1262647731236031
 11
0.9641837639445897
 21
0.1339140638400625
 72
     1
 10
0.9641837639445899
 20
0.1339140638400624
 11
0.8755639324734129
 21
0.2277578011663823
 72
     1
 10
0.8755639324734115
 20
0.2277578011663825
 11
0.8529891964565429
 21
0.2277578011663825
 72
     1
 10
0.8529891964565434
 20
0.2277578011663825
 11
0.8529891964565434
 21
0.0926825211976832
 72
     1
 10
0.8529891964565434
 20
0.0926825211976832
 11
0.8756572165065401
 21
0.0926825211976832
 72
     1
 10
0.875657216506541
 20
0.0926825211976832
 11
0.875657216506541
 21
0.1927762887435495
 72
     1
 10
0.875657216506541
 20
0.1927762887435495
 11
0.875657216506541
 21
0.1931494248760597
 72
     1
 10
0.875657216506541
 20
0.1931494248760596
 11
0.8755639324734129
 21
0.193988981174208
 72
     1
 10
0.8755639324734115
 20
0.1939889811742079
 11
0.8754706484402849
 21
0.1952949576379935
 72
     1
 10
0.8754706484402859
 20
0.1952949576379937
 11
0.8753773644071577
 21
0.1967875021680344
 72
     1
 10
0.875377364407158
 20
0.1967875021680343
 11
0.8755639324734126
 21
0.1965076500686515
 72
     1
 10
0.8755639324734115
 20
0.1965076500686517
 11
0.8756572165065396
 21
0.1963210820023967
 72
     1
 10
0.875657216506541
 20
0.1963210820023967
 11
0.8764967728046894
 21
0.1954815257042487
 72
     1
 10
0.8764967728046887
 20
0.1954815257042488
 11
0.8781758854009835
 21
0.1936158450416976
 72
     1
 10
0.8781758854009842
 20
0.1936158450416973
 11
0.8797617139641527
 21
0.1917501643791464
 72
     1
 10
0.879761713964152
 20
0.1917501643791466
 11
0.8805079862291723
 21
0.1909106080809982
 72
     1
 10
0.8805079862291727
 20
0.190910608080998
 11
0.8816273946267036
 21
0.1897911996834678
 72
     1
 10
0.8816273946267028
 20
0.1897911996834681
 11
0.884519199653657
 21
0.1867128265902584
 72
     1
 10
0.8845191996536581
 20
0.1867128265902582
 11
0.8891834013100353
 21
0.1818620568676254
 72
     1
 10
0.889183401310035
 20
0.1818620568676252
 11
0.8951535794301982
 21
0.1756120266480794
 72
     1
 10
0.8951535794301985
 20
0.1756120266480794
 11
0.9021498819147662
 21
0.1681493039978751
 72
     1
 10
0.9021498819147669
 20
0.1681493039978752
 11
0.9099857406974814
 21
0.1598470250495227
 72
     1
 10
0.9099857406974813
 20
0.1598470250495225
 11
0.9183813036789613
 21
0.1509850419024051
 72
     1
 10
0.9183813036789612
 20
0.1509850419024052
 11
0.9271500027929521
 21
0.1418432066559046
 72
     1
 10
0.9271500027929509
 20
0.1418432066559046
 11
0.9358254178738118
 21
0.1326080873762767
 72
     1
 10
0.9358254178738132
 20
0.1326080873762767
 11
0.9442209808552931
 21
0.1237461042291589
 72
     1
 10
0.9442209808552931
 20
0.1237461042291589
 11
0.9520568396380092
 21
0.1154438252808068
 72
     1
 10
0.9520568396380092
 20
0.1154438252808068
 11
0.9590531421225751
 21
0.1079811026306025
 72
     1
 10
0.959053142122574
 20
0.1079811026306024
 11
0.9650233202427372
 21
0.101731072411056
 72
     1
 10
0.9650233202427376
 20
0.101731072411056
 11
0.9695942378659868
 21
0.0968803026884232
 72
     1
 10
0.9695942378659871
 20
0.096880302688423
 11
0.9725793269260696
 21
0.0938019295952138
 72
     1
 10
0.9725793269260698
 20
0.093801929595214
 11
0.9736054512904727
 21
0.0926825211976834
 72
     1
 10
0.9736054512904726
 20
0.0926825211976832
 11
0.9952473469760661
 21
0.0926825211976832
 72
     1
 10
0.9952473469760651
 20
0.0926825211976832
 11
0.9952473469760651
 21
0.2277578011663825
 72
     1
 10
0.9952473469760651
 20
0.2277578011663825
 11
0.9927286780816201
 21
0.2277578011663825
 72
     1
 10
0.9927286780816203
 20
0.2277578011663825
 11
0.9725793269260686
 21
0.2277578011663825
 97
        0
 75
     0
 76
     1
 98
        1
 10
-0.3743130907707726
 20
-0.2500502867693841
450
        0
451
        0
460
0.0
461
0.0
452
        0
462
0.0
453
        0
470

1001
ACAD
1010
0.0
1020
0.0
1030
0.0
  0
HATCH
  5
D675
330
D66D
100
AcDbEntity
  8
Kawneer Logo-English
100
AcDbHatch
 10
0.0
 20
0.0
 30
0.0
210
0.0
220
0.0
230
1.0
  2
SOLID
 70
     1
 71
     0
 91
        2
 92
       16
 93
       32
 72
     1
 10
0.5269615006757409
 20
0.144641727649731
 11
0.5290137494045469
 21
0.148652941074216
 72
     1
 10
0.5290137494045464
 20
0.1486529410742159
 11
0.5322786905640116
 21
0.1551828233931449
 72
     1
 10
0.532278690564012
 20
0.1551828233931452
 11
0.5364764720547521
 21
0.1633918183083696
 72
     1
 10
0.5364764720547526
 20
0.1633918183083696
 11
0.5409541056448736
 21
0.1722538014554874
 72
     1
 10
0.5409541056448726
 20
0.1722538014554873
 11
0.545338455201869
 21
0.1808359325032223
 72
     1
 10
0.5453384552018701
 20
0.1808359325032223
 11
0.5490698165269726
 21
0.1882053711202994
 72
     1
 10
0.549069816526973
 20
0.1882053711202996
 11
0.5515884854214162
 21
0.1932427089091875
 72
     1
 10
0.5515884854214148
 20
0.1932427089091872
 11
0.5526146097858177
 21
0.1952016736048658
 72
     1
 10
0.5526146097858194
 20
0.1952016736048658
 11
0.552801177852074
 21
0.195761377803631
 72
     1
 10
0.5528011778520723
 20
0.1957613778036309
 11
0.5533608820508379
 21
0.1970673542674166
 72
     1
 10
0.5533608820508378
 20
0.1970673542674169
 11
0.5542004383489863
 21
0.1990263189630955
 72
     1
 10
0.5542004383489872
 20
0.1990263189630952
 11
0.5550399946471356
 21
0.2012651357581567
 72
     1
 10
0.5550399946471352
 20
0.2012651357581567
 11
0.5555064148127727
 21
0.2001457273606265
 72
     1
 10
0.5555064148127729
 20
0.2001457273606264
 11
0.5560661190115385
 21
0.198933034929968
 72
     1
 10
0.5560661190115379
 20
0.198933034929968
 11
0.5567191072434298
 21
0.197533774433055
 72
     1
 10
0.5567191072434304
 20
0.197533774433055
 11
0.5574653795084506
 21
0.1959479458698865
 72
     1
 10
0.557465379508451
 20
0.1959479458698865
 11
0.5583049358065995
 21
0.1942688332735902
 72
     1
 10
0.5583049358065986
 20
0.1942688332735903
 11
0.5606370366347874
 21
0.1896046316172126
 72
     1
 10
0.5606370366347871
 20
0.1896046316172126
 11
0.5639952618273804
 21
0.1828881812320289
 72
     1
 10
0.5639952618273814
 20
0.1828881812320287
 11
0.5680064752518651
 21
0.1748657543830587
 72
     1
 10
0.5680064752518637
 20
0.1748657543830589
 11
0.57239082480886
 21
0.1661903393021966
 72
     1
 10
0.5723908248088612
 20
0.1661903393021967
 11
0.5765886062996012
 21
0.1577947763207168
 72
     1
 10
0.5765886062996
 20
0.1577947763207165
 11
0.5803199676247008
 21
0.1503320536705122
 72
     1
 10
0.5803199676247015
 20
0.1503320536705122
 11
0.5831184886185295
 21
0.144641727649731
 72
     1
 10
0.5831184886185295
 20
0.144641727649731
 11
0.5791072751940441
 21
0.144641727649731
 72
     1
 10
0.5791072751940436
 20
0.144641727649731
 11
0.5724841088419869
 21
0.144641727649731
 72
     1
 10
0.5724841088419872
 20
0.144641727649731
 11
0.5641818298936356
 21
0.144641727649731
 72
     1
 10
0.5641818298936352
 20
0.144641727649731
 11
0.5550399946471351
 21
0.144641727649731
 72
     1
 10
0.5550399946471352
 20
0.144641727649731
 11
0.5458981594006351
 21
0.144641727649731
 72
     1
 10
0.5458981594006352
 20
0.144641727649731
 11
0.5375958804522815
 21
0.144641727649731
 72
     1
 10
0.5375958804522814
 20
0.144641727649731
 11
0.5310659981333528
 21
0.144641727649731
 72
     1
 10
0.5310659981333524
 20
0.144641727649731
 11
0.5269615006757405
 21
0.144641727649731
 97
        0
 92
        1
 93
      141
 72
     1
 10
0.5656743744236757
 20
0.2277578011663825
 11
0.544405614870593
 21
0.2277578011663825
 72
     1
 10
0.544405614870593
 20
0.2277578011663825
 11
0.4748157261574382
 21
0.0934287934627039
 72
     1
 10
0.4748157261574378
 20
0.0934287934627039
 11
0.4729500454948865
 21
0.0955743262246376
 72
     1
 10
0.4729500454948874
 20
0.0955743262246376
 11
0.4699649564348049
 21
0.0991191194834847
 72
     1
 10
0.4699649564348043
 20
0.0991191194834847
 11
0.4661403110765752
 21
0.1036900371067346
 72
     1
 10
0.4661403110765754
 20
0.1036900371067347
 11
0.4615693934533244
 21
0.1091005110281331
 72
     1
 10
0.461569393453325
 20
0.109100511028133
 11
0.456345487598182
 21
0.1152572572145517
 72
     1
 10
0.4563454875981812
 20
0.1152572572145516
 11
0.4506551615774008
 21
0.1219737075997353
 72
     1
 10
0.4506551615774015
 20
0.1219737075997354
 11
0.4447782674903648
 21
0.1290632941174296
 72
     1
 10
0.4447782674903636
 20
0.1290632941174296
 11
0.4387148053370722
 21
0.1362461646682511
 72
     1
 10
0.4387148053370727
 20
0.1362461646682512
 11
0.4326513431837832
 21
0.1433357511859454
 72
     1
 10
0.4326513431837844
 20
0.1433357511859453
 11
0.4268677331298759
 21
0.1502387696373844
 72
     1
 10
0.4268677331298756
 20
0.1502387696373844
 11
0.4214572592084763
 21
0.1566753679231857
 72
     1
 10
0.4214572592084754
 20
0.1566753679231858
 11
0.4165132054527153
 21
0.1625522620102216
 72
     1
 10
0.4165132054527163
 20
0.1625522620102216
 11
0.4123154239619763
 21
0.1674963157659821
 72
     1
 10
0.4123154239619753
 20
0.1674963157659822
 11
0.4088639147362555
 21
0.1715075291904667
 72
     1
 10
0.4088639147362568
 20
0.1715075291904669
 11
0.4065318139080681
 21
0.1743993342174211
 72
     1
 10
0.4065318139080665
 20
0.1743993342174211
 11
0.405319121477409
 21
0.1757985947143345
 72
     1
 10
0.4053191214774104
 20
0.1757985947143345
 11
0.4067183819743243
 21
0.1769180031118651
 72
     1
 10
0.4067183819743235
 20
0.1769180031118651
 11
0.4094236189350213
 21
0.1788769678075437
 72
     1
 10
0.4094236189350218
 20
0.1788769678075437
 11
0.4132482642932526
 21
0.1816754888013702
 72
     1
 10
0.4132482642932525
 20
0.1816754888013703
 11
0.4179124659496298
 21
0.1852202820602174
 72
     1
 10
0.417912465949629
 20
0.1852202820602174
 11
0.4232296558379
 21
0.189138211451575
 72
     1
 10
0.4232296558379001
 20
0.1891382114515751
 11
0.4291065499249351
 21
0.1935225610085696
 72
     1
 10
0.4291065499249367
 20
0.1935225610085698
 11
0.4352632961113562
 21
0.1981867626649482
 72
     1
 10
0.4352632961113554
 20
0.1981867626649479
 11
0.4416066103640296
 21
0.2028509643213252
 72
     1
 10
0.4416066103640293
 20
0.2028509643213252
 11
0.4479499246167016
 21
0.2076084500108307
 72
     1
 10
0.4479499246167018
 20
0.2076084500108307
 11
0.4540133867699932
 21
0.2120860836009535
 72
     1
 10
0.4540133867699927
 20
0.2120860836009535
 11
0.4596104287576467
 21
0.2162838650916932
 72
     1
 10
0.4596104287576468
 20
0.216283865091693
 11
0.4646477665465351
 21
0.2200152264167952
 72
     1
 10
0.464647766546535
 20
0.2200152264167951
 11
0.4689388320704013
 21
0.223186883543132
 72
     1
 10
0.4689388320704016
 20
0.2231868835431323
 11
0.4721104891967386
 21
0.2256122684044488
 72
     1
 10
0.4721104891967376
 20
0.2256122684044488
 11
0.4742560219586717
 21
0.2271980969676172
 72
     1
 10
0.4742560219586727
 20
0.2271980969676173
 11
0.475002294223693
 21
0.2277578011663825
 72
     1
 10
0.4750022942236929
 20
0.2277578011663825
 11
0.4674462875403612
 21
0.2277578011663825
 72
     1
 10
0.4674462875403611
 20
0.2277578011663825
 11
0.4395543616352215
 21
0.2277578011663825
 72
     1
 10
0.439554361635222
 20
0.2277578011663825
 11
0.4386215213039473
 21
0.2270115289013622
 72
     1
 10
0.4386215213039466
 20
0.2270115289013622
 11
0.4359162843432469
 21
0.2250525642056836
 72
     1
 10
0.4359162843432465
 20
0.2250525642056836
 11
0.4318117868856346
 21
0.2220674751456017
 72
     1
 10
0.4318117868856351
 20
0.2220674751456017
 11
0.4264013129642376
 21
0.2180562617211167
 72
     1
 10
0.4264013129642379
 20
0.2180562617211168
 11
0.4200579987115638
 21
0.2132987760316117
 72
     1
 10
0.4200579987115641
 20
0.2132987760316114
 11
0.4128751281607416
 21
0.2079815861433408
 72
     1
 10
0.4128751281607408
 20
0.2079815861433408
 11
0.4051325534111546
 21
0.20229126012256
 72
     1
 10
0.4051325534111552
 20
0.20229126012256
 11
0.397016842529058
 21
0.1963210820023964
 72
     1
 10
0.3970168425290583
 20
0.1963210820023967
 11
0.3889011316469611
 21
0.1903509038822331
 72
     1
 10
0.3889011316469611
 20
0.190350903882233
 11
0.3808787047979902
 21
0.1844740097951972
 72
     1
 10
0.3808787047979898
 20
0.1844740097951974
 11
0.3733226981146581
 21
0.1787836837744166
 72
     1
 10
0.373322698114658
 20
0.1787836837744166
 11
0.3663263956300919
 21
0.173653061952401
 72
     1
 10
0.3663263956300931
 20
0.173653061952401
 11
0.3601696494436735
 21
0.169082144329151
 72
     1
 10
0.3601696494436726
 20
0.1690821443291508
 11
0.3550390276216579
 21
0.1653507830040483
 72
     1
 10
0.3550390276216584
 20
0.1653507830040482
 11
0.3513076662965558
 21
0.1625522620102218
 72
     1
 10
0.3513076662965551
 20
0.1625522620102216
 11
0.3490688495014928
 21
0.1609664334470531
 72
     1
 10
0.3490688495014926
 20
0.1609664334470531
 11
0.3490688495014926
 21
0.1631119662089868
 72
     1
 10
0.3490688495014926
 20
0.1631119662089868
 11
0.3490688495014926
 21
0.1662836233353237
 72
     1
 10
0.3490688495014926
 20
0.1662836233353238
 11
0.3490688495014926
 21
0.1702948367598088
 72
     1
 10
0.3490688495014926
 20
0.1702948367598088
 11
0.3490688495014926
 21
0.1749590384161865
 72
     1
 10
0.3490688495014926
 20
0.1749590384161865
 11
0.3490688495014926
 21
0.1801829442713294
 72
     1
 10
0.3490688495014926
 20
0.1801829442713296
 11
0.3490688495014926
 21
0.185779986258983
 72
     1
 10
0.3490688495014926
 20
0.1857799862589829
 11
0.3490688495014926
 21
0.1916568803460187
 72
     1
 10
0.3490688495014926
 20
0.1916568803460186
 11
0.3490688495014926
 21
0.1975337744330549
 72
     1
 10
0.3490688495014926
 20
0.197533774433055
 11
0.3490688495014926
 21
0.2033173844869632
 72
     1
 10
0.3490688495014926
 20
0.2033173844869631
 11
0.3490688495014926
 21
0.2088211424414888
 72
     1
 10
0.3490688495014926
 20
0.2088211424414888
 11
0.3490688495014926
 21
0.2139517642635044
 72
     1
 10
0.3490688495014926
 20
0.2139517642635044
 11
0.3490688495014926
 21
0.2185226818867544
 72
     1
 10
0.3490688495014926
 20
0.2185226818867545
 11
0.3490688495014926
 21
0.2222540432118567
 72
     1
 10
0.3490688495014926
 20
0.2222540432118567
 11
0.3490688495014926
 21
0.2252391322719387
 72
     1
 10
0.3490688495014926
 20
0.2252391322719387
 11
0.3490688495014926
 21
0.2271048129344895
 72
     1
 10
0.3490688495014926
 20
0.2271048129344895
 11
0.3490688495014926
 21
0.2277578011663825
 72
     1
 10
0.3490688495014926
 20
0.2277578011663825
 11
0.3258411252527322
 21
0.2277578011663825
 72
     1
 10
0.3258411252527336
 20
0.2277578011663825
 11
0.3258411252527336
 21
0.0926825211976832
 72
     1
 10
0.3258411252527336
 20
0.0926825211976832
 11
0.3486957133689848
 21
0.0926825211976832
 72
     1
 10
0.3486957133689845
 20
0.0926825211976832
 11
0.3486957133689845
 21
0.0943616337939795
 72
     1
 10
0.3486957133689845
 20
0.0943616337939795
 11
0.3486957133689845
 21
0.0988392673841017
 72
     1
 10
0.3486957133689845
 20
0.0988392673841017
 11
0.3486957133689845
 21
0.1051825816367752
 72
     1
 10
0.3486957133689845
 20
0.1051825816367753
 11
0.3486957133689845
 21
0.1125520202538523
 72
     1
 10
0.3486957133689845
 20
0.1125520202538524
 11
0.3486957133689845
 21
0.1200147429040567
 72
     1
 10
0.3486957133689845
 20
0.1200147429040567
 11
0.3486957133689845
 21
0.1267311932892408
 72
     1
 10
0.3486957133689845
 20
0.1267311932892408
 11
0.3486957133689845
 21
0.1317685310781287
 72
     1
 10
0.3486957133689845
 20
0.1317685310781289
 11
0.3486957133689845
 21
0.1342871999725727
 72
     1
 10
0.3486957133689845
 20
0.1342871999725725
 11
0.3507479620977905
 21
0.1356864604694859
 72
     1
 10
0.35074796209779
 20
0.1356864604694859
 11
0.3548524595554018
 21
0.1387648335626952
 72
     1
 10
0.3548524595554015
 20
0.1387648335626952
 11
0.3605427855761835
 21
0.1428693310203079
 72
     1
 10
0.3605427855761842
 20
0.1428693310203079
 11
0.3668860998288565
 21
0.1476268167098129
 72
     1
 10
0.3668860998288568
 20
0.1476268167098129
 11
0.373322698114659
 21
0.1522910183661906
 72
     1
 10
0.373322698114658
 20
0.1522910183661908
 11
0.3791995922016947
 21
0.1565820838900582
 72
     1
 10
0.3791995922016946
 20
0.1565820838900582
 11
0.3836772257918156
 21
0.1599403090826502
 72
     1
 10
0.3836772257918159
 20
0.1599403090826503
 11
0.386195894686261
 21
0.1618059897452011
 72
     1
 10
0.3861958946862609
 20
0.1618059897452011
 11
0.3873153030837921
 21
0.1604067292482882
 72
     1
 10
0.3873153030837915
 20
0.1604067292482878
 11
0.3894608358457238
 21
0.1577947763207163
 72
     1
 10
0.3894608358457248
 20
0.1577947763207165
 11
0.3925392089389353
 21
0.1541566990287417
 72
     1
 10
0.3925392089389348
 20
0.1541566990287417
 11
0.396457138330292
 21
0.149492497372364
 72
     1
 10
0.3964571383302933
 20
0.149492497372364
 11
0.4009347719204161
 21
0.1442685915172211
 72
     1
 10
0.4009347719204146
 20
0.1442685915172209
 11
0.4057855416430466
 21
0.138391697430185
 72
     1
 10
0.4057855416430463
 20
0.1383916974301853
 11
0.4109161634650628
 21
0.1322349512437666
 72
     1
 10
0.410916163465064
 20
0.1322349512437666
 11
0.4162333533533335
 21
0.1259849210242201
 72
     1
 10
0.4162333533533334
 20
0.1259849210242201
 11
0.4215505432416044
 21
0.1196416067715466
 72
     1
 10
0.4215505432416045
 20
0.1196416067715466
 11
0.4265878810304927
 21
0.113671428651383
 72
     1
 10
0.4265878810304931
 20
0.1136714286513832
 11
0.4312520826868704
 21
0.1079811026306024
 72
     1
 10
0.4312520826868696
 20
0.1079811026306024
 11
0.4355431482107378
 21
0.1029437648417141
 72
     1
 10
0.435543148210738
 20
0.1029437648417139
 11
0.4390879414695842
 21
0.0987459833509739
 72
     1
 10
0.4390879414695843
 20
0.0987459833509741
 11
0.4417931784302841
 21
0.0954810421915098
 72
     1
 10
0.4417931784302845
 20
0.0954810421915096
 11
0.4435655750597076
 21
0.0934287934627037
 72
     1
 10
0.4435655750597074
 20
0.0934287934627039
 11
0.4442185632915993
 21
0.0926825211976832
 72
     1
 10
0.4442185632915985
 20
0.0926825211976832
 11
0.4743493059918004
 21
0.0926825211976832
 72
     1
 10
0.4743493059918001
 20
0.0926825211976832
 11
0.4753754303562029
 21
0.0926825211976832
 72
     1
 10
0.4753754303562033
 20
0.0926825211976832
 11
0.5008419714000258
 21
0.0926825211976832
 72
     1
 10
0.5008419714000265
 20
0.0926825211976832
 11
0.5014949596319184
 21
0.0939884976614689
 72
     1
 10
0.501494959631919
 20
0.0939884976614688
 11
0.5031740722282155
 21
0.0973467228540609
 72
     1
 10
0.503174072228215
 20
0.0973467228540612
 11
0.5055061730564038
 21
0.1021042085435666
 72
     1
 10
0.505506173056403
 20
0.1021042085435665
 11
0.5083046940502291
 21
0.1077012505312196
 72
     1
 10
0.5083046940502292
 20
0.1077012505312194
 11
0.5111032150440553
 21
0.1134848605851279
 72
     1
 10
0.5111032150440549
 20
0.1134848605851281
 11
0.5137151679716264
 21
0.1186154824071433
 72
     1
 10
0.5137151679716277
 20
0.1186154824071433
 11
0.5156741326673071
 21
0.1226266958316283
 72
     1
 10
0.5156741326673076
 20
0.122626695831628
 11
0.5167002570317104
 21
0.1247722285935621
 72
     1
 10
0.5167002570317103
 20
0.1247722285935622
 11
0.5180062334954961
 21
0.1247722285935622
 72
     1
 10
0.5180062334954961
 20
0.1247722285935622
 11
0.5207114704561957
 21
0.1247722285935622
 72
     1
 10
0.5207114704561944
 20
0.1247722285935622
 11
0.5246293998475517
 21
0.1247722285935622
 72
     1
 10
0.5246293998475525
 20
0.1247722285935622
 11
0.5295734536033125
 21
0.1247722285935622
 72
     1
 10
0.5295734536033115
 20
0.1247722285935622
 11
0.5352637796240919
 21
0.1247722285935622
 72
     1
 10
0.5352637796240929
 20
0.1247722285935622
 11
0.5415138098436386
 21
0.1247722285935622
 72
     1
 10
0.5415138098436394
 20
0.1247722285935622
 11
0.5482302602288245
 21
0.1247722285935622
 72
     1
 10
0.5482302602288236
 20
0.1247722285935622
 11
0.5551332786802616
 21
0.1247722285935622
 72
     1
 10
0.5551332786802608
 20
0.1247722285935622
 11
0.5620362971317004
 21
0.1247722285935622
 72
     1
 10
0.5620362971317015
 20
0.1247722285935622
 11
0.5687527475168847
 21
0.1247722285935622
 72
     1
 10
0.5687527475168839
 20
0.1247722285935622
 11
0.5750027777364317
 21
0.1247722285935622
 72
     1
 10
0.5750027777364322
 20
0.1247722285935622
 11
0.5806931037572126
 21
0.1247722285935622
 72
     1
 10
0.5806931037572119
 20
0.1247722285935622
 11
0.585637157512972
 21
0.1247722285935622
 72
     1
 10
0.5856371575129727
 20
0.1247722285935622
 11
0.5895550869043299
 21
0.1247722285935622
 72
     1
 10
0.5895550869043289
 20
0.1247722285935622
 11
0.5922603238650286
 21
0.1247722285935622
 72
     1
 10
0.5922603238650291
 20
0.1247722285935622
 11
0.5935663003288148
 21
0.1247722285935622
 72
     1
 10
0.5935663003288148
 20
0.1247722285935622
 11
0.5945924246932176
 21
0.1226266958316281
 72
     1
 10
0.5945924246932175
 20
0.122626695831628
 11
0.5965513893888953
 21
0.1186154824071431
 72
     1
 10
0.5965513893888957
 20
0.1186154824071433
 11
0.5991633423164672
 21
0.1134848605851281
 72
     1
 10
0.5991633423164667
 20
0.1134848605851281
 11
0.6019618633102946
 21
0.1077012505312196
 72
     1
 10
0.6019618633102959
 20
0.1077012505312194
 11
0.604760384304122
 21
0.1021042085435664
 72
     1
 10
0.6047603843041221
 20
0.1021042085435665
 11
0.6070924851323109
 21
0.0973467228540611
 72
     1
 10
0.6070924851323101
 20
0.0973467228540612
 11
0.6087715977286067
 21
0.0939884976614691
 72
     1
 10
0.6087715977286062
 20
0.0939884976614688
 11
0.609424585960498
 21
0.0926825211976832
 72
     1
 10
0.6094245859604986
 20
0.0926825211976832
 11
0.6363836715343633
 21
0.0926825211976832
 72
     1
 10
0.6363836715343641
 20
0.0926825211976832
 11
0.5671669189537184
 21
0.2277578011663825
 72
     1
 10
0.5671669189537179
 20
0.2277578011663825
 11
0.5656743744236758
 21
0.2277578011663825
 97
        0
 75
     0
 76
     1
 98
        1
 10
-0.3743130907707726
 20
-0.2500502867693841
450
        0
451
        0
460
0.0
461
0.0
452
        0
462
0.0
453
        0
470

1001
ACAD
1010
0.0
1020
0.0
1030
0.0
  0
HATCH
  5
D676
330
D66D
100
AcDbEntity
  8
Kawneer Logo-English
100
AcDbHatch
 10
0.0
 20
0.0
 30
0.0
210
0.0
220
0.0
230
1.0
  2
SOLID
 70
     1
 71
     0
 91
        1
 92
        1
 93
       69
 72
     1
 10
0.8092389849197205
 20
0.2277578011663825
 11
0.778921674153266
 21
0.1309289747799811
 72
     1
 10
0.778921674153267
 20
0.1309289747799809
 11
0.7781754018882468
 21
0.1287834420180468
 72
     1
 10
0.7781754018882468
 20
0.1287834420180467
 11
0.7776156976894812
 21
0.1270110453886236
 72
     1
 10
0.7776156976894813
 20
0.1270110453886237
 11
0.7771492775238438
 21
0.1253319327923275
 72
     1
 10
0.7771492775238436
 20
0.1253319327923274
 11
0.7766828573582045
 21
0.1238393882622867
 72
     1
 10
0.7766828573582046
 20
0.1238393882622866
 11
0.7764030052588217
 21
0.1248655126266895
 72
     1
 10
0.776403005258822
 20
0.1248655126266896
 11
0.7761231531594392
 21
0.1259849210242202
 72
     1
 10
0.7761231531594391
 20
0.1259849210242201
 11
0.7759365850931844
 21
0.1268244773223681
 72
     1
 10
0.7759365850931843
 20
0.1268244773223682
 11
0.7758433010600562
 21
0.1271976134548783
 72
     1
 10
0.7758433010600552
 20
0.1271976134548783
 11
0.7755634489606744
 21
0.1280371697530267
 72
     1
 10
0.775563448960674
 20
0.1280371697530267
 11
0.7750970287950349
 21
0.1291565781505569
 72
     1
 10
0.7750970287950363
 20
0.1291565781505568
 11
0.773977620397507
 21
0.1323282352768938
 72
     1
 10
0.7739776203975062
 20
0.1323282352768939
 11
0.7721119397349549
 21
0.1372722890326544
 72
     1
 10
0.7721119397349554
 20
0.1372722890326546
 11
0.7697798389067666
 21
0.1436156032853281
 72
     1
 10
0.769779838906767
 20
0.1436156032853281
 11
0.7670746019460673
 21
0.1511716099686602
 72
     1
 10
0.7670746019460668
 20
0.15117160996866
 11
0.7639962288528581
 21
0.1595671729501399
 72
     1
 10
0.7639962288528582
 20
0.15956717295014
 11
0.7606380036602665
 21
0.1686157241635125
 72
     1
 10
0.7606380036602652
 20
0.1686157241635125
 11
0.7572797784676718
 21
0.1778508434431408
 72
     1
 10
0.7572797784676726
 20
0.1778508434431408
 11
0.753921553275081
 21
0.187179246755896
 72
     1
 10
0.7539215532750814
 20
0.1871792467558961
 11
0.7505633280824898
 21
0.1962277979692689
 72
     1
 10
0.7505633280824902
 20
0.1962277979692689
 11
0.7474849549892814
 21
0.2046233609507488
 72
     1
 10
0.7474849549892797
 20
0.2046233609507488
 11
0.74477971802858
 21
0.2121793676340809
 72
     1
 10
0.7447797180285814
 20
0.2121793676340809
 11
0.7424476172003926
 21
0.2185226818867544
 72
     1
 10
0.7424476172003929
 20
0.2185226818867545
 11
0.7405819365378416
 21
0.2234667356425151
 72
     1
 10
0.7405819365378408
 20
0.2234667356425151
 11
0.7394625281403098
 21
0.2266383927688516
 72
     1
 10
0.7394625281403103
 20
0.2266383927688516
 11
0.7390893920078009
 21
0.2277578011663822
 72
     1
 10
0.7390893920078004
 20
0.2277578011663825
 11
0.7191266089185034
 21
0.2277578011663825
 72
     1
 10
0.7191266089185029
 20
0.2277578011663825
 11
0.6843316645619254
 21
0.1336342117406798
 72
     1
 10
0.6843316645619267
 20
0.1336342117406795
 11
0.6832122561643957
 21
0.130649122680598
 72
     1
 10
0.6832122561643961
 20
0.1306491226805981
 11
0.6823726998662476
 21
0.1282237378192816
 72
     1
 10
0.6823726998662468
 20
0.1282237378192818
 11
0.6817197116343549
 21
0.1260782050573481
 72
     1
 10
0.6817197116343552
 20
0.1260782050573481
 11
0.6811600074355896
 21
0.1241192403616695
 72
     1
 10
0.6811600074355884
 20
0.1241192403616695
 11
0.6808801553362055
 21
0.1250520806929446
 72
     1
 10
0.6808801553362059
 20
0.1250520806929445
 11
0.6805070192036949
 21
0.1261714890904751
 72
     1
 10
0.680507019203696
 20
0.1261714890904752
 11
0.6802271671043131
 21
0.1272908974880058
 72
     1
 10
0.680227167104313
 20
0.1272908974880061
 11
0.6798540309718037
 21
0.1286901579849195
 72
     1
 10
0.6798540309718031
 20
0.1286901579849194
 11
0.6794808948392922
 21
0.12980956638245
 72
     1
 10
0.6794808948392932
 20
0.1298095663824503
 11
0.6784547704748904
 21
0.1328879394756595
 72
     1
 10
0.67845477047489
 20
0.1328879394756595
 11
0.6769622259448497
 21
0.1378319932314196
 72
     1
 10
0.6769622259448496
 20
0.1378319932314196
 11
0.6750032612491701
 21
0.1441753074840938
 72
     1
 10
0.6750032612491697
 20
0.1441753074840937
 11
0.6725778763878547
 21
0.1516380301342981
 72
     1
 10
0.6725778763878556
 20
0.1516380301342981
 11
0.6699659234602841
 21
0.160033593115778
 72
     1
 10
0.6699659234602829
 20
0.160033593115778
 11
0.6671674024664549
 21
0.168988860296023
 72
     1
 10
0.6671674024664554
 20
0.168988860296023
 11
0.6642755974395012
 21
0.1782239795756509
 72
     1
 10
0.6642755974395019
 20
0.178223979575651
 11
0.6613837924125477
 21
0.1874590988552789
 72
     1
 10
0.6613837924125466
 20
0.1874590988552789
 11
0.6585852714187205
 21
0.1964143660355239
 72
     1
 10
0.6585852714187204
 20
0.1964143660355237
 11
0.6559733184911489
 21
0.2047166449838762
 72
     1
 10
0.6559733184911494
 20
0.2047166449838765
 11
0.6536412176629606
 21
0.2122726516672082
 72
     1
 10
0.6536412176629614
 20
0.2122726516672082
 11
0.6515889689341538
 21
0.2186159659198823
 72
     1
 10
0.6515889689341537
 20
0.2186159659198821
 11
0.6500964244041133
 21
0.2234667356425149
 72
     1
 10
0.6500964244041132
 20
0.2234667356425151
 11
0.6490703000397104
 21
0.2266383927688516
 72
     1
 10
0.6490703000397105
 20
0.2266383927688516
 11
0.6487904479403276
 21
0.2277578011663822
 72
     1
 10
0.648790447940328
 20
0.2277578011663825
 11
0.6237903270621445
 21
0.2277578011663825
 72
     1
 10
0.6237903270621437
 20
0.2277578011663825
 11
0.6676338226320932
 21
0.0926825211976832
 72
     1
 10
0.6676338226320926
 20
0.0926825211976832
 11
0.6922608073777669
 21
0.0926825211976832
 72
     1
 10
0.6922608073777666
 20
0.0926825211976832
 11
0.726029627369941
 21
0.1855001341596003
 72
     1
 10
0.7260296273699423
 20
0.1855001341596003
 11
0.7269624677012189
 21
0.1882986551534267
 72
     1
 10
0.7269624677012177
 20
0.1882986551534266
 11
0.7278020239993661
 21
0.1906307559816158
 72
     1
 10
0.727802023999367
 20
0.1906307559816159
 11
0.7284550122312589
 21
0.1927762887435496
 72
     1
 10
0.7284550122312581
 20
0.1927762887435495
 11
0.7290147164300237
 21
0.1947352534392281
 72
     1
 10
0.7290147164300232
 20
0.1947352534392282
 11
0.7298542727281716
 21
0.192216584544784
 72
     1
 10
0.729854272728173
 20
0.1922165845447839
 11
0.7306938290263214
 21
0.1894180635509575
 72
     1
 10
0.7306938290263206
 20
0.1894180635509575
 11
0.7318132374238499
 21
0.1863396904577483
 72
     1
 10
0.7318132374238511
 20
0.1863396904577481
 11
0.7331192138876387
 21
0.1827016131657736
 72
     1
 10
0.7331192138876382
 20
0.1827016131657737
 11
0.7654887733828987
 21
0.0926825211976834
 72
     1
 10
0.7654887733828986
 20
0.0926825211976832
 11
0.7895560539298075
 21
0.0926825211976832
 72
     1
 10
0.7895560539298075
 20
0.0926825211976832
 11
0.8341458217647785
 21
0.2277578011663825
 72
     1
 10
0.8341458217647783
 20
0.2277578011663825
 11
0.830601028505932
 21
0.2277578011663825
 72
     1
 10
0.8306010285059324
 20
0.2277578011663825
 11
0.8092389849197216
 21
0.2277578011663825
 97
        0
 75
     0
 76
     1
 98
        1
 10
-0.3743130907707726
 20
-0.2500502867693841
450
        0
451
        0
460
0.0
461
0.0
452
        0
462
0.0
453
        0
470

1001
ACAD
1010
0.0
1020
0.0
1030
0.0
  0
ENDBLK
  5
D67A
330
D66D
100
AcDbEntity
  8
0
100
AcDbBlockEnd
  0
ENDSEC
  0
SECTION
  2
ENTITIES
  0
MTEXT
  5
20C5
330
17
100
AcDbEntity
  8
0
 62
     2
100
AcDbMText
 10
36.63591988517536
 20
3.500084836444337
 30
0.0
 40
0.4375
 41
9.6875
 46
0.0
 71
     2
 72
     5
  1
DETAIL SCALE: 1" = 1"
 73
     1
 44
1.0
  0
MTEXT
  5
2E0C
330
17
100
AcDbEntity
  8
0
 62
     2
100
AcDbMText
 10
36.98866577649349
 20
6.678436521765597
 30
0.0
 40
0.5
 41
14.21875
 46
0.0
 71
     2
 72
     5
  1
1600 WALL SYSTEM{\H1.0833x;™}2 CURTAIN WALL\P6-34" DEEP (1/4" INFILL)\PTYPICAL SPLICE DETAILS
 73
     1
 44
1.0
  0
TEXT
  5
B4B9
330
17
100
AcDbEntity
  8
0
  6
Continuous
 62
     7
100
AcDbText
 10
10.06452169539344
 20
20.92515540260071
 30
0.0
 40
0.375
  1
WITH HORIZONTAL - 1/4" FRAME (1/4" INFILL / 1/4" INFILL)
 72
     1
 11
17.27150498325156
 21
20.92515540260071
 31
0.0
100
AcDbText
  0
TEXT
  5
B4BA
330
17
100
AcDbEntity
  8
0
  6
Continuous
 62
     2
100
AcDbText
 10
12.51197977612091
 20
21.72847417298048
 30
0.0
 40
0.375
  1
SPLICE JOINT DETAIL - SSG MULLION
 72
     1
 11
17.28606742959977
 21
21.72847417298048
 31
0.0
100
AcDbText
  0
TEXT
  5
C070
330
17
100
AcDbEntity
  8
0
  6
Continuous
 62
     2
100
AcDbText
 10
38.67777810140415
 20
21.72847417298048
 30
0.0
 40
0.375
  1
@ SSG MULLION SPLICE JOINT
 72
     1
 11
42.64073001136321
 21
21.72847417298048
 31
0.0
100
AcDbText
  0
TEXT
  5
C075
330
17
100
AcDbEntity
  8
0
  6
Continuous
 62
     2
100
AcDbText
 10
56.68644821517674
 20
21.72847417298048
 30
0.0
 40
0.375
  1
@ 90° O.S. CORNER SPLICE JOINT
 72
     1
 11
61.05982816060649
 21
21.72847417298048
 31
0.0
100
AcDbText
  0
LINE
  5
CAF2
330
17
100
AcDbEntity
  8
R-ANNO-DIMS
100
AcDbLine
 10
18.30393056235904
 20
28.20377494522184
 30
0.0
 11
24.14067358838559
 21
28.20377494522184
 31
0.0
  0
LINE
  5
CAF3
330
17
100
AcDbEntity
  8
R-ANNO-DIMS
100
AcDbLine
 10
16.99143056235903
 20
26.34415088668807
 30
0.0
 11
20.86643056235901
 21
26.34415088668807
 31
0.0
  0
LINE
  5
CAF4
330
17
100
AcDbEntity
  8
R-ANNO-DIMS
100
AcDbLine
 10
15.49143056235905
 20
36.70377494522184
 30
0.0
 11
21.74143056235903
 21
36.70377494522184
 31
0.0
  0
LWPOLYLINE
  5
CAF7
330
17
100
AcDbEntity
  8
R-SWTS-DET1
100
AcDbPolyline
 90
      109
 70
     1
 43
0.0
 10
16.67543056235901
 20
32.95077494522182
 42
0.4142135623730951
 10
16.66543056235902
 20
32.94077494522183
 10
16.66543056235902
 20
32.90077494522184
 42
-0.4142135623731211
 10
16.65543056235901
 20
32.89077494522184
 10
16.24143056235899
 20
32.89077494522184
 10
16.24143056235902
 20
32.93077494522183
 10
16.22643056235904
 20
32.94577494522183
 10
16.24143056235902
 20
32.9607749451622
 10
16.24143056235902
 20
33.03377494516241
 10
16.22643056235912
 20
33.04877494522192
 10
16.24143056235902
 20
33.06377494522183
 10
16.24143056235903
 20
33.10377494522183
 10
16.67143056235899
 20
33.10377494522184
 10
16.86919513371209
 20
33.15676580240739
 42
0.3394542588633806
 10
16.89143056235901
 20
33.18574357719607
 10
16.89143056235901
 20
33.22180631324761
 42
0.3394542588633644
 10
16.86919513371209
 20
33.25078408803629
 10
16.671430562359
 20
33.30377494522185
 10
16.24143056235903
 20
33.30377494522185
 10
16.24143056235902
 20
33.34377494522185
 10
16.22643056235912
 20
33.35877494522176
 10
16.24143056235902
 20
33.37377494528127
 10
16.24143056235902
 20
33.44677494528148
 10
16.22643056235904
 20
33.46177494522185
 10
16.24143056235902
 20
33.47677494522184
 10
16.24143056235899
 20
33.51677494522184
 10
16.65543056235901
 20
33.51677494522184
 42
-0.4142135623731211
 10
16.66543056235902
 20
33.50677494522184
 10
16.66543056235902
 20
33.46677494522186
 42
0.414213562372991
 10
16.67543056235901
 20
33.45677494522185
 10
16.73143056235903
 20
33.45677494522185
 42
0.414213562373069
 10
16.74143056235903
 20
33.46677494522186
 10
16.74143056235903
 20
33.81377494522184
 10
16.75643056235903
 20
33.82877494522184
 10
16.74143056235903
 20
33.84377494522184
 10
16.74143056235902
 20
34.19577494522184
 42
-0.6693764950687486
 10
16.76707222096843
 20
34.20634637379327
 42
0.1997729274168802
 10
16.83092217262489
 20
34.17977494522184
 10
16.84143056235902
 20
34.17977494522185
 42
0.4142135623730744
 10
16.89143056235902
 20
34.22977494522184
 10
16.89143056235902
 20
34.31777494522184
 42
0.4142135623730951
 10
16.84143056235902
 20
34.36777494522184
 10
16.83092217262489
 20
34.36777494522184
 42
0.1997729274168729
 10
16.76707222096844
 20
34.34120351665041
 42
-0.6693764950687385
 10
16.74143056235902
 20
34.35177494522184
 10
16.74143056235902
 20
34.43377494522184
 42
-0.4142135623730951
 10
16.76143056235902
 20
34.45377494522184
 10
21.99143056235906
 20
34.45377494522184
 10
21.99143056235906
 20
31.9848460130337
 42
-0.6681786379192535
 10
21.97435949454719
 20
31.97777494522184
 10
21.84055207026527
 20
32.11158236950375
 10
21.78443056235904
 20
32.26577494522185
 10
21.83643056235904
 20
32.26577494522185
 42
0.4142135623731297
 10
21.86643056235904
 20
32.29577494522184
 10
21.86643056235905
 20
33.94877494522184
 42
0.4142135623730951
 10
21.80643056235905
 20
34.00877494522184
 10
21.77143056235906
 20
34.00877494522184
 10
21.77143056235906
 20
34.13377494522185
 10
21.80643056235905
 20
34.13377494522185
 42
0.4142135623730951
 10
21.86643056235905
 20
34.19377494522185
 10
21.86643056235905
 20
34.32377494522184
 42
0.4142135623730951
 10
21.83643056235905
 20
34.35377494522184
 10
20.72643056235895
 20
34.35377494522184
 42
0.414213562373093
 10
20.66643056235895
 20
34.29377494522184
 10
20.66643056235895
 20
34.1737749452218
 10
20.90643056235895
 20
34.1737749452218
 42
-0.414213562373096
 10
20.96643056235895
 20
34.11377494522179
 10
20.96643056235895
 20
34.0737749452218
 10
20.66643056235895
 20
34.0737749452218
 42
-0.4142135623730951
 10
20.56643056235895
 20
34.1737749452218
 10
20.56643056235895
 20
34.29377494522184
 42
0.4142135623730971
 10
20.50643056235895
 20
34.35377494522184
 10
17.02143056235902
 20
34.35377494522184
 42
0.4142135623730776
 10
16.99143056235902
 20
34.32377494522184
 10
16.99143056235901
 20
34.11877494522185
 42
-0.414213562373069
 10
16.97143056235901
 20
34.09877494522183
 10
16.86643056235902
 20
34.09877494522183
 10
16.86643056235903
 20
33.38093437524901
 10
16.91731246686927
 20
33.36730061002615
 42
-0.339454258863367
 10
16.99143056235902
 20
33.27070802739723
 10
16.99143056235902
 20
33.13684186304644
 42
-0.3394542588633788
 10
16.91731246686927
 20
33.04024928041753
 10
16.86643056235903
 20
33.02661551519467
 10
16.86643056235904
 20
32.30877494522184
 10
16.97143056235904
 20
32.30877494522186
 42
-0.414213562373108
 10
16.99143056235904
 20
32.28877494522186
 10
16.99143056235906
 20
32.08377494522186
 10
17.07243056235906
 20
32.08377494522186
 42
-1.0
 10
17.07243056235906
 20
32.02377494522186
 10
16.99143056235906
 20
32.02377494522186
 10
16.99143056235906
 20
31.97377494522186
 42
-0.4142135623730951
 10
16.97143056235906
 20
31.95377494522186
 10
16.76143056235906
 20
31.95377494522184
 42
-0.4142135623730951
 10
16.74143056235906
 20
31.97377494522184
 10
16.74143056235905
 20
32.05577494522184
 42
-0.6693764950687654
 10
16.76707222096847
 20
32.06634637379328
 42
0.199772927416875
 10
16.83092217262492
 20
32.03977494522185
 10
16.84143056235906
 20
32.03977494522185
 42
0.4142135623730744
 10
16.89143056235906
 20
32.08977494522185
 10
16.89143056235906
 20
32.17777494522184
 42
0.4142135623730744
 10
16.84143056235906
 20
32.22777494522184
 10
16.83092217262492
 20
32.22777494522184
 42
0.1997729274169768
 10
16.76707222096843
 20
32.20120351665041
 42
-0.6693764950688168
 10
16.74143056235902
 20
32.21177494522184
 10
16.74143056235903
 20
32.56377494522184
 10
16.75643056235903
 20
32.57877494522184
 10
16.74143056235903
 20
32.59377494522184
 10
16.74143056235903
 20
32.94077494522183
 42
0.4142135623731211
 10
16.73143056235903
 20
32.95077494522182
  0
LWPOLYLINE
  5
CAFA
330
17
100
AcDbEntity
  8
R-SWTS-DET1
100
AcDbPolyline
 90
        6
 70
     0
 43
0.0
 10
22.24143056235903
 20
23.95377494522183
 10
18.71018056235903
 20
23.95377494522183
 10
18.65711198062254
 20
23.74155975223962
 10
18.54956089262136
 20
24.1659744932298
 10
18.49649231088486
 20
23.95375930024759
 10
14.96524231088486
 20
23.95375930024759
  0
LWPOLYLINE
  5
CAFB
330
17
100
AcDbEntity
  8
R-SWTS-DET1
100
AcDbPolyline
 90
        6
 70
     0
 43
0.0
 10
22.24143056235903
 20
35.45377494522182
 10
18.71018056235903
 20
35.45377494522182
 10
18.65711198062254
 20
35.24155975223962
 10
18.54956089262136
 20
35.6659744932298
 10
18.49649231088486
 20
35.4537593002476
 10
14.96524231088486
 20
35.4537593002476
  0
LINE
  5
CAFE
330
17
100
AcDbEntity
  8
R-SWTS-DET2
  6
HIDDEN
100
AcDbLine
 10
17.001430562359
 20
34.80427494522184
 30
0.0
 11
21.75143056235903
 21
34.80427494522184
 31
0.0
  0
LINE
  5
CAFF
330
17
100
AcDbEntity
  8
R-SWTS-DET2
  6
HIDDEN
100
AcDbLine
 10
17.00143056235899
 20
28.30427494522183
 30
0.0
 11
21.75143056235903
 21
28.30427494522183
 31
0.0
  0
LINE
  5
CB00
330
17
100
AcDbEntity
  8
R-SWTS-DET1
100
AcDbLine
 10
16.74143056235903
 20
31.45377494522184
 30
0.0
 11
21.99143056235903
 21
31.45377494522184
 31
0.0
  0
LINE
  5
CB01
330
17
100
AcDbEntity
  8
R-ANNO-DIMS
100
AcDbLine
 10
12.74143056235905
 20
31.70377494522184
 30
0.0
 11
12.74143056235905
 21
24.20377494522184
 31
0.0
  0
SOLID
  5
CB02
330
17
100
AcDbEntity
  8
R-ANNO-DIMS
  6
Continuous
100
AcDbTrace
 10
11.4497638956924
 20
31.20377494522184
 30
0.0
 11
11.53309722902573
 21
31.20377494522184
 31
0.0
 12
11.49143056235905
 22
31.45377494522184
 32
0.0
 13
11.49143056235905
 23
31.45377494522184
 33
0.0
  0
SOLID
  5
CB03
330
17
100
AcDbEntity
  8
R-ANNO-DIMS
  6
Continuous
100
AcDbTrace
 10
12.07476389569239
 20
31.20377494522184
 30
0.0
 11
12.15809722902573
 21
31.20377494522184
 31
0.0
 12
12.11643056235905
 22
31.45377494522184
 32
0.0
 13
12.11643056235905
 23
31.45377494522184
 33
0.0
  0
LWPOLYLINE
  5
CB04
330
17
100
AcDbEntity
  8
R-SWTS-DET3
100
AcDbPolyline
 90
        4
 70
     0
 43
0.0
 10
16.24143056235903
 20
23.95377494522183
 10
16.24143056235903
 20
32.45377494522184
 10
16.49143056235903
 20
32.45377494522184
 10
16.49143056235903
 20
23.95377494522183
  0
LINE
  5
CB05
330
17
100
AcDbEntity
  8
R-SWTS-DET1
100
AcDbLine
 10
16.74143056235903
 20
23.95377494522183
 30
0.0
 11
16.74143056235903
 21
31.45377494522184
 31
0.0
  0
LINE
  5
CB06
330
17
100
AcDbEntity
  8
R-SWTS-DET2
  6
HIDDEN
100
AcDbLine
 10
17.25143056235899
 20
28.30427494522183
 30
0.0
 11
17.25143056235899
 21
34.80427494522184
 31
0.0
  0
LINE
  5
CB07
330
17
100
AcDbEntity
  8
R-SWTS-DET2
  6
HIDDEN
100
AcDbLine
 10
17.00143056235899
 20
28.30427494522183
 30
0.0
 11
17.001430562359
 21
34.80427494522184
 31
0.0
  0
LINE
  5
CB08
330
17
100
AcDbEntity
  8
R-ANNO-DIMS
  6
Continuous
100
AcDbLine
 10
11.49143056235905
 20
31.20377494522184
 30
0.0
 11
11.49143056235905
 21
24.20377494522184
 31
0.0
  0
SOLID
  5
CB09
330
17
100
AcDbEntity
  8
R-ANNO-DIMS
  6
Continuous
100
AcDbTrace
 10
11.44976389569239
 20
24.20377494522184
 30
0.0
 11
11.53309722902573
 21
24.20377494522184
 31
0.0
 12
11.49143056235905
 22
23.95377494522184
 32
0.0
 13
11.49143056235905
 23
23.95377494522184
 33
0.0
  0
SOLID
  5
CB0A
330
17
100
AcDbEntity
  8
R-ANNO-DIMS
100
AcDbTrace
 10
12.69976389569238
 20
24.20377494522184
 30
0.0
 11
12.78309722902572
 21
24.20377494522184
 31
0.0
 12
12.74143056235905
 22
23.95377494522184
 32
0.0
 13
12.74143056235905
 23
23.95377494522184
 33
0.0
  0
MTEXT
  5
CB0B
330
17
100
AcDbEntity
  8
R-ANNO-DIMS
  6
Continuous
100
AcDbMText
 10
11.26643056235906
 20
27.70377494522184
 30
0.0
 40
0.25
 41
0.0
 46
0.0
 71
     5
 72
     1
  1
\A1;M.L. & ANCH. REF.
 11
0.0000000000000001
 21
1.0
 31
0.0
 73
     1
 44
1.0
  0
MTEXT
  5
CB0C
330
17
100
AcDbEntity
  8
R-ANNO-DIMS
100
AcDbMText
 10
12.51643056235905
 20
27.95377494522184
 30
0.0
 40
0.25
 41
0.0
 46
0.0
 71
     5
 72
     1
  1
\A1;DLO
 11
0.0000000000000001
 21
1.0
 31
0.0
 73
     1
 44
1.0
  0
LINE
  5
CB0D
330
17
100
AcDbEntity
  8
R-ANNO-DIMS
  6
Continuous
100
AcDbLine
 10
12.11643056235905
 20
31.20377494522184
 30
0.0
 11
12.11643056235905
 21
30.95377494522184
 31
0.0
  0
CIRCLE
  5
CB0E
330
17
100
AcDbEntity
  8
R-SWTS-DET2
100
AcDbCircle
 10
17.61643056235904
 20
28.20377494522184
 30
0.0
 40
0.2125
  0
LINE
  5
CB0F
330
17
100
AcDbEntity
  8
R-SWTS-DET2
100
AcDbLine
 10
17.30393056235904
 20
28.20377494522184
 30
0.0
 11
17.92893056235904
 21
28.20377494522184
 31
0.0
  0
LINE
  5
CB10
330
17
100
AcDbEntity
  8
R-SWTS-DET2
100
AcDbLine
 10
17.48693056235904
 20
28.22077494522183
 30
0.0
 11
17.53468064235904
 21
28.22077494522183
 31
0.0
  0
LINE
  5
CB11
330
17
100
AcDbEntity
  8
R-SWTS-DET2
100
AcDbLine
 10
17.48693056235904
 20
28.18677494522184
 30
0.0
 11
17.53468064235904
 21
28.18677494522184
 31
0.0
  0
CIRCLE
  5
CB12
330
17
100
AcDbEntity
  8
R-SWTS-DET2
100
AcDbCircle
 10
17.61643056235904
 20
29.95377494522184
 30
0.0
 40
0.0865
  0
SOLID
  5
CB13
330
17
100
AcDbEntity
  8
R-ANNO-DIMS
100
AcDbTrace
 10
16.99143056235903
 20
26.38581755335474
 30
0.0
 11
16.99143056235903
 21
26.30248422002142
 31
0.0
 12
16.74143056235903
 22
26.34415088668807
 32
0.0
 13
16.74143056235903
 23
26.34415088668807
 33
0.0
  0
LINE
  5
CB14
330
17
100
AcDbEntity
  8
R-ANNO-DIMS
100
AcDbLine
 10
16.74143056235903
 20
27.0139698557154
 30
0.0
 11
16.74143056235903
 21
26.16415088668808
 31
0.0
  0
LINE
  5
CB15
330
17
100
AcDbEntity
  8
R-ANNO-DIMS
100
AcDbLine
 10
16.49143056235903
 20
27.29815359251883
 30
0.0
 11
16.24143056235903
 21
27.29815359251883
 31
0.0
  0
SOLID
  5
CB16
330
17
100
AcDbEntity
  8
R-ANNO-DIMS
100
AcDbTrace
 10
16.49143056235903
 20
27.3398202591855
 30
0.0
 11
16.49143056235903
 21
27.25648692585216
 31
0.0
 12
16.74143056235903
 22
27.29815359251883
 32
0.0
 13
16.74143056235903
 23
27.29815359251883
 33
0.0
  0
LINE
  5
CB17
330
17
100
AcDbEntity
  8
R-ANNO-DIMS
100
AcDbLine
 10
16.74143056235903
 20
27.0139698557154
 30
0.0
 11
16.74143056235903
 21
27.11815359251882
 31
0.0
  0
LINE
  5
CB18
330
17
100
AcDbEntity
  8
R-SWTS-DET2
100
AcDbLine
 10
17.48693056235904
 20
28.22077494522183
 30
0.0
 11
17.48693056235904
 21
28.18677494522184
 31
0.0
  0
MTEXT
  5
CB1A
330
17
100
AcDbEntity
  8
R-ANNO-DIMS
100
AcDbMText
 10
18.63309722902571
 20
27.52315359251883
 30
0.0
 40
0.25
 41
0.0
 46
0.0
 71
     5
 72
     1
  1
\A1;7/8"
 73
     1
 44
1.0
  0
LINE
  5
CB1B
330
17
100
AcDbEntity
  8
R-ANNO-DIMS
100
AcDbLine
 10
17.86643056235904
 20
27.29815359251883
 30
0.0
 11
19.14976389569237
 21
27.29815359251883
 31
0.0
  0
MTEXT
  5
CB1C
330
17
100
AcDbEntity
  8
R-ANNO-DIMS
100
AcDbMText
 10
18.92893056235902
 20
26.56915088668808
 30
0.0
 40
0.25
 41
0.0
 46
0.0
 71
     5
 72
     1
  1
\A1;4 3/8"
 73
     1
 44
1.0
  0
LINE
  5
CB1D
330
17
100
AcDbEntity
  8
R-ANNO-DIMS
100
AcDbLine
 10
17.61643056235904
 20
27.57877494522184
 30
0.0
 11
17.61643056235904
 21
27.11815359251882
 31
0.0
  0
SOLID
  5
CB1E
330
17
100
AcDbEntity
  8
R-ANNO-DIMS
100
AcDbTrace
 10
17.86643056235904
 20
27.3398202591855
 30
0.0
 11
17.86643056235904
 21
27.25648692585216
 31
0.0
 12
17.61643056235904
 22
27.29815359251883
 32
0.0
 13
17.61643056235904
 23
27.29815359251883
 33
0.0
  0
ARC
  5
CB20
330
17
100
AcDbEntity
  8
R-SWTS-DET2
100
AcDbCircle
 10
17.53468064235904
 20
28.28552486522183
 30
0.0
 40
0.06474996
100
AcDbArc
 50
270.0
 51
0.0
  0
ARC
  5
CB21
330
17
100
AcDbEntity
  8
R-SWTS-DET2
100
AcDbCircle
 10
17.69818054235904
 20
28.28552486522183
 30
0.0
 40
0.06474996
100
AcDbArc
 50
180.0
 51
270.0
  0
LINE
  5
CB22
330
17
100
AcDbEntity
  8
R-SWTS-DET2
100
AcDbLine
 10
17.61643056235904
 20
28.51627494522184
 30
0.0
 11
17.61643056235904
 21
27.89127494522184
 31
0.0
  0
LINE
  5
CB23
330
17
100
AcDbEntity
  8
R-SWTS-DET2
100
AcDbLine
 10
17.69818054235904
 20
28.18677494522184
 30
0.0
 11
17.74593056235904
 21
28.18677494522184
 31
0.0
  0
LINE
  5
CB24
330
17
100
AcDbEntity
  8
R-SWTS-DET2
100
AcDbLine
 10
17.69818054235904
 20
28.22077494522183
 30
0.0
 11
17.74593056235904
 21
28.22077494522183
 31
0.0
  0
ARC
  5
CB25
330
17
100
AcDbEntity
  8
R-SWTS-DET2
100
AcDbCircle
 10
17.53468064235904
 20
28.12202502522183
 30
0.0
 40
0.06474996
100
AcDbArc
 50
0.0
 51
89.9999099999999
  0
ARC
  5
CB26
330
17
100
AcDbEntity
  8
R-SWTS-DET2
100
AcDbCircle
 10
17.69818054235904
 20
28.12202502522183
 30
0.0
 40
0.06474996
100
AcDbArc
 50
89.99997000000004
 51
180.0
  0
LINE
  5
CB27
330
17
100
AcDbEntity
  8
R-SWTS-DET2
100
AcDbLine
 10
17.63343058235904
 20
28.12202502522183
 30
0.0
 11
17.63343058235904
 21
28.07427494522183
 31
0.0
  0
LINE
  5
CB28
330
17
100
AcDbEntity
  8
R-SWTS-DET2
100
AcDbLine
 10
17.59943060235904
 20
28.12202502522183
 30
0.0
 11
17.59943060235904
 21
28.07427494522183
 31
0.0
  0
LINE
  5
CB29
330
17
100
AcDbEntity
  8
R-SWTS-DET2
100
AcDbLine
 10
17.59943060235904
 20
28.07427494522183
 30
0.0
 11
17.63343058235904
 21
28.07427494522183
 31
0.0
  0
LINE
  5
CB2A
330
17
100
AcDbEntity
  8
R-SWTS-DET2
100
AcDbLine
 10
17.74593056235904
 20
28.22077494522183
 30
0.0
 11
17.74593056235904
 21
28.18677494522184
 31
0.0
  0
LINE
  5
CB2B
330
17
100
AcDbEntity
  8
R-SWTS-DET2
100
AcDbLine
 10
17.59943060235904
 20
28.33327494522183
 30
0.0
 11
17.63343058235904
 21
28.33327494522183
 31
0.0
  0
LINE
  5
CB2C
330
17
100
AcDbEntity
  8
R-SWTS-DET2
100
AcDbLine
 10
17.59943060235904
 20
28.33327494522183
 30
0.0
 11
17.59943060235904
 21
28.28552486522183
 31
0.0
  0
LINE
  5
CB2D
330
17
100
AcDbEntity
  8
R-SWTS-DET2
100
AcDbLine
 10
17.63343058235904
 20
28.33327494522183
 30
0.0
 11
17.63343058235904
 21
28.28552486522183
 31
0.0
  0
LINE
  5
CB2E
330
17
100
AcDbEntity
  8
R-ANNO-DIMS
100
AcDbLine
 10
14.86643056235905
 20
31.95377494522184
 30
0.0
 11
12.56143056235905
 21
31.95377494522184
 31
0.0
  0
LINE
  5
CB2F
330
17
100
AcDbEntity
  8
R-ANNO-DIMS
100
AcDbLine
 10
14.86643056235905
 20
34.45377494522186
 30
0.0
 11
12.56143056235905
 21
34.45377494522186
 31
0.0
  0
LINE
  5
CB30
330
17
100
AcDbEntity
  8
R-ANNO-DIMS
100
AcDbLine
 10
14.86643056235905
 20
31.95377494522184
 30
0.0
 11
12.56143056235905
 21
31.95377494522184
 31
0.0
  0
LINE
  5
CB31
330
17
100
AcDbEntity
  8
R-ANNO-DIMS
100
AcDbLine
 10
14.86643056235905
 20
34.45377494522186
 30
0.0
 11
12.31143056235905
 21
34.45377494522186
 31
0.0
  0
LINE
  5
CB32
330
17
100
AcDbEntity
  8
R-ANNO-DIMS
  6
Continuous
100
AcDbLine
 10
15.86643056235903
 20
31.45377494522184
 30
0.0
 11
11.31143056235906
 21
31.45377494522184
 31
0.0
  0
LINE
  5
CB33
330
17
100
AcDbEntity
  8
R-ANNO-DIMS
  6
Continuous
100
AcDbLine
 10
14.86643056235905
 20
31.95377494522184
 30
0.0
 11
11.93643056235906
 21
31.95377494522184
 31
0.0
  0
LINE
  5
CB34
330
17
100
AcDbEntity
  8
R-ANNO-DIMS
  6
Continuous
100
AcDbLine
 10
15.86643056235903
 20
31.45377494522184
 30
0.0
 11
11.93643056235906
 21
31.45377494522184
 31
0.0
  0
LINE
  5
CB35
330
17
100
AcDbEntity
  8
R-ANNO-DIMS
  6
Continuous
100
AcDbLine
 10
14.86643056235905
 20
31.95377494522184
 30
0.0
 11
11.31143056235906
 21
31.95377494522184
 31
0.0
  0
TEXT
  5
CB36
330
17
100
AcDbEntity
  8
R-ANNO-TEXT
100
AcDbText
 10
25.05162493824909
 20
34.62330025324187
 30
0.0
 40
0.25
  1
128394 #12 x 1 7/8" B PHTF
100
AcDbText
  0
TEXT
  5
CB37
330
17
100
AcDbEntity
  8
R-ANNO-TEXT
100
AcDbText
 10
25.05162493824909
 20
34.12330025324187
 30
0.0
 40
0.25
  1
162006 COVER
100
AcDbText
  0
TEXT
  5
CB38
330
17
100
AcDbEntity
  8
R-ANNO-TEXT
100
AcDbText
 10
25.05162493824909
 20
33.62330025324187
 30
0.0
 40
0.25
  1
162335 PRESSURE PLATE
100
AcDbText
  0
TEXT
  5
CB39
330
17
100
AcDbEntity
  8
R-ANNO-TEXT
100
AcDbText
 10
25.05162493824909
 20
33.12330025324186
 30
0.0
 40
0.25
  1
426319 SPONGE AIRSEAL
100
AcDbText
  0
TEXT
  5
CB3A
330
17
100
AcDbEntity
  8
R-ANNO-TEXT
100
AcDbText
 10
25.05162493824909
 20
32.62330025324187
 30
0.0
 40
0.25
  1
128405 #12 x 7/8" AB FHTF
100
AcDbText
  0
TEXT
  5
CB3B
330
17
100
AcDbEntity
  8
R-ANNO-TEXT
100
AcDbText
 10
25.05162493824909
 20
32.12330025324187
 30
0.0
 40
0.25
  1
162378 SHEAR BLOCK
100
AcDbText
  0
TEXT
  5
CB3C
330
17
100
AcDbEntity
  8
R-ANNO-TEXT
100
AcDbText
 10
25.05162493824909
 20
31.62330025324187
 30
0.0
 40
0.25
  1
162093 MULLION
100
AcDbText
  0
TEXT
  5
CB3D
330
17
100
AcDbEntity
  8
R-ANNO-TEXT
100
AcDbText
 10
25.05162493824909
 20
31.12330025324187
 30
0.0
 40
0.25
  1
128348 #10-16 x 1 1/4" FHSD
100
AcDbText
  0
TEXT
  5
CB3E
330
17
100
AcDbEntity
  8
R-ANNO-TEXT
100
AcDbText
 10
25.05162493824909
 20
30.62330025324186
 30
0.0
 40
0.25
  1
128267 #12 x 1" AB PHTF
100
AcDbText
  0
LINE
  5
CB42
330
17
100
AcDbEntity
  8
R-ANNO-DIMS
  6
Continuous
100
AcDbLine
 10
11.49143056235905
 20
32.20377494522184
 30
0.0
 11
11.49143056235905
 21
35.20377494522184
 31
0.0
  0
SOLID
  5
CB43
330
17
100
AcDbEntity
  8
R-ANNO-DIMS
  6
Continuous
100
AcDbTrace
 10
11.44976389569239
 20
32.20377494522184
 30
0.0
 11
11.53309722902573
 21
32.20377494522184
 31
0.0
 12
11.49143056235905
 22
31.95377494522184
 32
0.0
 13
11.49143056235905
 23
31.95377494522184
 33
0.0
  0
MTEXT
  5
CB44
330
17
100
AcDbEntity
  8
R-ANNO-DIMS
  6
Continuous
100
AcDbMText
 10
11.26643056235906
 20
33.70377494522184
 30
0.0
 40
0.25
 41
0.0
 46
0.0
 71
     5
 72
     1
  1
\A1;M.L.
 11
0.0000000000000001
 21
1.0
 31
0.0
 73
     1
 44
1.0
  0
SOLID
  5
CB45
330
17
100
AcDbEntity
  8
R-ANNO-DIMS
  6
Continuous
100
AcDbTrace
 10
11.44976389569239
 20
35.20377494522184
 30
0.0
 11
11.53309722902573
 21
35.20377494522184
 31
0.0
 12
11.49143056235905
 22
35.45377494522184
 32
0.0
 13
11.49143056235905
 23
35.45377494522184
 33
0.0
  0
MTEXT
  5
CB46
330
17
100
AcDbEntity
  8
R-ANNO-DIMS
100
AcDbMText
 10
12.26643056235905
 20
34.95377494522185
 30
0.0
 40
0.25
 41
0.0
 46
0.0
 71
     5
 72
     1
  1
\A1;DLO
 11
0.0000000000000001
 21
1.0
 31
0.0
 73
     1
 44
1.0
  0
MTEXT
  5
CB47
330
17
100
AcDbEntity
  8
R-ANNO-DIMS
100
AcDbMText
 10
12.51643056235905
 20
33.20377494522186
 30
0.0
 40
0.25
 41
0.0
 46
0.0
 71
     5
 72
     1
  1
\A1;2 1/2"
 11
0.0000000000000001
 21
1.0
 31
0.0
 73
     1
 44
1.0
  0
LINE
  5
CB48
330
17
100
AcDbEntity
  8
R-ANNO-DIMS
100
AcDbLine
 10
12.74143056235905
 20
34.20377494522185
 30
0.0
 11
12.74143056235905
 21
32.20377494522184
 31
0.0
  0
MTEXT
  5
CB49
330
17
100
AcDbEntity
  8
R-ANNO-DIMS
  6
Continuous
100
AcDbMText
 10
11.89143056235906
 20
33.51210827855517
 30
0.0
 40
0.25
 41
0.0
 46
0.0
 71
     5
 72
     1
  1
\A1;1/2" MAX
 11
0.0000000000000001
 21
1.0
 31
0.0
 73
     1
 44
1.0
  0
LINE
  5
CB4A
330
17
100
AcDbEntity
  8
R-ANNO-DIMS
  6
Continuous
100
AcDbLine
 10
12.11643056235905
 20
32.20377494522184
 30
0.0
 11
12.11643056235905
 21
34.57044161188851
 31
0.0
  0
SOLID
  5
CB4B
330
17
100
AcDbEntity
  8
R-ANNO-DIMS
  6
Continuous
100
AcDbTrace
 10
12.07476389569239
 20
32.20377494522184
 30
0.0
 11
12.15809722902573
 21
32.20377494522184
 31
0.0
 12
12.11643056235905
 22
31.95377494522184
 32
0.0
 13
12.11643056235905
 23
31.95377494522184
 33
0.0
  0
SOLID
  5
CB4C
330
17
100
AcDbEntity
  8
R-ANNO-DIMS
100
AcDbTrace
 10
12.69976389569238
 20
31.70377494522184
 30
0.0
 11
12.78309722902572
 21
31.70377494522184
 31
0.0
 12
12.74143056235905
 22
31.95377494522184
 32
0.0
 13
12.74143056235905
 23
31.95377494522184
 33
0.0
  0
SOLID
  5
CB4D
330
17
100
AcDbEntity
  8
R-ANNO-DIMS
100
AcDbTrace
 10
12.69976389569238
 20
32.20377494522184
 30
0.0
 11
12.78309722902572
 21
32.20377494522184
 31
0.0
 12
12.74143056235905
 22
31.95377494522184
 32
0.0
 13
12.74143056235905
 23
31.95377494522184
 33
0.0
  0
LINE
  5
CB4E
330
17
100
AcDbEntity
  8
R-ANNO-DIMS
100
AcDbLine
 10
12.49143056235906
 20
34.20377494522185
 30
0.0
 11
12.49143056235906
 21
33.95377494522185
 31
0.0
  0
SOLID
  5
CB4F
330
17
100
AcDbEntity
  8
R-ANNO-DIMS
100
AcDbTrace
 10
12.69976389569238
 20
34.20377494522185
 30
0.0
 11
12.78309722902572
 21
34.20377494522185
 31
0.0
 12
12.74143056235905
 22
34.45377494522186
 32
0.0
 13
12.74143056235905
 23
34.45377494522186
 33
0.0
  0
SOLID
  5
CB50
330
17
100
AcDbEntity
  8
R-ANNO-DIMS
100
AcDbTrace
 10
12.44976389569238
 20
34.20377494522185
 30
0.0
 11
12.53309722902572
 21
34.20377494522185
 31
0.0
 12
12.49143056235906
 22
34.45377494522186
 32
0.0
 13
12.49143056235906
 23
34.45377494522186
 33
0.0
  0
LINE
  5
CB51
330
17
100
AcDbEntity
  8
R-ANNO-DIMS
100
AcDbLine
 10
12.49143056235906
 20
35.70377494522186
 30
0.0
 11
12.49143056235906
 21
35.95377494522185
 31
0.0
  0
SOLID
  5
CB52
330
17
100
AcDbEntity
  8
R-ANNO-DIMS
100
AcDbTrace
 10
12.44976389569238
 20
35.70377494522186
 30
0.0
 11
12.53309722902572
 21
35.70377494522186
 31
0.0
 12
12.49143056235906
 22
35.45377494522185
 32
0.0
 13
12.49143056235906
 23
35.45377494522185
 33
0.0
  0
LWPOLYLINE
  5
CB56
330
17
100
AcDbEntity
  8
R-SWTS-DET2
100
AcDbPolyline
 90
        8
 70
     1
 43
0.0
 10
16.87343056235903
 20
33.93677494522184
 10
16.74143056235903
 20
34.04777494522183
 10
16.74143056235903
 20
33.60977494522185
 10
16.87343056235903
 20
33.72077494522184
 10
17.40408927551532
 20
33.72077494522184
 10
17.59791106532998
 20
33.8010585592465
 42
0.6681786379193252
 10
17.59791106532998
 20
33.85649133119718
 10
17.40408927551532
 20
33.93677494522184
  0
LWPOLYLINE
  5
CB58
330
17
100
AcDbEntity
  8
R-SWTS-DET2
100
AcDbPolyline
 90
        8
 70
     1
 43
0.0
 10
16.87343056235903
 20
32.47077494522184
 10
16.74143056235903
 20
32.35977494522183
 10
16.74143056235903
 20
32.79777494522183
 10
16.87343056235903
 20
32.68677494522183
 10
17.40408927551532
 20
32.68677494522183
 10
17.59791106532998
 20
32.60649133119716
 42
-0.6681786379193252
 10
17.59791106532998
 20
32.55105855924649
 10
17.40408927551532
 20
32.47077494522184
  0
CIRCLE
  5
CB59
330
17
100
AcDbEntity
  8
R-SWTS-DET2
100
AcDbCircle
 10
17.61643056235904
 20
33.20377494522184
 30
0.0
 40
0.2125
  0
LINE
  5
CB5A
330
17
100
AcDbEntity
  8
R-SWTS-DET2
100
AcDbLine
 10
17.36643056235904
 20
33.20377494522184
 30
0.0
 11
17.86643056235904
 21
33.20377494522184
 31
0.0
  0
LINE
  5
CB5B
330
17
100
AcDbEntity
  8
R-SWTS-DET2
100
AcDbLine
 10
17.48693056235905
 20
33.18677494522184
 30
0.0
 11
17.53468064235905
 21
33.18677494522184
 31
0.0
  0
LINE
  5
CB5C
330
17
100
AcDbEntity
  8
R-SWTS-DET2
100
AcDbLine
 10
17.48693056235905
 20
33.22077494522183
 30
0.0
 11
17.53468064235905
 21
33.22077494522183
 31
0.0
  0
LWPOLYLINE
  5
CB60
330
17
100
AcDbEntity
  8
R-SWTS-DET3
100
AcDbPolyline
 90
        4
 70
     0
 43
0.0
 10
16.49143056235903
 20
35.45377494522182
 10
16.49143056235903
 20
33.95377494522184
 10
16.24143056235903
 20
33.95377494522184
 10
16.24143056235903
 20
35.45377494522182
  0
LINE
  5
CB61
330
17
100
AcDbEntity
  8
R-SWTS-DET1
100
AcDbLine
 10
17.03118548438289
 20
34.45377494522184
 30
0.0
 11
17.03118548438289
 21
35.45377494522182
 31
0.0
  0
LINE
  5
CB62
330
17
100
AcDbEntity
  8
R-SWTS-DET2
100
AcDbLine
 10
16.24167564033516
 20
31.81685388809055
 30
0.0
 11
15.70167564033516
 21
31.89338932116142
 31
0.0
  0
LINE
  5
CB63
330
17
100
AcDbEntity
  8
R-SWTS-DET2
100
AcDbLine
 10
15.99167564033516
 20
32.43338932116142
 30
0.0
 11
16.24167564033516
 21
32.43338932116142
 31
0.0
  0
LINE
  5
CB64
330
17
100
AcDbEntity
  8
R-SWTS-DET2
100
AcDbLine
 10
15.86643056235903
 20
33.32915494522183
 30
0.0
 11
16.53143056235903
 21
33.32915494522183
 31
0.0
  0
LINE
  5
CB65
330
17
100
AcDbEntity
  8
R-SWTS-DET2
100
AcDbLine
 10
15.86643056235903
 20
33.07838494522184
 30
0.0
 11
16.53143056235903
 21
33.07838494522184
 31
0.0
  0
LINE
  5
CB67
330
17
100
AcDbEntity
  8
R-SWTS-DET2
100
AcDbLine
 10
16.24143056235903
 20
32.89077494522184
 30
0.0
 11
15.99143056235902
 21
32.89077494522184
 31
0.0
  0
LINE
  5
CB68
330
17
100
AcDbEntity
  8
R-SWTS-DET2
100
AcDbLine
 10
15.99143056235903
 20
33.51677494522184
 30
0.0
 11
16.24143056235903
 21
33.51677494522184
 31
0.0
  0
LINE
  5
CB69
330
17
100
AcDbEntity
  8
R-SWTS-DET2
100
AcDbLine
 10
16.24167564033516
 20
34.59069600235312
 30
0.0
 11
15.70167564033516
 21
34.51416056928226
 31
0.0
  0
LINE
  5
CB6A
330
17
100
AcDbEntity
  8
R-SWTS-DET2
100
AcDbLine
 10
15.99167564033516
 20
33.97416056928226
 30
0.0
 11
16.24167564033516
 21
33.97416056928226
 31
0.0
  0
LINE
  5
CB6B
330
17
100
AcDbEntity
  8
R-SWTS-DET3
100
AcDbLine
 10
15.45743056235903
 20
33.67277494522183
 30
0.0
 11
16.32690685708974
 21
33.67277494522183
 31
0.0
  0
LWPOLYLINE
  5
CB6C
330
17
100
AcDbEntity
  8
R-SWTS-DET1
100
AcDbPolyline
 90
       59
 70
     1
 43
0.0
 10
15.75543056235903
 20
32.26777494522182
 10
15.75543056235903
 20
32.15377494522186
 10
15.62060589316689
 20
32.15377494522187
 10
15.51543056235903
 20
32.21449795077588
 42
1.000000000000009
 10
15.47543056235904
 20
32.14521591847313
 10
15.65805968522975
 20
32.03977494522187
 42
-0.849090458656993
 10
15.75543056235903
 20
32.02377494522186
 10
15.75543056235902
 20
31.98377494522184
 42
0.4142135623731122
 10
15.78543056235903
 20
31.95377494522184
 10
15.97143056235903
 20
31.95377494522184
 42
0.4142135623730951
 10
15.99143056235903
 20
31.97377494522184
 10
15.99143056235903
 20
32.05577494522183
 42
0.6693764950686889
 10
15.96578890374962
 20
32.06634637379327
 42
-0.1997729274168814
 10
15.90193895209317
 20
32.03977494522184
 10
15.89143056235904
 20
32.03977494522184
 42
-0.4142135623731054
 10
15.84143056235903
 20
32.08977494522184
 10
15.84143056235904
 20
32.17777494522184
 42
-0.4142135623730951
 10
15.89143056235904
 20
32.22777494522184
 10
15.90193895209317
 20
32.22777494522184
 42
-0.1997729274168702
 10
15.96578890374962
 20
32.20120351665041
 42
0.6693764950687497
 10
15.99143056235903
 20
32.21177494522185
 10
15.99143056235903
 20
32.97877494522185
 10
16.00643056235903
 20
32.99377494522183
 10
15.99143056235903
 20
33.00877494522183
 10
15.99143056235903
 20
33.39877494522183
 10
16.00643056235903
 20
33.41377494522183
 10
15.99143056235903
 20
33.42877494522183
 10
15.99143056235903
 20
34.19577494522184
 42
0.6693764950687072
 10
15.96578890374962
 20
34.20634637379327
 42
-0.1997729274168761
 10
15.90193895209317
 20
34.17977494522184
 10
15.89143056235904
 20
34.17977494522184
 42
-0.4142135623730951
 10
15.84143056235904
 20
34.22977494522184
 10
15.84143056235903
 20
34.31777494522184
 42
-0.4142135623731054
 10
15.89143056235904
 20
34.36777494522184
 10
15.90193895209317
 20
34.36777494522184
 42
-0.1997729274168748
 10
15.96578890374962
 20
34.34120351665041
 42
0.6693764950686886
 10
15.99143056235903
 20
34.35177494522184
 10
15.99143056235903
 20
34.43377494522184
 42
0.4142135623730951
 10
15.97143056235903
 20
34.45377494522184
 10
15.78543056235903
 20
34.45377494522184
 42
0.4142135623731039
 10
15.75543056235903
 20
34.42377494522184
 10
15.75543056235903
 20
34.38377494522182
 42
-0.8490904586570017
 10
15.65805968522972
 20
34.36777494522181
 10
15.47543056235904
 20
34.26233397197055
 42
1.000000000000009
 10
15.51543056235903
 20
34.1930519396678
 10
15.62060589316689
 20
34.25377494522181
 10
15.75543056235903
 20
34.25377494522181
 10
15.75543056235903
 20
34.13977494522186
 42
0.4142135623730516
 10
15.81543056235902
 20
34.07977494522186
 10
15.89143056235904
 20
34.07977494522184
 10
15.89143056235903
 20
33.52877494522184
 10
15.86643056235903
 20
33.50377494522184
 10
15.86643056235903
 20
33.21877494522184
 10
15.88143056235903
 20
33.20377494522184
 10
15.86643056235903
 20
33.18877494522184
 10
15.86643056235903
 20
32.90377494522184
 10
15.89143056235903
 20
32.87877494522184
 10
15.89143056235904
 20
32.32777494522184
 10
15.81543056235902
 20
32.32777494522182
 42
0.4142135623730518
  0
LWPOLYLINE
  5
CB6D
330
17
100
AcDbEntity
  8
R-SWTS-DET1
100
AcDbPolyline
 90
       14
 70
     1
 43
0.0
 10
15.30143056235903
 20
32.00377494522184
 10
15.66543056235903
 20
32.00377494522184
 10
15.66543056235903
 20
32.03377494522186
 42
-1.0
 10
15.74543056235902
 20
32.03377494522186
 10
15.74543056235902
 20
32.01377494522184
 42
-0.4142135623730908
 10
15.68543056235903
 20
31.95377494522184
 10
15.24143056235903
 20
31.95377494522184
 10
15.24143056235903
 20
34.45377494522184
 10
15.68543056235903
 20
34.45377494522184
 42
-0.4142135623730907
 10
15.74543056235902
 20
34.39377494522183
 10
15.74543056235902
 20
34.37377494522181
 42
-1.0
 10
15.66543056235903
 20
34.37377494522181
 10
15.66543056235903
 20
34.40377494522184
 10
15.30143056235903
 20
34.40377494522184
  0
LINE
  5
CB6E
330
17
100
AcDbEntity
  8
R-SWTS-DET2
100
AcDbLine
 10
15.86643056235903
 20
33.45377494522184
 30
0.0
 11
15.86643056235903
 21
32.95377494522184
 31
0.0
  0
LINE
  5
CB6F
330
17
100
AcDbEntity
  8
R-SWTS-DET2
100
AcDbLine
 10
15.82643056235903
 20
33.45377494522184
 30
0.0
 11
15.82643056235903
 21
32.95377494522184
 31
0.0
  0
LINE
  5
CB70
330
17
100
AcDbEntity
  8
R-SWTS-DET2
100
AcDbLine
 10
15.65182556235903
 20
33.35595494522184
 30
0.0
 11
15.65182556235903
 21
33.05157994522183
 31
0.0
  0
LINE
  5
CB71
330
17
100
AcDbEntity
  8
R-SWTS-DET2
100
AcDbLine
 10
15.68282556235903
 20
33.39036494522183
 30
0.0
 11
15.68282556235903
 21
33.01717494522184
 31
0.0
  0
ARC
  5
CB72
330
17
100
AcDbEntity
  8
R-SWTS-DET2
100
AcDbCircle
 10
15.70613556235904
 20
33.05157994522183
 30
0.0
 40
0.0543126
100
AcDbArc
 50
110.9106999999998
 51
249.0893000000001
  0
LINE
  5
CB73
330
17
100
AcDbEntity
  8
R-SWTS-DET3
100
AcDbLine
 10
15.45743056235903
 20
31.93125208910705
 30
0.0
 11
15.45743056235903
 21
33.67277494522183
 31
0.0
  0
LWPOLYLINE
  5
CB74
330
17
100
AcDbEntity
  8
R-SWTS-DET3
100
AcDbPolyline
 90
        4
 70
     1
 43
0.0
 10
15.61343056235903
 20
31.95377494522184
 10
15.30143056235903
 20
32.00377494522184
 10
15.30143056235903
 20
31.95377494522184
 10
15.61343056235903
 20
32.00377494522184
  0
LINE
  5
CB75
330
17
100
AcDbEntity
  8
R-SWTS-DET2
100
AcDbLine
 10
15.70167564033515
 20
31.95338932116142
 30
0.0
 11
15.8173064980485
 21
31.95338932116142
 31
0.0
  0
SOLID
  5
CB76
330
17
100
AcDbEntity
  8
R-SWTS-DET3
100
AcDbTrace
 10
15.49076389569236
 20
31.93125208910705
 30
0.0
 11
15.4240972290257
 21
31.93125208910705
 31
0.0
 12
15.45743056235903
 22
31.73125208910704
 32
0.0
 13
15.45743056235903
 23
31.73125208910704
 33
0.0
  0
LINE
  5
CB77
330
17
100
AcDbEntity
  8
R-SWTS-DET2
100
AcDbLine
 10
15.70167564033516
 20
31.89338932116142
 30
0.0
 11
15.70167564033515
 21
31.95338932116142
 31
0.0
  0
LINE
  5
CB78
330
17
100
AcDbEntity
  8
R-SWTS-DET2
100
AcDbLine
 10
15.68675056235903
 20
33.00085494522183
 30
0.0
 11
15.82643056235903
 21
33.00085494522183
 31
0.0
  0
LINE
  5
CB79
330
17
100
AcDbEntity
  8
R-SWTS-DET2
100
AcDbLine
 10
15.66412056235903
 20
33.01717494522184
 30
0.0
 11
15.68282556235903
 21
33.01717494522184
 31
0.0
  0
LINE
  5
CB7A
330
17
100
AcDbEntity
  8
R-SWTS-DET1
100
AcDbLine
 10
15.99143056235902
 20
33.07077494522185
 30
0.0
 11
15.86643056235903
 21
33.07077494522185
 31
0.0
  0
LINE
  5
CB7B
330
17
100
AcDbEntity
  8
R-SWTS-DET2
100
AcDbLine
 10
15.82643056235903
 20
32.95377494522184
 30
0.0
 11
15.86643056235903
 21
32.95377494522184
 31
0.0
  0
LINE
  5
CB7C
330
17
100
AcDbEntity
  8
R-SWTS-DET2
100
AcDbLine
 10
15.99143056235902
 20
32.95327494522183
 30
0.0
 11
15.99143056235902
 21
32.89077494522184
 31
0.0
  0
LINE
  5
CB7D
330
17
100
AcDbEntity
  8
R-SWTS-DET2
100
AcDbLine
 10
15.68675056235903
 20
33.10230994522183
 30
0.0
 11
15.82643056235903
 21
33.10230994522183
 31
0.0
  0
LINE
  5
CB7E
330
17
100
AcDbEntity
  8
R-SWTS-DET2
100
AcDbLine
 10
15.68675056235903
 20
33.30522994522184
 30
0.0
 11
15.82643056235903
 21
33.30522994522184
 31
0.0
  0
LINE
  5
CB7F
330
17
100
AcDbEntity
  8
R-SWTS-DET2
100
AcDbLine
 10
15.68675056235903
 20
33.40668494522184
 30
0.0
 11
15.82643056235903
 21
33.40668494522184
 31
0.0
  0
LINE
  5
CB80
330
17
100
AcDbEntity
  8
R-SWTS-DET2
100
AcDbLine
 10
15.66412056235903
 20
33.39036494522183
 30
0.0
 11
15.68282556235903
 21
33.39036494522183
 31
0.0
  0
ARC
  5
CB81
330
17
100
AcDbEntity
  8
R-SWTS-DET2
100
AcDbCircle
 10
15.70613556235904
 20
33.35595494522184
 30
0.0
 40
0.0543126
100
AcDbArc
 50
110.9106999999998
 51
249.0893000000001
  0
ARC
  5
CB82
330
17
100
AcDbEntity
  8
R-SWTS-DET2
100
AcDbCircle
 10
15.81667556235904
 20
33.20377494522184
 30
0.0
 40
0.16484915
100
AcDbArc
 50
142.0123
 51
217.9877
  0
LWPOLYLINE
  5
CB83
330
17
100
AcDbEntity
  8
R-SWTS-DET3
100
AcDbPolyline
 90
        5
 70
     0
 43
0.0
 10
15.89143056235903
 20
33.52877494522184
 10
15.99143056235902
 20
33.82877494522184
 10
15.89143056235904
 20
33.82877494522184
 10
15.99143056235902
 20
33.51677494522183
 10
15.87943056235902
 20
33.51677494522183
  0
LINE
  5
CB84
330
17
100
AcDbEntity
  8
R-SWTS-DET1
100
AcDbLine
 10
15.99143056235902
 20
33.33677494522183
 30
0.0
 11
15.86643056235903
 21
33.33677494522183
 31
0.0
  0
LINE
  5
CB85
330
17
100
AcDbEntity
  8
R-SWTS-DET2
100
AcDbLine
 10
15.82643056235903
 20
33.45377494522184
 30
0.0
 11
15.86643056235903
 21
33.45377494522184
 31
0.0
  0
LINE
  5
CB86
330
17
100
AcDbEntity
  8
R-SWTS-DET2
100
AcDbLine
 10
15.99143056235903
 20
33.51677494522184
 30
0.0
 11
15.99143056235902
 21
33.45427494522184
 31
0.0
  0
LINE
  5
CB87
330
17
100
AcDbEntity
  8
R-SWTS-DET2
100
AcDbLine
 10
15.70167564033515
 20
34.45416056928225
 30
0.0
 11
15.8173064980485
 21
34.45416056928225
 31
0.0
  0
LINE
  5
CB88
330
17
100
AcDbEntity
  8
R-SWTS-DET2
100
AcDbLine
 10
15.70167564033516
 20
34.51416056928226
 30
0.0
 11
15.70167564033515
 21
34.45416056928225
 31
0.0
  0
LINE
  5
CB89
330
17
100
AcDbEntity
  8
R-SWTS-DET2
100
AcDbLine
 10
16.53143056235903
 20
33.07838494522184
 30
0.0
 11
16.86643056235903
 21
33.20377494522184
 31
0.0
  0
LINE
  5
CB8A
330
17
100
AcDbEntity
  8
R-SWTS-DET2
100
AcDbLine
 10
16.49118548438291
 20
31.81685388809055
 30
0.0
 11
17.0311854843829
 21
31.89338932116142
 31
0.0
  0
ARC
  5
CB8B
330
17
100
AcDbEntity
  8
R-SWTS-DET3
100
AcDbCircle
 10
15.94111576861091
 20
31.70377494522184
 30
0.0
 40
0.875
100
AcDbArc
 50
343.39845040098
 51
10.34422482500192
  0
LWPOLYLINE
  5
CB8C
330
17
100
AcDbEntity
  8
R-SWTS-DET2
100
AcDbPolyline
 90
        5
 70
     0
 43
0.005
 10
16.74143056235902
 20
32.43338932116142
 10
16.74143056235902
 20
32.89077494522184
 10
16.49143056235903
 20
32.89077494522184
 10
16.49143056235903
 20
31.45377494522184
 10
16.74143056235902
 20
31.45377494522184
  0
LWPOLYLINE
  5
CB8D
330
17
100
AcDbEntity
  8
R-SWTS-DET3
100
AcDbPolyline
 90
        2
 70
     0
 43
0.005
 10
16.74143056235902
 20
31.45377494522184
 10
16.74143056235902
 20
31.85232169441788
  0
ARC
  5
CB8E
330
17
100
AcDbEntity
  8
R-SWTS-DET3
100
AcDbCircle
 10
15.90581755157997
 20
31.70377494522184
 30
0.0
 40
0.875
100
AcDbArc
 50
343.39845040098
 51
10.01965073813265
  0
LINE
  5
CB8F
330
17
100
AcDbEntity
  8
R-SWTS-DET2
100
AcDbLine
 10
16.24143056235903
 20
32.95327494522183
 30
0.0
 11
16.24143056235903
 21
32.89077494522184
 31
0.0
  0
LINE
  5
CB90
330
17
100
AcDbEntity
  8
R-SWTS-DET2
100
AcDbLine
 10
16.74118548438291
 20
32.43338932116142
 30
0.0
 11
16.49118548438291
 21
32.43338932116142
 31
0.0
  0
ARC
  5
CB91
330
17
100
AcDbEntity
  8
R-SWTS-DET3
100
AcDbCircle
 10
16.01171220267282
 20
31.70377494522184
 30
0.0
 40
0.875
100
AcDbArc
 50
343.39845040098
 51
10.99360288808094
  0
ARC
  5
CB92
330
17
100
AcDbEntity
  8
R-SWTS-DET3
100
AcDbCircle
 10
16.04701041970377
 20
31.70377494522184
 30
0.0
 40
0.875
100
AcDbArc
 50
343.39845040098
 51
11.31842784860225
  0
ARC
  5
CB93
330
17
100
AcDbEntity
  8
R-SWTS-DET3
100
AcDbCircle
 10
16.08230863673471
 20
31.70377494522184
 30
0.0
 40
0.875
100
AcDbArc
 50
343.39845040098
 51
11.6433574614931
  0
ARC
  5
CB94
330
17
100
AcDbEntity
  8
R-SWTS-DET3
100
AcDbCircle
 10
16.11760685376566
 20
31.70377494522184
 30
0.0
 40
0.875
100
AcDbArc
 50
343.39845040098
 51
11.96840228882296
  0
ARC
  5
CB95
330
17
100
AcDbEntity
  8
R-SWTS-DET3
100
AcDbCircle
 10
16.15290507079661
 20
31.70377494522184
 30
0.0
 40
0.875
100
AcDbArc
 50
343.39845040098
 51
12.2935729262421
  0
ARC
  5
CB96
330
17
100
AcDbEntity
  8
R-SWTS-DET3
100
AcDbCircle
 10
15.97641398564187
 20
31.70377494522184
 30
0.0
 40
0.875
100
AcDbArc
 50
343.39845040098
 51
10.66887204830818
  0
LINE
  5
CB97
330
17
100
AcDbEntity
  8
R-SWTS-DET3
100
AcDbLine
 10
17.03118548438292
 20
31.95338932116142
 30
0.0
 11
16.91555462666956
 21
31.95338932116142
 31
0.0
  0
LINE
  5
CB98
330
17
100
AcDbEntity
  8
R-SWTS-DET3
100
AcDbLine
 10
17.0311854843829
 20
31.89338932116142
 30
0.0
 11
17.03118548438292
 21
31.95338932116142
 31
0.0
  0
LINE
  5
CB9B
330
17
100
AcDbEntity
  8
R-SWTS-DET2
100
AcDbLine
 10
16.86643056235903
 20
33.20377494522184
 30
0.0
 11
16.53143056235903
 21
33.32915494522183
 31
0.0
  0
LINE
  5
CB9C
330
17
100
AcDbEntity
  8
R-SWTS-DET2
100
AcDbLine
 10
16.49118548438291
 20
34.59069600235312
 30
0.0
 11
17.0311854843829
 21
34.51416056928226
 31
0.0
  0
LINE
  5
CB9D
330
17
100
AcDbEntity
  8
R-SWTS-DET1
100
AcDbLine
 10
16.49193056235903
 20
33.95377494522184
 30
0.0
 11
16.24193056235903
 21
33.95377494522184
 31
0.0
  0
LINE
  5
CB9E
330
17
100
AcDbEntity
  8
R-SWTS-DET2
100
AcDbLine
 10
16.61643056235903
 20
33.51677494522184
 30
0.0
 11
16.24143056235903
 21
33.51677494522184
 31
0.0
  0
LINE
  5
CB9F
330
17
100
AcDbEntity
  8
R-SWTS-DET2
100
AcDbLine
 10
16.17893056235903
 20
33.95377494522184
 30
0.0
 11
16.67893056235903
 21
33.95377494522184
 31
0.0
  0
LINE
  5
CBA0
330
17
100
AcDbEntity
  8
R-SWTS-DET2
100
AcDbLine
 10
16.24143056235903
 20
33.51677494522184
 30
0.0
 11
16.24143056235903
 21
33.82877494522184
 31
0.0
  0
LINE
  5
CBA1
330
17
100
AcDbEntity
  8
R-SWTS-DET2
100
AcDbLine
 10
16.24143056235903
 20
33.51677494522184
 30
0.0
 11
16.24143056235903
 21
33.45427494522184
 31
0.0
  0
ARC
  5
CBA2
330
17
100
AcDbEntity
  8
R-SWTS-DET2
100
AcDbCircle
 10
16.17893056235903
 20
33.89127494522184
 30
0.0
 40
0.0625
100
AcDbArc
 50
90.0
 51
270.0
  0
LINE
  5
CBA3
330
17
100
AcDbEntity
  8
R-SWTS-DET2
100
AcDbLine
 10
16.24143056235903
 20
33.82877494522184
 30
0.0
 11
16.17893056235903
 21
33.82877494522184
 31
0.0
  0
LINE
  5
CBA4
330
17
100
AcDbEntity
  8
R-SWTS-DET2
100
AcDbLine
 10
16.61643056235903
 20
33.82877494522184
 30
0.0
 11
16.61643056235903
 21
33.51677494522184
 31
0.0
  0
LINE
  5
CBA5
330
17
100
AcDbEntity
  8
R-SWTS-DET1
100
AcDbLine
 10
16.67893056235903
 20
33.82877494522184
 30
0.0
 11
16.61643056235903
 21
33.82877494522184
 31
0.0
  0
ARC
  5
CBA6
330
17
100
AcDbEntity
  8
R-SWTS-DET2
100
AcDbCircle
 10
16.67893056235903
 20
33.89127494522184
 30
0.0
 40
0.0625
100
AcDbArc
 50
270.0
 51
90.0
  0
LINE
  5
CBA7
330
17
100
AcDbEntity
  8
R-SWTS-DET2
100
AcDbLine
 10
16.74118548438291
 20
33.97416056928226
 30
0.0
 11
16.49118548438291
 21
33.97416056928226
 31
0.0
  0
LINE
  5
CBAA
330
17
100
AcDbEntity
  8
R-SWTS-DET2
100
AcDbLine
 10
17.48693056235905
 20
33.22077494522183
 30
0.0
 11
17.48693056235905
 21
33.18677494522184
 31
0.0
  0
LINE
  5
CBAB
330
17
100
AcDbEntity
  8
R-SWTS-DET2
100
AcDbLine
 10
17.03118548438292
 20
34.45416056928225
 30
0.0
 11
16.91555462666956
 21
34.45416056928225
 31
0.0
  0
LINE
  5
CBAC
330
17
100
AcDbEntity
  8
R-SWTS-DET2
100
AcDbLine
 10
17.0311854843829
 20
34.51416056928226
 30
0.0
 11
17.03118548438292
 21
34.45416056928225
 31
0.0
  0
LINE
  5
CBAD
330
17
100
AcDbEntity
  8
R-ANNO-DIMS
100
AcDbLine
 10
15.24143056235906
 20
35.82877494522184
 30
0.0
 11
15.24143056235906
 21
36.88377494522183
 31
0.0
  0
SOLID
  5
CBAE
330
17
100
AcDbEntity
  8
R-ANNO-DIMS
100
AcDbTrace
 10
15.49143056235905
 20
36.74544161188851
 30
0.0
 11
15.49143056235905
 21
36.66210827855517
 31
0.0
 12
15.24143056235906
 22
36.70377494522184
 32
0.0
 13
15.24143056235906
 23
36.70377494522184
 33
0.0
  0
LINE
  5
CBB0
330
17
100
AcDbEntity
  8
R-SWTS-DET2
100
AcDbLine
 10
17.61643056235904
 20
33.45377494522184
 30
0.0
 11
17.61643056235904
 21
32.95377494522184
 31
0.0
  0
LINE
  5
CBB1
330
17
100
AcDbEntity
  8
R-SWTS-DET2
100
AcDbLine
 10
17.63343058235904
 20
33.12202502522183
 30
0.0
 11
17.63343058235904
 21
33.07427494522183
 31
0.0
  0
LINE
  5
CBB2
330
17
100
AcDbEntity
  8
R-SWTS-DET2
100
AcDbLine
 10
17.59943060235905
 20
33.12202502522183
 30
0.0
 11
17.59943060235905
 21
33.07427494522183
 31
0.0
  0
LINE
  5
CBB3
330
17
100
AcDbEntity
  8
R-SWTS-DET2
100
AcDbLine
 10
17.59943060235905
 20
33.07427494522183
 30
0.0
 11
17.63343058235904
 21
33.07427494522183
 31
0.0
  0
LINE
  5
CBB4
330
17
100
AcDbEntity
  8
R-SWTS-DET2
100
AcDbLine
 10
17.69818054235904
 20
33.18677494522184
 30
0.0
 11
17.74593056235905
 21
33.18677494522184
 31
0.0
  0
LINE
  5
CBB5
330
17
100
AcDbEntity
  8
R-SWTS-DET2
100
AcDbLine
 10
17.69818054235904
 20
33.22077494522183
 30
0.0
 11
17.74593056235905
 21
33.22077494522183
 31
0.0
  0
ARC
  5
CBB6
330
17
100
AcDbEntity
  8
R-SWTS-DET2
100
AcDbCircle
 10
17.53468064235905
 20
33.12202502522183
 30
0.0
 40
0.06474996
100
AcDbArc
 50
0.0
 51
89.9999099999999
  0
ARC
  5
CBB7
330
17
100
AcDbEntity
  8
R-SWTS-DET2
100
AcDbCircle
 10
17.69818054235904
 20
33.12202502522183
 30
0.0
 40
0.06474996
100
AcDbArc
 50
89.99997000000004
 51
180.0
  0
ARC
  5
CBB8
330
17
100
AcDbEntity
  8
R-SWTS-DET2
100
AcDbCircle
 10
17.69818054235904
 20
33.28552486522183
 30
0.0
 40
0.06474996
100
AcDbArc
 50
180.0
 51
270.0
  0
ARC
  5
CBB9
330
17
100
AcDbEntity
  8
R-SWTS-DET2
100
AcDbCircle
 10
17.53468064235905
 20
33.28552486522183
 30
0.0
 40
0.06474996
100
AcDbArc
 50
270.0
 51
0.0
  0
LINE
  5
CBBA
330
17
100
AcDbEntity
  8
R-SWTS-DET2
100
AcDbLine
 10
17.59943060235905
 20
33.33327494522183
 30
0.0
 11
17.63343058235904
 21
33.33327494522183
 31
0.0
  0
LINE
  5
CBBB
330
17
100
AcDbEntity
  8
R-SWTS-DET2
100
AcDbLine
 10
17.63343058235904
 20
33.33327494522183
 30
0.0
 11
17.63343058235904
 21
33.28552486522183
 31
0.0
  0
LINE
  5
CBBC
330
17
100
AcDbEntity
  8
R-SWTS-DET2
100
AcDbLine
 10
17.59943060235905
 20
33.33327494522183
 30
0.0
 11
17.59943060235905
 21
33.28552486522183
 31
0.0
  0
LINE
  5
CBBD
330
17
100
AcDbEntity
  8
R-SWTS-DET2
100
AcDbLine
 10
17.74593056235905
 20
33.22077494522183
 30
0.0
 11
17.74593056235905
 21
33.18677494522184
 31
0.0
  0
MTEXT
  5
CBBE
330
17
100
AcDbEntity
  8
R-ANNO-DIMS
100
AcDbMText
 10
18.61643056235904
 20
36.92877494522183
 30
0.0
 40
0.25
 41
0.0
 46
0.0
 71
     5
 72
     1
  1
\A1;6 3/4"
 73
     1
 44
1.0
  0
SOLID
  5
CBC4
330
17
100
AcDbEntity
  8
R-ANNO-DIMS
100
AcDbTrace
 10
23.91900692171892
 20
31.20377494522184
 30
0.0
 11
24.00234025505226
 21
31.20377494522184
 31
0.0
 12
23.96067358838559
 22
31.45377494522184
 32
0.0
 13
23.96067358838559
 23
31.45377494522184
 33
0.0
  0
MTEXT
  5
CBC5
330
17
100
AcDbEntity
  8
R-ANNO-DIMS
100
AcDbMText
 10
22.66685643823144
 20
30.73660141390873
 30
0.0
 40
0.25
 41
0.0
 46
0.0
 71
     5
 72
     1
  1
\A1;1 1/2"
 11
0.0000000000000001
 21
1.0
 31
0.0
 73
     1
 44
1.0
  0
LINE
  5
CBC6
330
17
100
AcDbEntity
  8
R-SWTS-DET2
  6
HIDDEN
100
AcDbLine
 10
21.50143056235903
 20
28.30427494522182
 30
0.0
 11
21.50143056235903
 21
31.45377494522184
 31
0.0
  0
LINE
  5
CBC7
330
17
100
AcDbEntity
  8
R-SWTS-DET2
  6
HIDDEN
100
AcDbLine
 10
21.75143056235903
 20
28.30427494522183
 30
0.0
 11
21.75143056235903
 21
31.45377494522184
 31
0.0
  0
LINE
  5
CBC8
330
17
100
AcDbEntity
  8
R-SWTS-DET1
100
AcDbLine
 10
21.99143056235903
 20
23.95377494522183
 30
0.0
 11
21.99143056235903
 21
31.45377494522184
 31
0.0
  0
LINE
  5
CBCD
330
17
100
AcDbEntity
  8
R-ANNO-DIMS
100
AcDbLine
 10
21.11643056235902
 20
29.32877494522184
 30
0.0
 11
21.11643056235902
 21
26.16415088668808
 31
0.0
  0
SOLID
  5
CBD0
330
17
100
AcDbEntity
  8
R-ANNO-DIMS
100
AcDbTrace
 10
20.86643056235901
 20
26.38581755335474
 30
0.0
 11
20.86643056235901
 21
26.30248422002142
 31
0.0
 12
21.11643056235902
 22
26.34415088668807
 32
0.0
 13
21.11643056235902
 23
26.34415088668807
 33
0.0
  0
LINE
  5
CBD1
330
17
100
AcDbEntity
  8
R-ANNO-DIMS
100
AcDbLine
 10
21.74143056235902
 20
29.95377494522184
 30
0.0
 11
23.07185643823145
 21
29.95377494522184
 31
0.0
  0
CIRCLE
  5
CBD2
330
17
100
AcDbEntity
  8
R-SWTS-DET2
100
AcDbCircle
 10
21.11643056235902
 20
28.20377494522184
 30
0.0
 40
0.0865
  0
CIRCLE
  5
CBD3
330
17
100
AcDbEntity
  8
R-SWTS-DET2
100
AcDbCircle
 10
21.11643056235902
 20
29.95377494522184
 30
0.0
 40
0.1925
  0
ARC
  5
CBD4
330
17
100
AcDbEntity
  8
R-SWTS-DET2
100
AcDbCircle
 10
21.18343053235901
 20
29.88677497522184
 30
0.0
 40
0.051
100
AcDbArc
 50
89.99997000000004
 51
180.0
  0
ARC
  5
CBD5
330
17
100
AcDbEntity
  8
R-SWTS-DET2
100
AcDbCircle
 10
21.18343053235901
 20
30.02077491522184
 30
0.0
 40
0.051
100
AcDbArc
 50
180.0
 51
270.0
  0
LINE
  5
CBD6
330
17
100
AcDbEntity
  8
R-SWTS-DET2
100
AcDbLine
 10
20.86643056235901
 20
29.95377494522184
 30
0.0
 11
21.36643056235902
 21
29.95377494522184
 31
0.0
  0
ARC
  5
CBD7
330
17
100
AcDbEntity
  8
R-SWTS-DET2
100
AcDbCircle
 10
21.04943059235901
 20
30.02077491522184
 30
0.0
 40
0.051
100
AcDbArc
 50
270.0
 51
0.0
  0
LINE
  5
CBD8
330
17
100
AcDbEntity
  8
R-SWTS-DET2
100
AcDbLine
 10
21.11643056235902
 20
30.20377494522184
 30
0.0
 11
21.11643056235902
 21
29.70377494522184
 31
0.0
  0
ARC
  5
CBD9
330
17
100
AcDbEntity
  8
R-SWTS-DET2
100
AcDbCircle
 10
21.04943059235901
 20
29.88677497522184
 30
0.0
 40
0.051
100
AcDbArc
 50
0.0
 51
89.9999099999999
  0
LINE
  5
CBDA
330
17
100
AcDbEntity
  8
R-SWTS-DET2
100
AcDbLine
 10
21.10043056235902
 20
29.88677497522184
 30
0.0
 11
21.10043056235902
 21
29.85177494522183
 31
0.0
  0
LINE
  5
CBDB
330
17
100
AcDbEntity
  8
R-SWTS-DET2
100
AcDbLine
 10
21.01443056235901
 20
29.93777494522183
 30
0.0
 11
21.04943059235901
 21
29.93777494522183
 31
0.0
  0
LINE
  5
CBDC
330
17
100
AcDbEntity
  8
R-SWTS-DET2
100
AcDbLine
 10
21.01443056235901
 20
29.96977494522184
 30
0.0
 11
21.04943059235901
 21
29.96977494522184
 31
0.0
  0
LINE
  5
CBDD
330
17
100
AcDbEntity
  8
R-SWTS-DET2
100
AcDbLine
 10
21.10043056235902
 20
29.85177494522183
 30
0.0
 11
21.13243056235902
 21
29.85177494522183
 31
0.0
  0
LINE
  5
CBDE
330
17
100
AcDbEntity
  8
R-SWTS-DET2
100
AcDbLine
 10
21.01443056235901
 20
29.96977494522184
 30
0.0
 11
21.01443056235901
 21
29.93777494522183
 31
0.0
  0
LINE
  5
CBDF
330
17
100
AcDbEntity
  8
R-SWTS-DET2
100
AcDbLine
 10
21.13243056235902
 20
29.88677497522184
 30
0.0
 11
21.13243056235902
 21
29.85177494522183
 31
0.0
  0
LINE
  5
CBE0
330
17
100
AcDbEntity
  8
R-SWTS-DET2
100
AcDbLine
 10
21.13243056235902
 20
30.05577494522184
 30
0.0
 11
21.13243056235902
 21
30.02077491522184
 31
0.0
  0
LINE
  5
CBE1
330
17
100
AcDbEntity
  8
R-SWTS-DET2
100
AcDbLine
 10
21.10043056235902
 20
30.05577494522184
 30
0.0
 11
21.10043056235902
 21
30.02077491522184
 31
0.0
  0
LINE
  5
CBE2
330
17
100
AcDbEntity
  8
R-SWTS-DET2
100
AcDbLine
 10
21.10043056235902
 20
30.05577494522184
 30
0.0
 11
21.13243056235902
 21
30.05577494522184
 31
0.0
  0
LINE
  5
CBE3
330
17
100
AcDbEntity
  8
R-SWTS-DET2
100
AcDbLine
 10
21.18343053235901
 20
29.96977494522184
 30
0.0
 11
21.21843056235902
 21
29.96977494522184
 31
0.0
  0
LINE
  5
CBE4
330
17
100
AcDbEntity
  8
R-SWTS-DET2
100
AcDbLine
 10
21.18343053235901
 20
29.93777494522183
 30
0.0
 11
21.21843056235902
 21
29.93777494522183
 31
0.0
  0
LINE
  5
CBE5
330
17
100
AcDbEntity
  8
R-SWTS-DET2
100
AcDbLine
 10
21.21843056235902
 20
29.96977494522184
 30
0.0
 11
21.21843056235902
 21
29.93777494522183
 31
0.0
  0
LINE
  5
CBE7
330
17
100
AcDbEntity
  8
R-ANNO-DIMS
100
AcDbLine
 10
22.89185643823145
 20
29.70377494522184
 30
0.0
 11
22.89185643823145
 21
29.45377494522184
 31
0.0
  0
SOLID
  5
CBE8
330
17
100
AcDbEntity
  8
R-ANNO-DIMS
100
AcDbTrace
 10
22.85018977156477
 20
29.70377494522184
 30
0.0
 11
22.93352310489812
 21
29.70377494522184
 31
0.0
 12
22.89185643823145
 22
29.95377494522184
 32
0.0
 13
22.89185643823145
 23
29.95377494522184
 33
0.0
  0
MTEXT
  5
CBE9
330
17
100
AcDbEntity
  8
R-ANNO-DIMS
100
AcDbMText
 10
23.73567358838558
 20
29.82877494522184
 30
0.0
 40
0.25
 41
0.0
 46
0.0
 71
     5
 72
     1
  1
\A1;3 1/4"
 11
0.0000000000000001
 21
1.0
 31
0.0
 73
     1
 44
1.0
  0
LINE
  5
CBEA
330
17
100
AcDbEntity
  8
R-ANNO-DIMS
100
AcDbLine
 10
23.96067358838559
 20
28.45377494522184
 30
0.0
 11
23.96067358838559
 21
31.20377494522184
 31
0.0
  0
SOLID
  5
CBEB
330
17
100
AcDbEntity
  8
R-ANNO-DIMS
100
AcDbTrace
 10
23.91900692171892
 20
28.45377494522184
 30
0.0
 11
24.00234025505226
 21
28.45377494522184
 31
0.0
 12
23.96067358838559
 22
28.20377494522184
 32
0.0
 13
23.96067358838559
 23
28.20377494522184
 33
0.0
  0
LINE
  5
CBEC
330
17
100
AcDbEntity
  8
R-ANNO-DIMS
100
AcDbLine
 10
22.36643056235903
 20
31.45377494522184
 30
0.0
 11
24.14067358838559
 21
31.45377494522184
 31
0.0
  0
LINE
  5
CBEF
330
17
100
AcDbEntity
  8
R-SWTS-DET1
100
AcDbLine
 10
21.99143056235903
 20
31.95377494522184
 30
0.0
 11
21.99143056235903
 21
35.45377494522182
 31
0.0
  0
CIRCLE
  5
CBF0
330
17
100
AcDbEntity
  8
R-SWTS-DET2
100
AcDbCircle
 10
21.11643056235902
 20
33.20377494522184
 30
0.0
 40
0.2125
  0
LINE
  5
CBF1
330
17
100
AcDbEntity
  8
R-SWTS-DET2
100
AcDbLine
 10
21.11643056235902
 20
33.45377494522184
 30
0.0
 11
21.11643056235902
 21
32.95377494522184
 31
0.0
  0
LINE
  5
CBF2
330
17
100
AcDbEntity
  8
R-SWTS-DET2
100
AcDbLine
 10
21.13343058235901
 20
33.12202502522183
 30
0.0
 11
21.13343058235901
 21
33.07427494522183
 31
0.0
  0
LINE
  5
CBF3
330
17
100
AcDbEntity
  8
R-SWTS-DET2
100
AcDbLine
 10
21.09943060235902
 20
33.12202502522183
 30
0.0
 11
21.09943060235902
 21
33.07427494522183
 31
0.0
  0
LINE
  5
CBF4
330
17
100
AcDbEntity
  8
R-SWTS-DET2
  6
HIDDEN
100
AcDbLine
 10
21.50143056235903
 20
31.95377494522184
 30
0.0
 11
21.50143056235903
 21
34.80427494522182
 31
0.0
  0
LINE
  5
CBF5
330
17
100
AcDbEntity
  8
R-SWTS-DET2
  6
HIDDEN
100
AcDbLine
 10
21.75143056235903
 20
31.95377494522184
 30
0.0
 11
21.75143056235903
 21
34.80427494522184
 31
0.0
  0
LINE
  5
CBF6
330
17
100
AcDbEntity
  8
R-SWTS-DET2
100
AcDbLine
 10
21.09943060235902
 20
33.07427494522183
 30
0.0
 11
21.13343058235901
 21
33.07427494522183
 31
0.0
  0
LINE
  5
CBF7
330
17
100
AcDbEntity
  8
R-SWTS-DET2
100
AcDbLine
 10
21.50143056235903
 20
31.45377494522184
 30
0.0
 11
21.50143056235903
 21
31.95377494522184
 31
0.0
  0
LINE
  5
CBF8
330
17
100
AcDbEntity
  8
R-SWTS-DET2
100
AcDbLine
 10
21.75143056235903
 20
31.45377494522184
 30
0.0
 11
21.75143056235903
 21
31.95377494522184
 31
0.0
  0
ARC
  5
CBF9
330
17
100
AcDbEntity
  8
R-SWTS-DET2
100
AcDbCircle
 10
21.19818054235901
 20
33.12202502522183
 30
0.0
 40
0.06474996
100
AcDbArc
 50
89.99997000000004
 51
180.0
  0
ARC
  5
CBFA
330
17
100
AcDbEntity
  8
R-SWTS-DET2
100
AcDbCircle
 10
21.19818054235901
 20
33.28552486522183
 30
0.0
 40
0.06474996
100
AcDbArc
 50
180.0
 51
270.0
  0
LINE
  5
CBFB
330
17
100
AcDbEntity
  8
R-SWTS-DET2
100
AcDbLine
 10
20.86643056235901
 20
33.20377494522184
 30
0.0
 11
21.36643056235902
 21
33.20377494522184
 31
0.0
  0
ARC
  5
CBFC
330
17
100
AcDbEntity
  8
R-SWTS-DET2
100
AcDbCircle
 10
21.03468064235902
 20
33.12202502522183
 30
0.0
 40
0.06474996
100
AcDbArc
 50
0.0
 51
89.9999099999999
  0
ARC
  5
CBFD
330
17
100
AcDbEntity
  8
R-SWTS-DET2
100
AcDbCircle
 10
21.03468064235902
 20
33.28552486522183
 30
0.0
 40
0.06474996
100
AcDbArc
 50
270.0
 51
0.0
  0
LINE
  5
CBFE
330
17
100
AcDbEntity
  8
R-SWTS-DET2
100
AcDbLine
 10
21.09943060235902
 20
33.33327494522183
 30
0.0
 11
21.13343058235901
 21
33.33327494522183
 31
0.0
  0
LINE
  5
CBFF
330
17
100
AcDbEntity
  8
R-SWTS-DET2
100
AcDbLine
 10
20.98693056235902
 20
33.22077494522183
 30
0.0
 11
20.98693056235902
 21
33.18677494522184
 31
0.0
  0
LINE
  5
CC00
330
17
100
AcDbEntity
  8
R-SWTS-DET2
100
AcDbLine
 10
20.98693056235902
 20
33.18677494522184
 30
0.0
 11
21.03468064235902
 21
33.18677494522184
 31
0.0
  0
LINE
  5
CC01
330
17
100
AcDbEntity
  8
R-SWTS-DET2
100
AcDbLine
 10
20.98693056235902
 20
33.22077494522183
 30
0.0
 11
21.03468064235902
 21
33.22077494522183
 31
0.0
  0
LINE
  5
CC02
330
17
100
AcDbEntity
  8
R-SWTS-DET2
100
AcDbLine
 10
21.13343058235901
 20
33.33327494522183
 30
0.0
 11
21.13343058235901
 21
33.28552486522183
 31
0.0
  0
LINE
  5
CC03
330
17
100
AcDbEntity
  8
R-SWTS-DET2
100
AcDbLine
 10
21.09943060235902
 20
33.33327494522183
 30
0.0
 11
21.09943060235902
 21
33.28552486522183
 31
0.0
  0
LINE
  5
CC04
330
17
100
AcDbEntity
  8
R-SWTS-DET2
100
AcDbLine
 10
21.24593056235902
 20
33.22077494522183
 30
0.0
 11
21.24593056235902
 21
33.18677494522184
 31
0.0
  0
LINE
  5
CC05
330
17
100
AcDbEntity
  8
R-SWTS-DET2
100
AcDbLine
 10
21.19818054235901
 20
33.18677494522184
 30
0.0
 11
21.24593056235902
 21
33.18677494522184
 31
0.0
  0
LINE
  5
CC06
330
17
100
AcDbEntity
  8
R-SWTS-DET2
100
AcDbLine
 10
21.19818054235901
 20
33.22077494522183
 30
0.0
 11
21.24593056235902
 21
33.22077494522183
 31
0.0
  0
LINE
  5
CC07
330
17
100
AcDbEntity
  8
R-ANNO-DIMS
100
AcDbLine
 10
22.36643056235903
 20
31.45377494522184
 30
0.0
 11
23.07185643823145
 21
31.45377494522184
 31
0.0
  0
LINE
  5
CC08
330
17
100
AcDbEntity
  8
R-ANNO-DIMS
100
AcDbLine
 10
22.89185643823145
 20
31.70377494522184
 30
0.0
 11
22.89185643823145
 21
31.95377494522184
 31
0.0
  0
SOLID
  5
CC09
330
17
100
AcDbEntity
  8
R-ANNO-DIMS
100
AcDbTrace
 10
22.85018977156478
 20
31.70377494522184
 30
0.0
 11
22.93352310489812
 21
31.70377494522184
 31
0.0
 12
22.89185643823145
 22
31.45377494522184
 32
0.0
 13
22.89185643823145
 23
31.45377494522184
 33
0.0
  0
SOLID
  5
CC0A
330
17
100
AcDbEntity
  8
R-ANNO-DIMS
100
AcDbTrace
 10
21.74143056235903
 20
36.74544161188851
 30
0.0
 11
21.74143056235903
 21
36.66210827855517
 31
0.0
 12
21.99143056235903
 22
36.70377494522184
 32
0.0
 13
21.99143056235903
 23
36.70377494522184
 33
0.0
  0
LINE
  5
CC0F
330
17
100
AcDbEntity
  8
R-ANNO-DIMS
100
AcDbLine
 10
21.99143056235903
 20
36.45315673157191
 30
0.0
 11
21.99143056235903
 21
36.88377494522183
 31
0.0
  0
LINE
  5
CC68
330
17
100
AcDbEntity
  8
R-ANNO-DIMS
100
AcDbLine
 10
46.06379256426246
 20
27.81214937084949
 30
0.0
 11
47.61879256426246
 21
27.81214937084949
 31
0.0
  0
LWPOLYLINE
  5
CC6D
330
17
100
AcDbEntity
  8
R-SWTS-DET1
100
AcDbPolyline
 90
       28
 70
     1
 43
0.0
 10
42.53979256426245
 20
29.50214937084931
 10
42.53979256426245
 20
29.44214937084947
 10
42.33779256426244
 20
29.44214937084947
 10
42.33779256426244
 20
29.50214937084936
 42
0.4142135623730474
 10
42.27779256426246
 20
29.56214937084936
 10
41.52479256426242
 20
29.56214937084948
 42
0.4142135623732339
 10
41.49479256426242
 20
29.53214937084947
 10
41.49479256426245
 20
29.41214937084943
 10
41.28879256426245
 20
29.41214937084946
 10
41.28879256426245
 20
34.46214937084945
 10
41.44879256426244
 20
34.46214937084945
 42
-0.4142135623730951
 10
41.50879256426244
 20
34.40214937084946
 10
41.50879256426244
 20
34.34214937084945
 10
41.74379256426244
 20
34.34214937084945
 10
41.74379256426244
 20
34.40214937084947
 42
-0.4142135623730974
 10
41.80379256426244
 20
34.46214937084948
 10
43.07379256426246
 20
34.46214937084946
 42
-0.4142135623731013
 10
43.13379256426245
 20
34.40214937084946
 10
43.13379256426245
 20
34.34214937084945
 10
43.36879256426246
 20
34.34214937084945
 10
43.36879256426246
 20
34.40214937084946
 42
-0.4142135623730951
 10
43.42879256426246
 20
34.46214937084945
 10
43.58879256426245
 20
34.46214937084945
 10
43.58879256426245
 20
29.41214937084946
 10
43.38279256426245
 20
29.41214937084943
 10
43.3827925642625
 20
29.53214937084918
 42
0.4142135623731471
 10
43.35279256426249
 20
29.56214937084919
 10
42.59979256426246
 20
29.56214937084931
 42
0.4142135623731341
  0
LWPOLYLINE
  5
CC6E
330
17
100
AcDbEntity
  8
R-SWTS-DET1
100
AcDbPolyline
 90
       43
 70
     1
 43
0.0
 10
43.25622113569101
 20
29.33779102945887
 42
0.6693764950687389
 10
43.26679256426245
 20
29.31214937084943
 10
43.68879256426245
 20
29.31214937084945
 10
43.68879256426245
 20
34.56214937084945
 10
41.18879256426245
 20
34.56214937084948
 10
41.18879256426245
 20
29.31214937084945
 10
41.61079256426245
 20
29.31214937084943
 42
0.6693764950687386
 10
41.62136399283389
 20
29.33779102945887
 42
-0.1997729274168749
 10
41.59479256426245
 20
29.40164098111532
 10
41.59479256426245
 20
29.41214937084946
 42
-0.4142135623730951
 10
41.64479256426245
 20
29.46214937084945
 10
41.73279256426245
 20
29.46214937084945
 42
-0.4142135623730743
 10
41.78279256426245
 20
29.41214937084945
 10
41.78279256426245
 20
29.40164098111532
 42
-0.1997729274170188
 10
41.75622113569094
 20
29.33779102945888
 42
0.669376495068904
 10
41.76679256426236
 20
29.31214937084946
 10
41.89379256426245
 20
29.31214937084946
 42
0.4142135623730951
 10
41.92379256426245
 20
29.34214937084946
 10
41.92379256426245
 20
29.43214937084942
 42
-0.4142135623731471
 10
41.95379256426246
 20
29.46214937084941
 10
42.20779256426245
 20
29.46214937084937
 42
-0.4142135623730516
 10
42.23779256426245
 20
29.43214937084937
 10
42.23779256426245
 20
29.34214937084946
 42
0.4142135623731038
 10
42.26779256426245
 20
29.31214937084946
 10
42.40879256426246
 20
29.31214937084946
 10
42.43879256426246
 20
29.34214937084946
 10
42.46879256426246
 20
29.31214937084946
 10
42.60979256426245
 20
29.31214937084946
 42
0.4142135623730951
 10
42.63979256426245
 20
29.34214937084946
 10
42.63979256426245
 20
29.4321493708493
 42
-0.4142135623731471
 10
42.66979256426246
 20
29.4621493708493
 10
42.92379256426246
 20
29.46214937084926
 42
-0.4142135623730516
 10
42.95379256426246
 20
29.43214937084926
 10
42.95379256426246
 20
29.34214937084946
 42
0.4142135623730863
 10
42.98379256426246
 20
29.31214937084946
 10
43.11079256426254
 20
29.31214937084946
 42
0.6693764950688821
 10
43.12136399283391
 20
29.33779102945883
 42
-0.1997729274170196
 10
43.09479256426246
 20
29.40164098111532
 10
43.09479256426246
 20
29.41214937084945
 42
-0.4142135623730743
 10
43.14479256426245
 20
29.46214937084945
 10
43.23279256426245
 20
29.46214937084945
 42
-0.4142135623730951
 10
43.28279256426245
 20
29.41214937084946
 10
43.28279256426244
 20
29.40164098111532
 42
-0.1997729274168747
  0
LWPOLYLINE
  5
CC6F
330
17
100
AcDbEntity
  8
R-SWTS-DET2
100
AcDbPolyline
 90
        8
 70
     1
 43
0.0
 10
41.8637925642618
 20
33.95714937084953
 42
0.4142135623730951
 10
41.8037925642618
 20
33.89714937084953
 10
41.8037925642618
 20
30.00714937084949
 42
0.4142135623730951
 10
41.8637925642618
 20
29.94714937084948
 10
43.01379256426179
 20
29.94714937084948
 42
0.4142135623730948
 10
43.07379256426179
 20
30.00714937084949
 10
43.07379256426179
 20
33.89714937084953
 42
0.4142135623730953
 10
43.01379256426179
 20
33.95714937084953
  0
LWPOLYLINE
  5
CC70
330
17
100
AcDbEntity
  8
R-SWTS-DET2
100
AcDbPolyline
 90
       28
 70
     1
 43
0.0
 10
41.36379256426179
 20
34.33214937084952
 10
41.8037925642618
 20
34.33214937084954
 10
41.8037925642618
 20
34.20714937084954
 42
0.4142135623730948
 10
41.9287925642618
 20
34.08214937084954
 10
42.94879256426178
 20
34.08214937084954
 42
0.4142135623730762
 10
43.07379256426179
 20
34.20714937084952
 10
43.07379256426179
 20
34.33214937084954
 10
43.5137925642618
 20
34.33214937084952
 42
-0.4142135623730909
 10
43.5737925642618
 20
34.27214937084952
 10
43.5737925642618
 20
34.20714937084952
 10
43.1987925642618
 20
34.08214937084954
 10
43.1987925642618
 20
29.82214937084948
 10
43.5737925642618
 20
29.6971493708495
 10
43.5737925642618
 20
29.63214937084949
 42
-0.4142135623730821
 10
43.5137925642618
 20
29.5721493708495
 10
43.07379256426179
 20
29.57214937084948
 10
43.07379256426179
 20
29.69714937084949
 42
0.4142135623730787
 10
42.94879256426178
 20
29.82214937084948
 10
41.9287925642618
 20
29.82214937084948
 42
0.4142135623730951
 10
41.80379256426181
 20
29.69714937084948
 10
41.8037925642618
 20
29.57214937084948
 10
41.36379256426179
 20
29.5721493708495
 42
-0.4142135623730821
 10
41.3037925642618
 20
29.63214937084949
 10
41.3037925642618
 20
29.6971493708495
 10
41.67879256426179
 20
29.82214937084948
 10
41.67879256426179
 20
34.08214937084954
 10
41.3037925642618
 20
34.20714937084952
 10
41.3037925642618
 20
34.27214937084953
 42
-0.4142135623730777
  0
LWPOLYLINE
  5
CC72
330
17
100
AcDbEntity
  8
R-SWTS-DET1
100
AcDbPolyline
 90
        6
 70
     0
 43
0.0
 10
45.68879256426179
 20
27.56214937084948
 10
45.68879256426179
 20
31.08126862441185
 10
45.47654037413892
 20
31.13418903907428
 10
45.90136495197434
 20
31.24010970262469
 10
45.68911276185146
 20
31.29303011728711
 10
45.68879256426179
 20
34.81214937084948
  0
LWPOLYLINE
  5
CC73
330
17
100
AcDbEntity
  8
R-SWTS-DET1
100
AcDbPolyline
 90
        6
 70
     0
 43
0.0
 10
39.1887925642618
 20
27.56214937084948
 10
39.1887925642618
 20
31.08126862441185
 10
38.97654037413892
 20
31.13418903907428
 10
39.40136495197434
 20
31.24010970262469
 10
39.18911276185147
 20
31.29303011728711
 10
39.1887925642618
 20
34.81214937084948
  0
SOLID
  5
CC74
330
17
100
AcDbEntity
  8
R-ANNO-DIMS
100
AcDbTrace
 10
41.43879256426246
 20
26.10381603751615
 30
0.0
 11
41.43879256426246
 21
26.02048270418281
 31
0.0
 12
41.18879256426246
 22
26.06214937084948
 32
0.0
 13
41.18879256426246
 23
26.06214937084948
 33
0.0
  0
LWPOLYLINE
  5
CC75
330
17
100
AcDbEntity
  8
R-SWTS-DET3
100
AcDbPolyline
 90
        4
 70
     0
 43
0.0
 10
39.1887925642618
 20
29.06214937084948
 10
42.18879256426246
 20
29.06214937084948
 10
42.18879256426246
 20
28.81214937084948
 10
39.1887925642618
 20
28.81214937084948
  0
ARC
  5
CC76
330
17
100
AcDbEntity
  8
R-SWTS-DET3
100
AcDbCircle
 10
40.9023815833277
 20
29.18714937084947
 30
0.0
 40
0.3125
100
AcDbArc
 50
336.421821521801
 51
23.57817847819727
  0
LINE
  5
CC77
330
17
100
AcDbEntity
  8
R-SWTS-DET1
100
AcDbLine
 10
45.68879256426179
 20
27.81214937084949
 30
0.0
 11
39.1887925642618
 21
27.81214937084949
 31
0.0
  0
LINE
  5
CC78
330
17
100
AcDbEntity
  8
R-SWTS-DET1
100
AcDbLine
 10
45.68879256426179
 20
28.27239444882563
 30
0.0
 11
39.1887925642618
 21
28.27239444882563
 31
0.0
  0
MTEXT
  5
CC79
330
17
100
AcDbEntity
  8
R-ANNO-DIMS
100
AcDbMText
 10
40.18879256426212
 20
26.28714937084949
 30
0.0
 40
0.25
 41
0.0
 46
0.0
 71
     5
 72
     1
  1
\A1;DLO
 73
     1
 44
1.0
  0
LINE
  5
CC7A
330
17
100
AcDbEntity
  8
R-ANNO-DIMS
100
AcDbLine
 10
41.18879256426246
 20
28.93714937084946
 30
0.0
 11
41.18879256426246
 21
25.88214937084948
 31
0.0
  0
LINE
  5
CC7B
330
17
100
AcDbEntity
  8
R-ANNO-DIMS
100
AcDbLine
 10
41.18879256426246
 20
28.93714937084946
 30
0.0
 11
41.18879256426246
 21
25.88214937084948
 31
0.0
  0
LINE
  5
CC7C
330
17
100
AcDbEntity
  8
R-ANNO-DIMS
100
AcDbLine
 10
40.93879256426246
 20
26.06214937084948
 30
0.0
 11
39.4387925642618
 21
26.06214937084948
 31
0.0
  0
SOLID
  5
CC7D
330
17
100
AcDbEntity
  8
R-ANNO-DIMS
100
AcDbTrace
 10
39.4387925642618
 20
26.10381603751615
 30
0.0
 11
39.4387925642618
 21
26.02048270418281
 31
0.0
 12
39.1887925642618
 22
26.06214937084948
 32
0.0
 13
39.1887925642618
 23
26.06214937084948
 33
0.0
  0
SOLID
  5
CC7E
330
17
100
AcDbEntity
  8
R-ANNO-DIMS
100
AcDbTrace
 10
40.93879256426246
 20
26.10381603751615
 30
0.0
 11
40.93879256426246
 21
26.02048270418281
 31
0.0
 12
41.18879256426246
 22
26.06214937084948
 32
0.0
 13
41.18879256426246
 23
26.06214937084948
 33
0.0
  0
LINE
  5
CC7F
330
17
100
AcDbEntity
  8
R-SWTS-DET1
100
AcDbLine
 10
41.18879256426246
 20
29.62464937084948
 30
0.0
 11
39.1887925642618
 21
29.62464937084948
 31
0.0
  0
MTEXT
  5
CC80
330
17
100
AcDbEntity
  8
R-ANNO-DIMS
100
AcDbMText
 10
44.68879256426212
 20
26.28714937084949
 30
0.0
 40
0.25
 41
0.0
 46
0.0
 71
     5
 72
     1
  1
\A1;DLO
 73
     1
 44
1.0
  0
LINE
  5
CC81
330
17
100
AcDbEntity
  8
R-ANNO-DIMS
100
AcDbLine
 10
43.68879256426246
 20
28.93714937084946
 30
0.0
 11
43.68879256426246
 21
25.88214937084948
 31
0.0
  0
MTEXT
  5
CC82
330
17
100
AcDbEntity
  8
R-ANNO-DIMS
100
AcDbMText
 10
42.43879256426246
 20
26.28714937084949
 30
0.0
 40
0.25
 41
0.0
 46
0.0
 71
     5
 72
     1
  1
\A1;2 1/2"
 73
     1
 44
1.0
  0
LINE
  5
CC83
330
17
100
AcDbEntity
  8
R-ANNO-DIMS
100
AcDbLine
 10
43.68879256426246
 20
28.93714937084946
 30
0.0
 11
43.68879256426246
 21
25.88214937084948
 31
0.0
  0
SOLID
  5
CC84
330
17
100
AcDbEntity
  8
R-ANNO-DIMS
100
AcDbTrace
 10
43.93879256426246
 20
26.10381603751615
 30
0.0
 11
43.93879256426246
 21
26.02048270418281
 31
0.0
 12
43.68879256426246
 22
26.06214937084948
 32
0.0
 13
43.68879256426246
 23
26.06214937084948
 33
0.0
  0
LINE
  5
CC85
330
17
100
AcDbEntity
  8
R-ANNO-DIMS
100
AcDbLine
 10
43.43879256426246
 20
26.06214937084948
 30
0.0
 11
41.43879256426246
 21
26.06214937084948
 31
0.0
  0
SOLID
  5
CC86
330
17
100
AcDbEntity
  8
R-ANNO-DIMS
100
AcDbTrace
 10
43.43879256426246
 20
26.10381603751615
 30
0.0
 11
43.43879256426246
 21
26.02048270418281
 31
0.0
 12
43.68879256426246
 22
26.06214937084948
 32
0.0
 13
43.68879256426246
 23
26.06214937084948
 33
0.0
  0
LINE
  5
CC87
330
17
100
AcDbEntity
  8
R-ANNO-DIMS
100
AcDbLine
 10
43.93879256426246
 20
26.06214937084948
 30
0.0
 11
45.43879256426179
 21
26.06214937084948
 31
0.0
  0
SOLID
  5
CC88
330
17
100
AcDbEntity
  8
R-ANNO-DIMS
100
AcDbTrace
 10
45.43879256426179
 20
26.10381603751615
 30
0.0
 11
45.43879256426179
 21
26.02048270418281
 31
0.0
 12
45.68879256426179
 22
26.06214937084948
 32
0.0
 13
45.68879256426179
 23
26.06214937084948
 33
0.0
  0
LINE
  5
CC8A
330
17
100
AcDbEntity
  8
R-SWTS-DET2
100
AcDbLine
 10
43.75211642426179
 20
30.39964937084945
 30
0.0
 11
43.68879256426179
 21
30.39964937084945
 31
0.0
  0
LINE
  5
CC8B
330
17
100
AcDbEntity
  8
R-SWTS-DET2
100
AcDbLine
 10
43.75211642426179
 20
29.97464937084945
 30
0.0
 11
43.68879256426179
 21
29.97464937084945
 31
0.0
  0
LWPOLYLINE
  5
CC8C
330
17
100
AcDbEntity
  8
R-SWTS-DET3
100
AcDbPolyline
 90
        4
 70
     0
 43
0.0
 10
45.68879256426179
 20
29.06214937084948
 10
42.68879256426246
 20
29.06214937084948
 10
42.68879256426246
 20
28.81214937084948
 10
45.68879256426179
 20
28.81214937084948
  0
LINE
  5
CC8D
330
17
100
AcDbEntity
  8
R-SWTS-DET1
100
AcDbLine
 10
43.68879256426112
 20
29.62464937084948
 30
0.0
 11
45.68879256426179
 21
29.62464937084948
 31
0.0
  0
ARC
  5
CC8E
330
17
100
AcDbEntity
  8
R-SWTS-DET3
100
AcDbCircle
 10
42.43879256426246
 20
28.23932740897998
 30
0.0
 40
0.625
100
AcDbArc
 50
66.4218215217991
 51
113.5781784782009
  0
LWPOLYLINE
  5
CC8F
330
17
100
AcDbEntity
  8
R-SWTS-DET3
100
AcDbPolyline
 90
        4
 70
     1
 43
0.0
 10
42.18879256426246
 20
29.06214937084948
 42
0.1214184523029197
 10
42.68879256426246
 20
29.06214937084948
 42
0.9999999999999873
 10
42.60979256426113
 20
29.31214937084947
 10
42.26779256426246
 20
29.31214937084947
 42
1.0
  0
LINE
  5
CC90
330
17
100
AcDbEntity
  8
R-SWTS-DET2
100
AcDbLine
 10
41.61179256426247
 20
29.06190429287335
 30
0.0
 11
41.61179256426247
 21
29.31190429287333
 31
0.0
  0
LINE
  5
CC91
330
17
100
AcDbEntity
  8
R-SWTS-DET2
100
AcDbLine
 10
41.92379256426246
 20
29.31190429287333
 30
0.0
 11
41.92379256426246
 21
29.06190429287334
 31
0.0
  0
LINE
  5
CC92
330
17
100
AcDbEntity
  8
R-SWTS-DET2
100
AcDbLine
 10
42.95379256426112
 20
29.31190429287333
 30
0.0
 11
42.95379256426112
 21
29.06190429287334
 31
0.0
  0
LINE
  5
CC93
330
17
100
AcDbEntity
  8
R-SWTS-DET2
100
AcDbLine
 10
43.26579256426112
 20
29.06190429287335
 30
0.0
 11
43.26579256426112
 21
29.31190429287333
 31
0.0
  0
ARC
  5
CC94
330
17
100
AcDbEntity
  8
R-SWTS-DET3
100
AcDbCircle
 10
43.97520354519588
 20
29.18714937084947
 30
0.0
 40
0.3125
100
AcDbArc
 50
156.4218215218036
 51
203.5781784781982
  0
LINE
  5
CC95
330
17
100
AcDbEntity
  8
R-SWTS-DET2
100
AcDbLine
 10
43.68879256426179
 20
30.07914937084946
 30
0.0
 11
42.79679556426179
 21
30.07914937084946
 31
0.0
  0
LINE
  5
CC96
330
17
100
AcDbEntity
  8
R-SWTS-DET2
100
AcDbLine
 10
43.68879256426179
 20
30.29514937084946
 30
0.0
 11
42.79679556426179
 21
30.29514937084946
 31
0.0
  0
LINE
  5
CC97
330
17
100
AcDbEntity
  8
R-SWTS-DET2
100
AcDbLine
 10
42.68879456426179
 20
30.18714991875996
 30
0.0
 11
42.79679556426179
 21
30.07914947084946
 31
0.0
  0
LINE
  5
CC98
330
17
100
AcDbEntity
  8
R-SWTS-DET2
100
AcDbLine
 10
42.68879456426179
 20
30.18714882293895
 30
0.0
 11
42.79679556426179
 21
30.29514927084946
 31
0.0
  0
LINE
  5
CC99
330
17
100
AcDbEntity
  8
R-SWTS-DET2
100
AcDbLine
 10
43.68879256426179
 20
29.97464937084945
 30
0.0
 11
43.68879256426179
 21
30.39964937084945
 31
0.0
  0
ARC
  5
CC9A
330
17
100
AcDbEntity
  8
R-SWTS-DET2
100
AcDbCircle
 10
43.5029946642618
 20
30.18714937084946
 30
0.0
 40
0.3367977
100
AcDbArc
 50
323.0332999999999
 51
36.96669999999997
  0
ARC
  5
CC9B
330
17
100
AcDbEntity
  8
R-SWTS-DET2
100
AcDbCircle
 10
43.75211642426179
 20
29.99964947084946
 30
0.0
 40
0.02500004
100
AcDbArc
 50
269.9997999999998
 51
323.0329999999998
  0
ARC
  5
CC9C
330
17
100
AcDbEntity
  8
R-SWTS-DET2
100
AcDbCircle
 10
43.75211642426179
 20
30.37464927084946
 30
0.0
 40
0.02500004
100
AcDbArc
 50
36.96699999999996
 51
90.0
  0
LINE
  5
CCA1
330
17
100
AcDbEntity
  8
R-SWTS-DET1
100
AcDbLine
 10
41.18879256426179
 20
34.56214937084948
 30
0.0
 11
39.1887925642618
 21
34.56214937084948
 31
0.0
  0
LINE
  5
CCA5
330
17
100
AcDbEntity
  8
R-SWTS-DET2
100
AcDbLine
 10
43.80099246446606
 20
33.49464957084946
 30
0.0
 11
43.68883136426179
 21
33.59214958084945
 31
0.0
  0
LINE
  5
CCA6
330
17
100
AcDbEntity
  8
R-SWTS-DET2
100
AcDbLine
 10
43.80099248065302
 20
33.87964917084945
 30
0.0
 11
43.68883156426179
 21
33.78214928084946
 31
0.0
  0
LINE
  5
CCA7
330
17
100
AcDbEntity
  8
R-SWTS-DET1
100
AcDbLine
 10
43.68879256426179
 20
34.56214937084948
 30
0.0
 11
45.68879256426179
 21
34.56214937084948
 31
0.0
  0
LINE
  5
CCA8
330
17
100
AcDbEntity
  8
R-SWTS-DET2
100
AcDbLine
 10
43.68883126426179
 20
33.59214946084946
 30
0.0
 11
42.78599256426179
 21
33.59214946084946
 31
0.0
  0
LINE
  5
CCA9
330
17
100
AcDbEntity
  8
R-SWTS-DET2
100
AcDbLine
 10
43.68883156426179
 20
33.78214940084946
 30
0.0
 11
42.78599256426179
 21
33.78214940084946
 31
0.0
  0
LINE
  5
CCAA
330
17
100
AcDbEntity
  8
R-SWTS-DET2
100
AcDbLine
 10
42.70155056426179
 20
33.75464942084946
 30
0.0
 11
42.78599356426179
 21
33.78214940084946
 31
0.0
  0
LINE
  5
CCAB
330
17
100
AcDbEntity
  8
R-SWTS-DET2
100
AcDbLine
 10
42.70155056426179
 20
33.75464937084946
 30
0.0
 11
42.59155056426179
 21
33.75464937084946
 31
0.0
  0
LINE
  5
CCAC
330
17
100
AcDbEntity
  8
R-SWTS-DET2
100
AcDbLine
 10
42.70155056426179
 20
33.61964937084946
 30
0.0
 11
42.59155056426179
 21
33.61964937084946
 31
0.0
  0
LINE
  5
CCAD
330
17
100
AcDbEntity
  8
R-SWTS-DET2
100
AcDbLine
 10
42.55099356426179
 20
33.68714917136315
 30
0.0
 11
42.5915515642618
 21
33.75464919084946
 31
0.0
  0
LINE
  5
CCAE
330
17
100
AcDbEntity
  8
R-SWTS-DET2
100
AcDbLine
 10
42.55099356426179
 20
33.68714957033576
 30
0.0
 11
42.5915515642618
 21
33.61964955084945
 31
0.0
  0
LINE
  5
CCAF
330
17
100
AcDbEntity
  8
R-SWTS-DET2
100
AcDbLine
 10
42.70155056426179
 20
33.61964943084946
 30
0.0
 11
42.78599356426179
 21
33.59214946084946
 31
0.0
  0
LINE
  5
CCB0
330
17
100
AcDbEntity
  8
R-SWTS-DET2
100
AcDbLine
 10
43.68883136426179
 20
33.78214910084945
 30
0.0
 11
43.68883136426179
 21
33.59214964084946
 31
0.0
  0
LINE
  5
CCB2
330
17
100
AcDbEntity
  8
R-SWTS-DET2
100
AcDbLine
 10
43.8009925642618
 20
33.49464947084945
 30
0.0
 11
43.8009925642618
 21
33.87964927084946
 31
0.0
  0
MTEXT
  5
CCB3
330
17
100
AcDbEntity
  8
R-ANNO-DIMS
100
AcDbMText
 10
47.21379256426247
 20
31.18714937084948
 30
0.0
 40
0.25
 41
0.0
 46
0.0
 71
     5
 72
     1
  1
\A1;6 3/4"
 11
0.0000000000000001
 21
1.0
 31
0.0
 73
     1
 44
1.0
  0
LINE
  5
CCB4
330
17
100
AcDbEntity
  8
R-ANNO-DIMS
100
AcDbLine
 10
47.43879256426246
 20
28.06214937084948
 30
0.0
 11
47.43879256426246
 21
34.31214937084948
 31
0.0
  0
SOLID
  5
CCB5
330
17
100
AcDbEntity
  8
R-ANNO-DIMS
100
AcDbTrace
 10
47.39712589759579
 20
28.06214937084948
 30
0.0
 11
47.48045923092913
 21
28.06214937084948
 31
0.0
 12
47.43879256426246
 22
27.81214937084949
 32
0.0
 13
47.43879256426246
 23
27.81214937084949
 33
0.0
  0
LINE
  5
CCB6
330
17
100
AcDbEntity
  8
R-ANNO-DIMS
100
AcDbLine
 10
46.06379256426246
 20
34.56214937084948
 30
0.0
 11
47.61879256426246
 21
34.56214937084948
 31
0.0
  0
SOLID
  5
CCB7
330
17
100
AcDbEntity
  8
R-ANNO-DIMS
100
AcDbTrace
 10
47.39712589759579
 20
34.31214937084948
 30
0.0
 11
47.48045923092913
 21
34.31214937084948
 31
0.0
 12
47.43879256426246
 22
34.56214937084948
 32
0.0
 13
47.43879256426246
 23
34.56214937084948
 33
0.0
  0
MTEXT
  5
CD79
330
17
100
AcDbEntity
  8
R-ANNO-DIMS
100
AcDbMText
 10
61.12427997427506
 20
36.40650794791544
 30
0.0
 40
0.25
 41
0.0
 46
0.0
 71
     5
 72
     1
  1
\A1;90°
 73
     1
 44
1.0
  0
SOLID
  5
CD7A
330
17
100
AcDbEntity
  8
R-ANNO-DIMS
100
AcDbTrace
 10
59.83456409795582
 20
35.91836610172471
 30
0.0
 11
59.77920274471829
 21
35.98065225598193
 31
0.0
 12
59.62002495856539
 22
35.78342511914075
 32
0.0
 13
59.62002495856539
 23
35.78342511914075
 33
0.0
  0
SOLID
  5
CD7B
330
17
100
AcDbEntity
  8
R-ANNO-DIMS
100
AcDbTrace
 10
62.46935720383182
 20
35.98065225598193
 30
0.0
 11
62.41399585059429
 21
35.91836610172471
 31
0.0
 12
62.62853498998471
 22
35.78342511914075
 32
0.0
 13
62.62853498998471
 23
35.78342511914075
 33
0.0
  0
ARC
  5
CD7C
330
17
100
AcDbEntity
  8
R-ANNO-DIMS
100
AcDbCircle
 10
61.12427997427506
 20
34.27917010343108
 30
0.0
 40
2.127337844484351
100
AcDbArc
 50
100.6093162870524
 51
128.2628471594198
  0
ARC
  5
CD7D
330
17
100
AcDbEntity
  8
R-ANNO-DIMS
100
AcDbCircle
 10
61.12427997427506
 20
34.27917010343108
 30
0.0
 40
2.127337844484351
100
AcDbArc
 50
51.73715284058017
 51
79.39068371294762
  0
MTEXT
  5
CD7E
330
17
100
AcDbEntity
  8
R-ANNO-DIMS
100
AcDbMText
 10
56.6108213246596
 20
28.97792347730256
 30
0.0
 40
0.25
 41
0.0
 46
0.0
 71
     5
 72
     1
  1
\A1;1 3/4"
 11
0.0000000000000001
 21
1.0
 31
0.0
 73
     1
 44
1.0
  0
SOLID
  5
CD7F
330
17
100
AcDbEntity
  8
R-ANNO-DIMS
100
AcDbTrace
 10
56.79415465799293
 20
29.60292347730256
 30
0.0
 11
56.87748799132626
 21
29.60292347730256
 31
0.0
 12
56.83582132465959
 22
29.85292347730256
 32
0.0
 13
56.83582132465959
 23
29.85292347730256
 33
0.0
  0
SOLID
  5
CD80
330
17
100
AcDbEntity
  8
R-ANNO-DIMS
100
AcDbTrace
 10
56.79415465799293
 20
28.35292347730256
 30
0.0
 11
56.87748799132626
 21
28.35292347730256
 31
0.0
 12
56.83582132465959
 22
28.10292347730256
 32
0.0
 13
56.83582132465959
 23
28.10292347730256
 33
0.0
  0
LINE
  5
CD81
330
17
100
AcDbEntity
  8
R-ANNO-DIMS
100
AcDbLine
 10
56.83582132465959
 20
28.35292347730256
 30
0.0
 11
56.83582132465959
 21
29.60292347730256
 31
0.0
  0
LINE
  5
CD82
330
17
100
AcDbEntity
  8
R-ANNO-DIMS
100
AcDbLine
 10
60.70406797427505
 20
29.85292347730256
 30
0.0
 11
56.6558213246596
 21
29.85292347730256
 31
0.0
  0
LINE
  5
CD83
330
17
100
AcDbEntity
  8
R-ANNO-DIMS
100
AcDbLine
 10
59.49927997427505
 20
28.10292347730256
 30
0.0
 11
56.6558213246596
 21
28.10292347730256
 31
0.0
  0
MTEXT
  5
CD84
330
17
100
AcDbEntity
  8
R-ANNO-DIMS
100
AcDbMText
 10
56.6108213246596
 20
31.61959014396923
 30
0.0
 40
0.25
 41
0.0
 46
0.0
 71
     5
 72
     1
  1
\A1;3/4"
 11
0.0000000000000001
 21
1.0
 31
0.0
 73
     1
 44
1.0
  0
SOLID
  5
CD85
330
17
100
AcDbEntity
  8
R-ANNO-DIMS
100
AcDbTrace
 10
56.79415465799293
 20
30.85292347730256
 30
0.0
 11
56.87748799132626
 21
30.85292347730256
 31
0.0
 12
56.83582132465959
 22
30.60292347730256
 32
0.0
 13
56.83582132465959
 23
30.60292347730256
 33
0.0
  0
SOLID
  5
CD86
330
17
100
AcDbEntity
  8
R-ANNO-DIMS
100
AcDbTrace
 10
56.79415465799293
 20
29.60292347730256
 30
0.0
 11
56.87748799132626
 21
29.60292347730256
 31
0.0
 12
56.83582132465959
 22
29.85292347730256
 32
0.0
 13
56.83582132465959
 23
29.85292347730256
 33
0.0
  0
LINE
  5
CD87
330
17
100
AcDbEntity
  8
R-ANNO-DIMS
100
AcDbLine
 10
56.83582132465959
 20
30.85292347730256
 30
0.0
 11
56.83582132465959
 21
32.13625681063589
 31
0.0
  0
LINE
  5
CD88
330
17
100
AcDbEntity
  8
R-ANNO-DIMS
100
AcDbLine
 10
56.83582132465959
 20
29.60292347730256
 30
0.0
 11
56.83582132465959
 21
29.35292347730256
 31
0.0
  0
LINE
  5
CD89
330
17
100
AcDbEntity
  8
R-ANNO-DIMS
100
AcDbLine
 10
60.61966597427505
 20
30.60292347730256
 30
0.0
 11
56.6558213246596
 21
30.60292347730256
 31
0.0
  0
LINE
  5
CD8A
330
17
100
AcDbEntity
  8
R-ANNO-DIMS
100
AcDbLine
 10
60.70406797427505
 20
29.85292347730256
 30
0.0
 11
56.6558213246596
 21
29.85292347730256
 31
0.0
  0
LINE
  5
CD8B
330
17
100
AcDbEntity
  8
R-SWTS-DET2
100
AcDbLine
 10
60.1295455222834
 20
27.49410453870096
 30
0.0
 11
60.30632221758003
 21
27.6708812339976
 31
0.0
  0
LINE
  5
CD8C
330
17
100
AcDbEntity
  8
R-SWTS-DET2
100
AcDbLine
 10
60.52693953331024
 20
27.4502639182674
 30
0.0
 11
60.3501628380136
 21
27.27348722297075
 31
0.0
  0
LINE
  5
CD8D
330
17
100
AcDbEntity
  8
R-SWTS-DET2
100
AcDbLine
 10
62.1190144262667
 20
27.49410453870096
 30
0.0
 11
61.94223773097006
 21
27.67088123399759
 31
0.0
  0
LINE
  5
CD8E
330
17
100
AcDbEntity
  8
R-SWTS-DET2
100
AcDbLine
 10
61.72162041523987
 20
27.45026391826739
 30
0.0
 11
61.8983971105365
 21
27.27348722297075
 31
0.0
  0
LWPOLYLINE
  5
CD8F
330
17
100
AcDbEntity
  8
R-SWTS-DET1
100
AcDbPolyline
 90
       41
 70
     1
 43
0.0
 10
59.96507714678083
 20
33.07568123652752
 10
59.93627997398859
 20
33.09984493359645
 10
59.93627997398859
 20
33.88293385879084
 10
60.07627997398857
 20
33.88293385879084
 10
60.21727997398858
 20
33.63871469492359
 10
60.21727997398858
 20
33.38293385879083
 10
60.18527997398857
 20
33.38293385879083
 42
1.0
 10
60.26727997398857
 20
33.38293385879083
 10
60.26727997398857
 20
33.63871469492354
 42
0.1316524975874198
 10
60.26058124417779
 20
33.66371469492353
 10
60.11958124417772
 20
33.90793385879084
 42
0.2679491924310979
 10
60.0762799739885
 20
33.93293385879083
 10
59.95427997398859
 20
33.93293385879083
 10
59.95427997398859
 20
35.28320477282414
 42
-0.6681786379192914
 10
60.00549317742418
 20
35.30441797625974
 10
61.06771143174717
 20
34.24219972219026
 42
0.414213562373095
 10
61.18084851673701
 20
34.24219972219026
 10
62.243066770553
 20
35.30441797625974
 42
-0.6681786379192989
 10
62.29427997398859
 20
35.28320477282415
 10
62.29427997398859
 20
33.93293385879083
 10
62.17227997398866
 20
33.93293385879083
 42
0.2679491924310992
 10
62.12897870379944
 20
33.90793385879084
 10
61.98797870379937
 20
33.66371469492353
 42
0.1316524975874203
 10
61.98127997398859
 20
33.63871469492354
 10
61.98127997398859
 20
33.38293385879083
 42
0.9999999999999998
 10
62.0632799739886
 20
33.38293385879083
 10
62.03127997398858
 20
33.38293385879083
 10
62.03127997398858
 20
33.63871469492359
 10
62.17227997398859
 20
33.88293385879084
 10
62.31227997398858
 20
33.88293385879084
 10
62.31227997398858
 20
33.09984493359645
 10
62.28348280119634
 20
33.07568123652752
 42
0.9999999999999907
 10
62.3233356329969
 20
33.02818648105415
 10
62.37427997398858
 20
33.07093385879084
 10
62.37427997398859
 20
35.52462612906146
 42
0.6681786379192535
 10
62.35720890617672
 20
35.53169719687332
 10
61.12427997398858
 20
34.29876826468518
 10
59.89135104180045
 20
35.53169719687332
 42
0.6681786379192762
 10
59.87427997398859
 20
35.52462612906146
 10
59.87427997398859
 20
33.07093385879084
 10
59.92522431498027
 20
33.02818648105415
 42
0.9999999999999889
  0
LWPOLYLINE
  5
CD90
330
17
100
AcDbEntity
  8
R-SWTS-DET1
100
AcDbPolyline
 90
       59
 70
     1
 43
0.0
 10
59.98127997427506
 20
33.13074656276632
 10
59.99927997427505
 20
33.16192347730257
 10
59.99927997427505
 20
33.63292347730256
 10
59.93627997427505
 20
33.63292347730256
 10
59.93627997427505
 20
33.77392347730256
 42
-0.8025848516715633
 10
60.02587644026577
 20
33.79378653560438
 10
60.21720422045165
 20
33.38348278691004
 10
60.16066306778272
 20
33.39345251764591
 42
0.4663076581549884
 10
60.12427997427505
 20
33.36292347730256
 10
60.12427997427505
 20
33.00592347730256
 10
60.2742799742757
 20
33.00592347730256
 42
-0.198912367379748
 10
60.34499065239437
 20
32.9766341554212
 10
60.57570133051284
 20
32.74592347730256
 10
61.67285861803726
 20
32.74592347730256
 10
61.90356929615574
 20
32.9766341554212
 42
-0.1989123673797494
 10
61.97427997427441
 20
33.00592347730256
 10
62.12427997427505
 20
33.00592347730256
 10
62.12427997427505
 20
33.36292347730256
 42
0.4663076581550056
 10
62.08789688076739
 20
33.39345251764591
 10
62.03135572809846
 20
33.38348278691004
 10
62.22268350828433
 20
33.79378653560438
 42
-0.8025848516715704
 10
62.31227997427506
 20
33.77392347730256
 10
62.31227997427506
 20
33.63292347730256
 10
62.24927997427506
 20
33.63292347730256
 10
62.24927997427506
 20
33.16192347730256
 10
62.26727997427506
 20
33.13074656276632
 10
62.26727997427506
 20
33.00592347730256
 10
62.30927997427506
 20
33.00592347730256
 10
62.37427997427506
 20
33.07092347730256
 10
62.37427997427504
 20
28.10292347730256
 10
61.94294483775127
 20
27.67158834077878
 42
-0.6693764950686715
 10
61.917338318238
 20
27.68224460263268
 42
0.1997729274168419
 10
61.89097842177194
 20
27.74618217375605
 10
61.8835478681316
 20
27.75361272739641
 42
0.4142135623730951
 10
61.81283719001294
 20
27.75361272739641
 10
61.75061179326853
 20
27.69138733065199
 42
0.4142135623730841
 10
61.75061179326853
 20
27.62067665253333
 10
61.75804234690888
 20
27.61324609889299
 42
0.1997729274168563
 10
61.82197991803225
 20
27.58688620242694
 42
-0.6693764950686027
 10
61.83263617988615
 20
27.56127968291367
 10
61.30427997427505
 20
27.03292347730256
 10
61.15427997427504
 20
27.03292347730256
 10
61.12427997427504
 20
27.06292347730256
 10
61.09427997427504
 20
27.03292347730256
 10
60.94427997427505
 20
27.03292347730256
 10
60.41592376866394
 20
27.56127968291367
 42
-0.6693764950686561
 10
60.42658003051783
 20
27.58688620242694
 42
0.1997729274168556
 10
60.49051760164122
 20
27.61324609889298
 10
60.49794815528156
 20
27.62067665253334
 42
0.4142135623730747
 10
60.49794815528156
 20
27.69138733065199
 10
60.43572275853716
 20
27.75361272739641
 42
0.4142135623730951
 10
60.36501208041849
 20
27.75361272739641
 10
60.35758152677814
 20
27.74618217375605
 42
0.1997729274168442
 10
60.3312216303121
 20
27.68224460263268
 42
-0.6693764950686725
 10
60.30561511079882
 20
27.67158834077878
 10
59.87427997427504
 20
28.10292347730257
 10
59.87427997427506
 20
33.07092347730256
 10
59.93927997427505
 20
33.00592347730256
 10
59.98127997427506
 20
33.00592347730256
  0
LWPOLYLINE
  5
CD91
330
17
100
AcDbEntity
  8
R-SWTS-DET1
100
AcDbPolyline
 90
       34
 70
     1
 43
0.0
 10
60.14641200863103
 20
28.14292347730257
 10
59.97427997427505
 20
28.14292347730257
 10
59.97427997427505
 20
31.36292347730256
 42
-0.4142135623730951
 10
60.03427997427505
 20
31.42292347730256
 10
60.17427997427505
 20
31.42292347730256
 10
60.17427997427505
 20
31.52292347730256
 10
60.03427997427505
 20
31.52292347730256
 42
-0.4142135623730938
 10
59.97427997427505
 20
31.58292347730256
 10
59.97427997427504
 20
32.84592347730252
 42
-0.4142135623729823
 10
60.03427997427502
 20
32.90592347730252
 10
60.27427997427449
 20
32.90592347730375
 10
60.50499065239417
 20
32.67521279918393
 42
0.1989123673797499
 10
60.57570133051284
 20
32.64592347730256
 10
61.67285861803726
 20
32.64592347730256
 42
0.1989123673797494
 10
61.74356929615594
 20
32.67521279918393
 10
61.97427997427505
 20
32.90592347730321
 10
62.21427997427269
 20
32.90592347730329
 42
-0.4142135623659846
 10
62.27427997427267
 20
32.84592347730475
 10
62.27427997431226
 20
31.58292347730444
 42
-0.4142135623822757
 10
62.21427997431226
 20
31.52292347730256
 10
62.07427997427505
 20
31.52292347730256
 10
62.07427997427505
 20
31.42292347730256
 10
62.21427997394783
 20
31.42292347730256
 42
-0.4142135623433164
 10
62.27427997394783
 20
31.36292347730865
 10
62.27427997427518
 20
28.14292347730256
 10
62.10214793991906
 20
28.14292347730256
 42
0.1989123673796691
 10
62.03143726180041
 20
28.11363415542121
 10
61.67990111514987
 20
27.76209800877064
 42
0.4142135623730757
 10
61.67990111514987
 20
27.54996597441468
 10
61.29285861803774
 20
27.16292347730256
 10
60.95570133051236
 20
27.16292347730256
 10
60.56865883340025
 20
27.54996597441468
 42
0.4142135623730766
 10
60.56865883340022
 20
27.76209800877064
 10
60.21712268674969
 20
28.11363415542122
 42
0.1989123673796705
  0
ARC
  5
CD92
330
17
100
AcDbEntity
  8
R-SWTS-DET2
100
AcDbCircle
 10
62.18848207427505
 20
29.85292347730256
 30
0.0
 40
0.3367977
100
AcDbArc
 50
323.0333000000001
 51
36.96669999999989
  0
ARC
  5
CD93
330
17
100
AcDbEntity
  8
R-SWTS-DET2
100
AcDbCircle
 10
62.43760383427505
 20
30.04042337730256
 30
0.0
 40
0.02500004
100
AcDbArc
 50
36.9670000000002
 51
90.0
  0
ARC
  5
CD94
330
17
100
AcDbEntity
  8
R-SWTS-DET2
100
AcDbCircle
 10
62.43760383427505
 20
29.66542357730256
 30
0.0
 40
0.02500004
100
AcDbArc
 50
269.9998000000002
 51
323.0329999999998
  0
LINE
  5
CD96
330
17
100
AcDbEntity
  8
R-SWTS-DET2
100
AcDbLine
 10
62.43760383427505
 20
30.06542347730256
 30
0.0
 11
62.37427997427506
 21
30.06542347730256
 31
0.0
  0
LINE
  5
CD97
330
17
100
AcDbEntity
  8
R-SWTS-DET2
100
AcDbLine
 10
62.43760383427505
 20
29.64042347730256
 30
0.0
 11
62.37427997427506
 21
29.64042347730256
 31
0.0
  0
LINE
  5
CD98
330
17
100
AcDbEntity
  8
R-SWTS-DET2
100
AcDbLine
 10
62.37427997427506
 20
29.74492347730257
 30
0.0
 11
61.48228297427505
 21
29.74492347730257
 31
0.0
  0
LINE
  5
CD99
330
17
100
AcDbEntity
  8
R-SWTS-DET2
100
AcDbLine
 10
62.37427997427506
 20
29.96092347730256
 30
0.0
 11
61.48228297427505
 21
29.96092347730256
 31
0.0
  0
LINE
  5
CD9A
330
17
100
AcDbEntity
  8
R-SWTS-DET2
100
AcDbLine
 10
61.37428197427505
 20
29.85292292939206
 30
0.0
 11
61.48228297427505
 21
29.96092337730257
 31
0.0
  0
LINE
  5
CD9B
330
17
100
AcDbEntity
  8
R-SWTS-DET2
100
AcDbLine
 10
61.37428197427505
 20
29.85292402521306
 30
0.0
 11
61.48228297427505
 21
29.74492357730256
 31
0.0
  0
LINE
  5
CD9C
330
17
100
AcDbEntity
  8
R-SWTS-DET2
100
AcDbLine
 10
62.37427997427506
 20
29.64042347730256
 30
0.0
 11
62.37427997427506
 21
30.06542347730256
 31
0.0
  0
LINE
  5
CD9E
330
17
100
AcDbEntity
  8
R-SWTS-DET2
100
AcDbLine
 10
61.38703797427504
 20
30.53542353730256
 30
0.0
 11
61.47148097427505
 21
30.50792356730256
 31
0.0
  0
LINE
  5
CD9F
330
17
100
AcDbEntity
  8
R-SWTS-DET2
100
AcDbLine
 10
61.38703797427504
 20
30.67042352730256
 30
0.0
 11
61.47148097427505
 21
30.69792350730256
 31
0.0
  0
LINE
  5
CDA0
330
17
100
AcDbEntity
  8
R-SWTS-DET2
100
AcDbLine
 10
61.38703797427504
 20
30.67042347730256
 30
0.0
 11
61.27703797427504
 21
30.67042347730256
 31
0.0
  0
LINE
  5
CDA1
330
17
100
AcDbEntity
  8
R-SWTS-DET2
100
AcDbLine
 10
61.38703797427504
 20
30.53542347730256
 30
0.0
 11
61.27703797427504
 21
30.53542347730256
 31
0.0
  0
LINE
  5
CDA2
330
17
100
AcDbEntity
  8
R-SWTS-DET2
100
AcDbLine
 10
61.23648097427505
 20
30.60292327781626
 30
0.0
 11
61.27703897427505
 21
30.67042329730256
 31
0.0
  0
LINE
  5
CDA3
330
17
100
AcDbEntity
  8
R-SWTS-DET2
100
AcDbLine
 10
61.23648097427505
 20
30.60292367678886
 30
0.0
 11
61.27703897427505
 21
30.53542365730256
 31
0.0
  0
LINE
  5
CDA4
330
17
100
AcDbEntity
  8
R-SWTS-DET2
100
AcDbLine
 10
62.37431867427504
 20
30.50792356730256
 30
0.0
 11
61.47147997427506
 21
30.50792356730256
 31
0.0
  0
LINE
  5
CDA5
330
17
100
AcDbEntity
  8
R-SWTS-DET2
100
AcDbLine
 10
62.37431877427505
 20
30.69792320730256
 30
0.0
 11
62.37431877427505
 21
30.50792374730256
 31
0.0
  0
LINE
  5
CDA6
330
17
100
AcDbEntity
  8
R-SWTS-DET2
100
AcDbLine
 10
62.37431897427505
 20
30.69792350730256
 30
0.0
 11
61.47147997427506
 21
30.69792350730256
 31
0.0
  0
LINE
  5
CDA7
330
17
100
AcDbEntity
  8
R-SWTS-DET2
100
AcDbLine
 10
62.48647997427505
 20
30.41042357730256
 30
0.0
 11
62.48647997427505
 21
30.79542337730256
 31
0.0
  0
LINE
  5
CDA8
330
17
100
AcDbEntity
  8
R-SWTS-DET2
100
AcDbLine
 10
62.48647987447931
 20
30.41042367730256
 30
0.0
 11
62.37431877427505
 21
30.50792368730256
 31
0.0
  0
LINE
  5
CDA9
330
17
100
AcDbEntity
  8
R-SWTS-DET2
100
AcDbLine
 10
62.48647989066627
 20
30.79542327730256
 30
0.0
 11
62.37431897427505
 21
30.69792338730256
 31
0.0
  0
LWPOLYLINE
  5
CDAA
330
17
100
AcDbEntity
  8
R-SWTS-DET2
100
AcDbPolyline
 90
        8
 70
     1
 43
0.0
 10
61.69927997427439
 20
28.53292347730254
 42
0.4142135623730951
 10
61.75927997427439
 20
28.59292347730253
 10
61.75927997427439
 20
30.97292347730259
 42
0.4142135623730951
 10
61.69927997427439
 20
31.03292347730259
 10
60.55927997427438
 20
31.03292347730259
 42
0.4142135623730908
 10
60.49927997427438
 20
30.97292347730259
 10
60.49927997427438
 20
28.59292347730254
 42
0.4142135623730951
 10
60.55927997427438
 20
28.53292347730254
  0
LWPOLYLINE
  5
CDAB
330
17
100
AcDbEntity
  8
R-SWTS-DET2
100
AcDbPolyline
 90
       28
 70
     1
 43
0.0
 10
60.4992799742744
 20
28.28292347730254
 10
60.49927997427438
 20
28.15792347730253
 10
60.05927997427439
 20
28.15792347730255
 42
-0.4142135623730951
 10
59.99927997427438
 20
28.21792347730255
 10
59.99927997427438
 20
28.28292347730254
 10
60.37427997427439
 20
28.40792347730254
 10
60.37427997427439
 20
31.15792347730259
 10
59.99927997427438
 20
31.28292347730257
 10
59.99927997427438
 20
31.34792347730258
 42
-0.4142135623730819
 10
60.05927997427439
 20
31.40792347730258
 10
60.49927997427438
 20
31.40792347730259
 10
60.4992799742744
 20
31.28292347730258
 42
0.4142135623730784
 10
60.6242799742744
 20
31.15792347730259
 10
61.63427997427439
 20
31.15792347730259
 42
0.4142135623730951
 10
61.75927997427439
 20
31.28292347730259
 10
61.75927997427439
 20
31.40792347730259
 10
62.19927997427439
 20
31.40792347730258
 42
-0.4142135623730821
 10
62.25927997427439
 20
31.34792347730258
 10
62.25927997427439
 20
31.28292347730257
 10
61.88427997427439
 20
31.15792347730259
 10
61.88427997427439
 20
28.40792347730254
 10
62.25927997427439
 20
28.28292347730254
 10
62.25927997427439
 20
28.21792347730255
 42
-0.4142135623730778
 10
62.19927997427439
 20
28.15792347730255
 10
61.75927997427439
 20
28.15792347730253
 10
61.75927997427439
 20
28.28292347730254
 42
0.4142135623730951
 10
61.63427997427439
 20
28.40792347730254
 10
60.6242799742744
 20
28.40792347730254
 42
0.4142135623730763
  0
LINE
  5
CDB8
330
17
100
AcDbEntity
  8
R-SWTS-DET3
100
AcDbLine
 10
60.68233823603346
 20
26.58775843435761
 30
0.0
 11
57.41034394908886
 21
29.8597527213022
 31
0.0
  0
LINE
  5
CDB9
330
17
100
AcDbEntity
  8
R-SWTS-DET3
100
AcDbLine
 10
60.8591149313301
 20
26.76453512965425
 30
0.0
 11
60.68233823603346
 21
26.58775843435761
 31
0.0
  0
LINE
  5
CDBA
330
17
100
AcDbEntity
  8
R-SWTS-DET3
100
AcDbLine
 10
57.41034394908886
 20
30.21330611189548
 30
0.0
 11
60.8591149313301
 21
26.76453512965425
 31
0.0
  0
LINE
  5
CDBB
330
17
100
AcDbEntity
  8
R-SWTS-DET3
100
AcDbLine
 10
61.56622171251665
 20
26.58775843435761
 30
0.0
 11
64.83821599946124
 21
29.8597527213022
 31
0.0
  0
LINE
  5
CDBC
330
17
100
AcDbEntity
  8
R-SWTS-DET3
100
AcDbLine
 10
61.38944501722001
 20
26.76453512965425
 30
0.0
 11
61.56622171251665
 21
26.58775843435761
 31
0.0
  0
LINE
  5
CDBD
330
17
100
AcDbEntity
  8
R-SWTS-DET3
100
AcDbLine
 10
64.83821599946124
 20
30.21330611189548
 30
0.0
 11
61.38944501722001
 21
26.76453512965425
 31
0.0
  0
LINE
  5
CDBE
330
17
100
AcDbEntity
  8
R-SWTS-DET1
100
AcDbLine
 10
61.12427997427506
 20
24.73160313374292
 30
0.0
 11
64.83821599946124
 21
28.44553915892911
 31
0.0
  0
LINE
  5
CDBF
330
17
100
AcDbEntity
  8
R-SWTS-DET1
100
AcDbLine
 10
61.12427997427506
 20
25.35032156728115
 30
0.0
 11
64.83821599946124
 21
29.06425759246733
 31
0.0
  0
LINE
  5
CDC0
330
17
100
AcDbEntity
  8
R-SWTS-DET1
100
AcDbLine
 10
62.37427997427506
 20
28.54486521554415
 30
0.0
 11
64.83821599946124
 21
31.00880124073034
 31
0.0
  0
LINE
  5
CDC1
330
17
100
AcDbEntity
  8
R-SWTS-DET1
100
AcDbLine
 10
62.37435572809847
 20
35.52517505718066
 30
0.0
 11
64.83821599946124
 21
37.98903532854344
 31
0.0
  0
LWPOLYLINE
  5
CDC2
330
17
100
AcDbEntity
  8
R-SWTS-DET1
100
AcDbPolyline
 90
        6
 70
     0
 43
0.0
 10
64.83741167332069
 20
28.19635187119111
 10
64.83741167332069
 20
33.10260187119111
 10
65.04966386344356
 20
33.15552228585353
 10
64.62483928560814
 20
33.26144294940393
 10
64.83709147573101
 20
33.31436336406636
 10
64.83709147573101
 20
38.22061336406636
  0
LWPOLYLINE
  5
CDC3
330
17
100
AcDbEntity
  8
R-SWTS-DET1
100
AcDbPolyline
 90
        6
 70
     0
 43
0.0
 10
57.41114827522942
 20
28.19635187119111
 10
57.41114827522942
 20
33.10260187119111
 10
57.19889608510654
 20
33.15552228585353
 10
57.62372066294196
 20
33.26144294940393
 10
57.4114684728191
 20
33.31436336406636
 10
57.4114684728191
 20
38.22061336406636
  0
LINE
  5
CDC4
330
17
100
AcDbEntity
  8
R-SWTS-DET1
100
AcDbLine
 10
59.87420422045165
 20
35.52517505718066
 30
0.0
 11
57.41034394908886
 21
37.98903532854344
 31
0.0
  0
ARC
  5
CDC5
330
17
100
AcDbEntity
  8
R-SWTS-DET3
100
AcDbCircle
 10
62.66519146874862
 20
28.21705827647949
 30
0.0
 40
0.3125
100
AcDbArc
 50
201.4218215217994
 51
248.5781784782008
  0
ARC
  5
CDC6
330
17
100
AcDbEntity
  8
R-SWTS-DET3
100
AcDbCircle
 10
59.58336847980149
 20
28.21705827647949
 30
0.0
 40
0.3125
100
AcDbArc
 50
291.4218215217992
 51
338.5781784782009
  0
LINE
  5
CDC7
330
17
100
AcDbEntity
  8
R-SWTS-DET1
100
AcDbLine
 10
61.12427997427506
 20
24.73160313374292
 30
0.0
 11
61.12427997427506
 21
26.63964532405214
 31
0.0
  0
ARC
  5
CDC8
330
17
100
AcDbEntity
  8
R-SWTS-DET3
100
AcDbCircle
 10
61.12427997427506
 20
24.73160313374292
 30
0.0
 40
1.908042190309217
100
AcDbArc
 50
76.60750224624918
 51
103.3924977537508
  0
POLYLINE
  5
CDC9
330
17
100
AcDbEntity
  8
R-SWTS-DET3
100
AcDb2dPolyline
 66
     1
 10
0.0
 20
0.0
 30
0.0
 70
     5
 75
     6
  0
VERTEX
  5
CDCA
330
CDC9
100
AcDbEntity
  8
R-SWTS-DET3
100
AcDbVertex
100
AcDb2dVertex
 10
61.31002673209197
 20
27.03300553773313
 30
0.0
 70
    16
  0
VERTEX
  5
CDCB
330
CDC9
100
AcDbEntity
  8
R-SWTS-DET3
100
AcDbVertex
100
AcDb2dVertex
 10
60.98620673045103
 20
27.02235692351564
 30
0.0
 70
     8
  0
VERTEX
  5
CDCC
330
CDC9
100
AcDbEntity
  8
R-SWTS-DET3
100
AcDbVertex
100
AcDb2dVertex
 10
60.95949843043694
 20
27.01787019364525
 30
0.0
 70
     8
  0
VERTEX
  5
CDCD
330
CDC9
100
AcDbEntity
  8
R-SWTS-DET3
100
AcDbVertex
100
AcDb2dVertex
 10
60.9367340843381
 20
27.01241908170754
 30
0.0
 70
     8
  0
VERTEX
  5
CDCE
330
CDC9
100
AcDbEntity
  8
R-SWTS-DET3
100
AcDbVertex
100
AcDb2dVertex
 10
60.91748702122365
 20
27.00603751321812
 30
0.0
 70
     8
  0
VERTEX
  5
CDCF
330
CDC9
100
AcDbEntity
  8
R-SWTS-DET3
100
AcDbVertex
100
AcDb2dVertex
 10
60.90133057016267
 20
26.99875941369256
 30
0.0
 70
     8
  0
VERTEX
  5
CDD0
330
CDC9
100
AcDbEntity
  8
R-SWTS-DET3
100
AcDbVertex
100
AcDb2dVertex
 10
60.88783806022426
 20
26.99061870864646
 30
0.0
 70
     8
  0
VERTEX
  5
CDD1
330
CDC9
100
AcDbEntity
  8
R-SWTS-DET3
100
AcDbVertex
100
AcDb2dVertex
 10
60.87658282047754
 20
26.98164932359539
 30
0.0
 70
     8
  0
VERTEX
  5
CDD2
330
CDC9
100
AcDbEntity
  8
R-SWTS-DET3
100
AcDbVertex
100
AcDb2dVertex
 10
60.86713817999161
 20
26.97188518405496
 30
0.0
 70
     8
  0
VERTEX
  5
CDD3
330
CDC9
100
AcDbEntity
  8
R-SWTS-DET3
100
AcDbVertex
100
AcDb2dVertex
 10
60.85907746783556
 20
26.96136021554071
 30
0.0
 70
     8
  0
VERTEX
  5
CDD4
330
CDC9
100
AcDbEntity
  8
R-SWTS-DET3
100
AcDbVertex
100
AcDb2dVertex
 10
60.85204536310989
 20
26.9501206153932
 30
0.0
 70
     8
  0
VERTEX
  5
CDD5
330
CDC9
100
AcDbEntity
  8
R-SWTS-DET3
100
AcDbVertex
100
AcDb2dVertex
 10
60.84597194504052
 20
26.93826166825264
 30
0.0
 70
     8
  0
VERTEX
  5
CDD6
330
CDC9
100
AcDbEntity
  8
R-SWTS-DET3
100
AcDbVertex
100
AcDb2dVertex
 10
60.84085864288474
 20
26.92589093058419
 30
0.0
 70
     8
  0
VERTEX
  5
CDD7
330
CDC9
100
AcDbEntity
  8
R-SWTS-DET3
100
AcDbVertex
100
AcDb2dVertex
 10
60.83670688589987
 20
26.913115958853
 30
0.0
 70
     8
  0
VERTEX
  5
CDD8
330
CDC9
100
AcDbEntity
  8
R-SWTS-DET3
100
AcDbVertex
100
AcDb2dVertex
 10
60.83351810334322
 20
26.90004430952423
 30
0.0
 70
     8
  0
VERTEX
  5
CDD9
330
CDC9
100
AcDbEntity
  8
R-SWTS-DET3
100
AcDbVertex
100
AcDb2dVertex
 10
60.83129372447207
 20
26.88678353906303
 30
0.0
 70
     8
  0
VERTEX
  5
CDDA
330
CDC9
100
AcDbEntity
  8
R-SWTS-DET3
100
AcDbVertex
100
AcDb2dVertex
 10
60.83003517854375
 20
26.87344120393456
 30
0.0
 70
     8
  0
VERTEX
  5
CDDB
330
CDC9
100
AcDbEntity
  8
R-SWTS-DET3
100
AcDbVertex
100
AcDb2dVertex
 10
60.82974389481555
 20
26.86012486060399
 30
0.0
 70
     8
  0
VERTEX
  5
CDDC
330
CDC9
100
AcDbEntity
  8
R-SWTS-DET3
100
AcDbVertex
100
AcDb2dVertex
 10
60.8304126579937
 20
26.84694334814663
 30
0.0
 70
     8
  0
VERTEX
  5
CDDD
330
CDC9
100
AcDbEntity
  8
R-SWTS-DET3
100
AcDbVertex
100
AcDb2dVertex
 10
60.83199967458019
 20
26.83401063607843
 30
0.0
 70
     8
  0
VERTEX
  5
CDDE
330
CDC9
100
AcDbEntity
  8
R-SWTS-DET3
100
AcDbVertex
100
AcDb2dVertex
 10
60.83445450652589
 20
26.82144197652555
 30
0.0
 70
     8
  0
VERTEX
  5
CDDF
330
CDC9
100
AcDbEntity
  8
R-SWTS-DET3
100
AcDbVertex
100
AcDb2dVertex
 10
60.8377267157817
 20
26.8093526216141
 30
0.0
 70
     8
  0
VERTEX
  5
CDE0
330
CDC9
100
AcDbEntity
  8
R-SWTS-DET3
100
AcDbVertex
100
AcDb2dVertex
 10
60.84176586429852
 20
26.7978578234702
 30
0.0
 70
     8
  0
VERTEX
  5
CDE1
330
CDC9
100
AcDbEntity
  8
R-SWTS-DET3
100
AcDbVertex
100
AcDb2dVertex
 10
60.84652151402727
 20
26.78707283422002
 30
0.0
 70
     8
  0
VERTEX
  5
CDE2
330
CDC9
100
AcDbEntity
  8
R-SWTS-DET3
100
AcDbVertex
100
AcDb2dVertex
 10
60.85194322691882
 20
26.77711290598963
 30
0.0
 70
     8
  0
VERTEX
  5
CDE3
330
CDC9
100
AcDbEntity
  8
R-SWTS-DET3
100
AcDbVertex
100
AcDb2dVertex
 10
60.85798056492409
 20
26.76809329090521
 30
0.0
 70
     8
  0
VERTEX
  5
CDE4
330
CDC9
100
AcDbEntity
  8
R-SWTS-DET3
100
AcDbVertex
100
AcDb2dVertex
 10
60.8646238067127
 20
26.76009454871481
 30
0.0
 70
     8
  0
VERTEX
  5
CDE5
330
CDC9
100
AcDbEntity
  8
R-SWTS-DET3
100
AcDbVertex
100
AcDb2dVertex
 10
60.87202609782932
 20
26.75305846965417
 30
0.0
 70
     8
  0
VERTEX
  5
CDE6
330
CDC9
100
AcDbEntity
  8
R-SWTS-DET3
100
AcDbVertex
100
AcDb2dVertex
 10
60.88038130053732
 20
26.74689215158102
 30
0.0
 70
     8
  0
VERTEX
  5
CDE7
330
CDC9
100
AcDbEntity
  8
R-SWTS-DET3
100
AcDbVertex
100
AcDb2dVertex
 10
60.88988327710009
 20
26.74150269235305
 30
0.0
 70
     8
  0
VERTEX
  5
CDE8
330
CDC9
100
AcDbEntity
  8
R-SWTS-DET3
100
AcDbVertex
100
AcDb2dVertex
 10
60.90072588978102
 20
26.73679718982797
 30
0.0
 70
     8
  0
VERTEX
  5
CDE9
330
CDC9
100
AcDbEntity
  8
R-SWTS-DET3
100
AcDbVertex
100
AcDb2dVertex
 10
60.91310300084352
 20
26.73268274186346
 30
0.0
 70
     8
  0
VERTEX
  5
CDEA
330
CDC9
100
AcDbEntity
  8
R-SWTS-DET3
100
AcDbVertex
100
AcDb2dVertex
 10
60.92720847255096
 20
26.72906644631723
 30
0.0
 70
     8
  0
VERTEX
  5
CDEB
330
CDC9
100
AcDbEntity
  8
R-SWTS-DET3
100
AcDbVertex
100
AcDb2dVertex
 10
60.94323616716673
 20
26.72585540104698
 30
0.0
 70
     8
  0
VERTEX
  5
CDEC
330
CDC9
100
AcDbEntity
  8
R-SWTS-DET3
100
AcDbVertex
100
AcDb2dVertex
 10
60.96130355146924
 20
26.72297500323852
 30
0.0
 70
     8
  0
VERTEX
  5
CDED
330
CDC9
100
AcDbEntity
  8
R-SWTS-DET3
100
AcDbVertex
100
AcDb2dVertex
 10
60.98122251029701
 20
26.72042384739012
 30
0.0
 70
     8
  0
VERTEX
  5
CDEE
330
CDC9
100
AcDbEntity
  8
R-SWTS-DET3
100
AcDbVertex
100
AcDb2dVertex
 10
61.00272853300357
 20
26.7182188273281
 30
0.0
 70
     8
  0
VERTEX
  5
CDEF
330
CDC9
100
AcDbEntity
  8
R-SWTS-DET3
100
AcDbVertex
100
AcDb2dVertex
 10
61.02555710894247
 20
26.71637683687886
 30
0.0
 70
     8
  0
VERTEX
  5
CDF0
330
CDC9
100
AcDbEntity
  8
R-SWTS-DET3
100
AcDbVertex
100
AcDb2dVertex
 10
61.04944372746722
 20
26.71491476986874
 30
0.0
 70
     8
  0
VERTEX
  5
CDF1
330
CDC9
100
AcDbEntity
  8
R-SWTS-DET3
100
AcDbVertex
100
AcDb2dVertex
 10
61.07412387793136
 20
26.71384952012412
 30
0.0
 70
     8
  0
VERTEX
  5
CDF2
330
CDC9
100
AcDbEntity
  8
R-SWTS-DET3
100
AcDbVertex
100
AcDb2dVertex
 10
61.09933304968844
 20
26.71319798147134
 30
0.0
 70
     8
  0
VERTEX
  5
CDF3
330
CDC9
100
AcDbEntity
  8
R-SWTS-DET3
100
AcDbVertex
100
AcDb2dVertex
 10
61.12480673209198
 20
26.71297704773678
 30
0.0
 70
     8
  0
VERTEX
  5
CDF4
330
CDC9
100
AcDbEntity
  8
R-SWTS-DET3
100
AcDbVertex
100
AcDb2dVertex
 10
61.15028041449552
 20
26.71319798147134
 30
0.0
 70
     8
  0
VERTEX
  5
CDF5
330
CDC9
100
AcDbEntity
  8
R-SWTS-DET3
100
AcDbVertex
100
AcDb2dVertex
 10
61.1754895862526
 20
26.71384952012412
 30
0.0
 70
     8
  0
VERTEX
  5
CDF6
330
CDC9
100
AcDbEntity
  8
R-SWTS-DET3
100
AcDbVertex
100
AcDb2dVertex
 10
61.20016973671674
 20
26.71491476986874
 30
0.0
 70
     8
  0
VERTEX
  5
CDF7
330
CDC9
100
AcDbEntity
  8
R-SWTS-DET3
100
AcDbVertex
100
AcDb2dVertex
 10
61.2240563552415
 20
26.71637683687886
 30
0.0
 70
     8
  0
VERTEX
  5
CDF8
330
CDC9
100
AcDbEntity
  8
R-SWTS-DET3
100
AcDbVertex
100
AcDb2dVertex
 10
61.24688493118039
 20
26.7182188273281
 30
0.0
 70
     8
  0
VERTEX
  5
CDF9
330
CDC9
100
AcDbEntity
  8
R-SWTS-DET3
100
AcDbVertex
100
AcDb2dVertex
 10
61.26839095388695
 20
26.72042384739012
 30
0.0
 70
     8
  0
VERTEX
  5
CDFA
330
CDC9
100
AcDbEntity
  8
R-SWTS-DET3
100
AcDbVertex
100
AcDb2dVertex
 10
61.28830991271472
 20
26.72297500323852
 30
0.0
 70
     8
  0
VERTEX
  5
CDFB
330
CDC9
100
AcDbEntity
  8
R-SWTS-DET3
100
AcDbVertex
100
AcDb2dVertex
 10
61.30637729701724
 20
26.72585540104698
 30
0.0
 70
     8
  0
VERTEX
  5
CDFC
330
CDC9
100
AcDbEntity
  8
R-SWTS-DET3
100
AcDbVertex
100
AcDb2dVertex
 10
61.32240499163301
 20
26.72906644631723
 30
0.0
 70
     8
  0
VERTEX
  5
CDFD
330
CDC9
100
AcDbEntity
  8
R-SWTS-DET3
100
AcDbVertex
100
AcDb2dVertex
 10
61.33651046334043
 20
26.73268274186346
 30
0.0
 70
     8
  0
VERTEX
  5
CDFE
330
CDC9
100
AcDbEntity
  8
R-SWTS-DET3
100
AcDbVertex
100
AcDb2dVertex
 10
61.34888757440292
 20
26.73679718982797
 30
0.0
 70
     8
  0
VERTEX
  5
CDFF
330
CDC9
100
AcDbEntity
  8
R-SWTS-DET3
100
AcDbVertex
100
AcDb2dVertex
 10
61.35973018708387
 20
26.74150269235305
 30
0.0
 70
     8
  0
VERTEX
  5
CE00
330
CDC9
100
AcDbEntity
  8
R-SWTS-DET3
100
AcDbVertex
100
AcDb2dVertex
 10
61.36923216364664
 20
26.74689215158102
 30
0.0
 70
     8
  0
VERTEX
  5
CE01
330
CDC9
100
AcDbEntity
  8
R-SWTS-DET3
100
AcDbVertex
100
AcDb2dVertex
 10
61.37758736635465
 20
26.75305846965417
 30
0.0
 70
     8
  0
VERTEX
  5
CE02
330
CDC9
100
AcDbEntity
  8
R-SWTS-DET3
100
AcDbVertex
100
AcDb2dVertex
 10
61.38498965747125
 20
26.76009454871481
 30
0.0
 70
     8
  0
VERTEX
  5
CE03
330
CDC9
100
AcDbEntity
  8
R-SWTS-DET3
100
AcDbVertex
100
AcDb2dVertex
 10
61.39163289925988
 20
26.76809329090521
 30
0.0
 70
     8
  0
VERTEX
  5
CE04
330
CDC9
100
AcDbEntity
  8
R-SWTS-DET3
100
AcDbVertex
100
AcDb2dVertex
 10
61.39767023726513
 20
26.77711290598963
 30
0.0
 70
     8
  0
VERTEX
  5
CE05
330
CDC9
100
AcDbEntity
  8
R-SWTS-DET3
100
AcDbVertex
100
AcDb2dVertex
 10
61.40309195015669
 20
26.78707283422002
 30
0.0
 70
     8
  0
VERTEX
  5
CE06
330
CDC9
100
AcDbEntity
  8
R-SWTS-DET3
100
AcDbVertex
100
AcDb2dVertex
 10
61.40784759988545
 20
26.7978578234702
 30
0.0
 70
     8
  0
VERTEX
  5
CE07
330
CDC9
100
AcDbEntity
  8
R-SWTS-DET3
100
AcDbVertex
100
AcDb2dVertex
 10
61.41188674840226
 20
26.8093526216141
 30
0.0
 70
     8
  0
VERTEX
  5
CE08
330
CDC9
100
AcDbEntity
  8
R-SWTS-DET3
100
AcDbVertex
100
AcDb2dVertex
 10
61.41515895765808
 20
26.82144197652555
 30
0.0
 70
     8
  0
VERTEX
  5
CE09
330
CDC9
100
AcDbEntity
  8
R-SWTS-DET3
100
AcDbVertex
100
AcDb2dVertex
 10
61.41761378960378
 20
26.83401063607843
 30
0.0
 70
     8
  0
VERTEX
  5
CE0A
330
CDC9
100
AcDbEntity
  8
R-SWTS-DET3
100
AcDbVertex
100
AcDb2dVertex
 10
61.41920080619026
 20
26.84694334814663
 30
0.0
 70
     8
  0
VERTEX
  5
CE0B
330
CDC9
100
AcDbEntity
  8
R-SWTS-DET3
100
AcDbVertex
100
AcDb2dVertex
 10
61.41986956936841
 20
26.86012486060399
 30
0.0
 70
     8
  0
VERTEX
  5
CE0C
330
CDC9
100
AcDbEntity
  8
R-SWTS-DET3
100
AcDbVertex
100
AcDb2dVertex
 10
61.41957828564021
 20
26.87344120393456
 30
0.0
 70
     8
  0
VERTEX
  5
CE0D
330
CDC9
100
AcDbEntity
  8
R-SWTS-DET3
100
AcDbVertex
100
AcDb2dVertex
 10
61.41831973971189
 20
26.88678353906303
 30
0.0
 70
     8
  0
VERTEX
  5
CE0E
330
CDC9
100
AcDbEntity
  8
R-SWTS-DET3
100
AcDbVertex
100
AcDb2dVertex
 10
61.41609536084074
 20
26.90004430952423
 30
0.0
 70
     8
  0
VERTEX
  5
CE0F
330
CDC9
100
AcDbEntity
  8
R-SWTS-DET3
100
AcDbVertex
100
AcDb2dVertex
 10
61.4129065782841
 20
26.913115958853
 30
0.0
 70
     8
  0
VERTEX
  5
CE10
330
CDC9
100
AcDbEntity
  8
R-SWTS-DET3
100
AcDbVertex
100
AcDb2dVertex
 10
61.40875482129922
 20
26.92589093058419
 30
0.0
 70
     8
  0
VERTEX
  5
CE11
330
CDC9
100
AcDbEntity
  8
R-SWTS-DET3
100
AcDbVertex
100
AcDb2dVertex
 10
61.40364151914345
 20
26.93826166825264
 30
0.0
 70
     8
  0
VERTEX
  5
CE12
330
CDC9
100
AcDbEntity
  8
R-SWTS-DET3
100
AcDbVertex
100
AcDb2dVertex
 10
61.39756810107407
 20
26.9501206153932
 30
0.0
 70
     8
  0
VERTEX
  5
CE13
330
CDC9
100
AcDbEntity
  8
R-SWTS-DET3
100
AcDbVertex
100
AcDb2dVertex
 10
61.39053599634839
 20
26.96136021554072
 30
0.0
 70
     8
  0
VERTEX
  5
CE14
330
CDC9
100
AcDbEntity
  8
R-SWTS-DET3
100
AcDbVertex
100
AcDb2dVertex
 10
61.38247528419235
 20
26.97188518405496
 30
0.0
 70
     8
  0
VERTEX
  5
CE15
330
CDC9
100
AcDbEntity
  8
R-SWTS-DET3
100
AcDbVertex
100
AcDb2dVertex
 10
61.37303064370641
 20
26.98164932359539
 30
0.0
 70
     8
  0
VERTEX
  5
CE16
330
CDC9
100
AcDbEntity
  8
R-SWTS-DET3
100
AcDbVertex
100
AcDb2dVertex
 10
61.36177540395969
 20
26.99061870864646
 30
0.0
 70
     8
  0
VERTEX
  5
CE17
330
CDC9
100
AcDbEntity
  8
R-SWTS-DET3
100
AcDbVertex
100
AcDb2dVertex
 10
61.34828289402129
 20
26.99875941369256
 30
0.0
 70
     8
  0
VERTEX
  5
CE18
330
CDC9
100
AcDbEntity
  8
R-SWTS-DET3
100
AcDbVertex
100
AcDb2dVertex
 10
61.3321264429603
 20
27.00603751321812
 30
0.0
 70
     8
  0
VERTEX
  5
CE19
330
CDC9
100
AcDbEntity
  8
R-SWTS-DET3
100
AcDbVertex
100
AcDb2dVertex
 10
61.31287937984585
 20
27.01241908170754
 30
0.0
 70
     8
  0
VERTEX
  5
CE1A
330
CDC9
100
AcDbEntity
  8
R-SWTS-DET3
100
AcDbVertex
100
AcDb2dVertex
 10
61.29011503374702
 20
27.01787019364525
 30
0.0
 70
     8
  0
VERTEX
  5
CE1B
330
CDC9
100
AcDbEntity
  8
R-SWTS-DET3
100
AcDbVertex
100
AcDb2dVertex
 10
61.26340673373292
 20
27.02235692351564
 30
0.0
 70
     8
  0
VERTEX
  5
CE1C
330
CDC9
100
AcDbEntity
  8
R-SWTS-DET3
100
AcDbVertex
100
AcDb2dVertex
 10
61.23258103006307
 20
27.02585100005576
 30
0.0
 70
     8
  0
VERTEX
  5
CE1D
330
CDC9
100
AcDbEntity
  8
R-SWTS-DET3
100
AcDbVertex
100
AcDb2dVertex
 10
61.1984773577586
 20
27.02834676901298
 30
0.0
 70
     8
  0
VERTEX
  5
CE1E
330
CDC9
100
AcDbEntity
  8
R-SWTS-DET3
100
AcDbVertex
100
AcDb2dVertex
 10
61.16218837303105
 20
27.02984423038731
 30
0.0
 70
     8
  0
VERTEX
  5
CE1F
330
CDC9
100
AcDbEntity
  8
R-SWTS-DET3
100
AcDbVertex
100
AcDb2dVertex
 10
61.12480673209197
 20
27.03034338417876
 30
0.0
 70
     8
  0
VERTEX
  5
CE20
330
CDC9
100
AcDbEntity
  8
R-SWTS-DET3
100
AcDbVertex
100
AcDb2dVertex
 10
61.08742509115288
 20
27.02984423038731
 30
0.0
 70
     8
  0
VERTEX
  5
CE21
330
CDC9
100
AcDbEntity
  8
R-SWTS-DET3
100
AcDbVertex
100
AcDb2dVertex
 10
61.05113610642533
 20
27.02834676901298
 30
0.0
 70
     8
  0
VERTEX
  5
CE22
330
CDC9
100
AcDbEntity
  8
R-SWTS-DET3
100
AcDbVertex
100
AcDb2dVertex
 10
61.01703243412086
 20
27.02585100005576
 30
0.0
 70
     8
  0
VERTEX
  5
CE23
330
CDC9
100
AcDbEntity
  8
R-SWTS-DET3
100
AcDbVertex
100
AcDb2dVertex
 10
60.93958673209197
 20
27.03300553773313
 30
0.0
 70
    16
  0
VERTEX
  5
CE24
330
CDC9
100
AcDbEntity
  8
R-SWTS-DET3
100
AcDbVertex
100
AcDb2dVertex
 10
60.84886672224627
 20
26.96911385242825
 30
0.0
 70
    16
  0
VERTEX
  5
CE25
330
CDC9
100
AcDbEntity
  8
R-SWTS-DET3
100
AcDbVertex
100
AcDb2dVertex
 10
60.81941118593634
 20
26.85870034579817
 30
0.0
 70
    16
  0
VERTEX
  5
CE26
330
CDC9
100
AcDbEntity
  8
R-SWTS-DET3
100
AcDbVertex
100
AcDb2dVertex
 10
60.85195190290161
 20
26.75683392800301
 30
0.0
 70
    16
  0
VERTEX
  5
CE27
330
CDC9
100
AcDbEntity
  8
R-SWTS-DET3
100
AcDbVertex
100
AcDb2dVertex
 10
60.9206645920017
 20
26.72252368762106
 30
0.0
 70
    16
  0
VERTEX
  5
CE28
330
CDC9
100
AcDbEntity
  8
R-SWTS-DET3
100
AcDbVertex
100
AcDb2dVertex
 10
61.12480673209198
 20
26.70820372779463
 30
0.0
 70
    16
  0
VERTEX
  5
CE29
330
CDC9
100
AcDbEntity
  8
R-SWTS-DET3
100
AcDbVertex
100
AcDb2dVertex
 10
61.32894887218227
 20
26.72252368762106
 30
0.0
 70
    16
  0
VERTEX
  5
CE2A
330
CDC9
100
AcDbEntity
  8
R-SWTS-DET3
100
AcDbVertex
100
AcDb2dVertex
 10
61.39766156128233
 20
26.75683392800301
 30
0.0
 70
    16
  0
VERTEX
  5
CE2B
330
CDC9
100
AcDbEntity
  8
R-SWTS-DET3
100
AcDbVertex
100
AcDb2dVertex
 10
61.4302022782476
 20
26.85870034579817
 30
0.0
 70
    16
  0
VERTEX
  5
CE2C
330
CDC9
100
AcDbEntity
  8
R-SWTS-DET3
100
AcDbVertex
100
AcDb2dVertex
 10
61.40074674193769
 20
26.96911385242825
 30
0.0
 70
    16
  0
SEQEND
  5
CE2D
330
CDC9
100
AcDbEntity
  8
R-SWTS-DET3
  0
LINE
  5
CE2E
330
17
100
AcDbEntity
  8
R-SWTS-DET1
100
AcDbLine
 10
61.12427997427506
 20
24.73160313374292
 30
0.0
 11
57.41034394908886
 21
28.44553915892911
 31
0.0
  0
LINE
  5
CE2F
330
17
100
AcDbEntity
  8
R-SWTS-DET1
100
AcDbLine
 10
61.12427997427506
 20
25.35032156728115
 30
0.0
 11
57.41034394908886
 21
29.06425759246733
 31
0.0
  0
LINE
  5
CE30
330
17
100
AcDbEntity
  8
R-SWTS-DET1
100
AcDbLine
 10
59.87427997427506
 20
28.54486521554415
 30
0.0
 11
57.41034394908886
 21
31.00880124073034
 31
0.0
  0
LWPOLYLINE
  5
CE8C
330
17
100
AcDbEntity
  8
R-ANNO-DIMS
100
AcDbPolyline
 90
        2
 70
     0
 43
0.02
 10
12.95505119600128
 20
37.49690820699767
 10
13.06376785521399
 20
37.21960452568341
  0
MTEXT
  5
CE8D
330
17
100
AcDbEntity
  8
R-ANNO-DIMS
100
AcDbMText
 10
18.56376785521399
 20
38.42514919670801
 30
0.0
 40
0.25
 41
0.0
 46
0.0
 71
     5
 72
     1
  1
SECTION CUT "A"
 73
     1
 44
1.0
  0
LWPOLYLINE
  5
CE8E
330
17
100
AcDbEntity
  8
R-ANNO-DIMS
100
AcDbPolyline
 90
        4
 70
     0
 43
0.02
 10
13.06376785521399
 20
37.21960452568341
 10
13.06376785521399
 20
38.02881058004357
 10
24.08995610668816
 20
38.02881058004356
 10
24.08995610668816
 20
37.29573586652153
  0
LWPOLYLINE
  5
CE8F
330
17
100
AcDbEntity
  8
R-ANNO-DIMS
  6
CENTER
100
AcDbPolyline
 90
        2
 70
     0
 43
0.02
 10
13.06376785521399
 20
37.21960452568341
 10
13.1724845144267
 20
37.49690820699767
  0
LWPOLYLINE
  5
CE90
330
17
100
AcDbEntity
  8
R-ANNO-DIMS
  6
CENTER
100
AcDbPolyline
 90
        2
 70
     0
 43
0.02
 10
24.08995610668816
 20
37.29573586652153
 10
24.19867276590088
 20
37.57303954783579
  0
LWPOLYLINE
  5
CE91
330
17
100
AcDbEntity
  8
R-ANNO-DIMS
100
AcDbPolyline
 90
        2
 70
     0
 43
0.02
 10
23.98123944747545
 20
37.57303954783579
 10
24.08995610668816
 20
37.29573586652153
  0
TEXT
  5
CE92
330
17
100
AcDbEntity
  8
0
  6
Continuous
 62
     2
100
AcDbText
 10
40.07882551786345
 20
22.60863968243849
 30
0.0
 40
0.375
  1
SECTION CUT "A"
 72
     1
 11
42.28764202536686
 21
22.60863968243849
 31
0.0
100
AcDbText
  0
TEXT
  5
CE93
330
17
100
AcDbEntity
  8
0
  6
Continuous
 62
     2
100
AcDbText
 10
58.70126517481328
 20
22.60863968243849
 30
0.0
 40
0.375
  1
SECTION CUT "A"
 72
     1
 11
60.9100816823167
 21
22.60863968243849
 31
0.0
100
AcDbText
  0
LWPOLYLINE
  5
CF89
330
17
100
AcDbEntity
  8
0
 62
     4
100
AcDbPolyline
 90
       80
 70
     1
 43
0.0
 10
19.54143056235907
 20
33.48627494522189
 10
19.42143056235905
 20
33.48627494522189
 10
19.42143056235905
 20
33.54370958251568
 42
3.810279321931714
 10
19.31143056235905
 20
33.54370958251568
 10
19.31143056235905
 20
33.48627494522189
 10
18.98393056235905
 20
33.48627494522189
 10
18.98393056235905
 20
33.54370958251568
 42
3.810279321931714
 10
18.87393056235905
 20
33.54370958251568
 10
18.87393056235905
 20
33.48627494522189
 10
18.54643056235905
 20
33.4862749452219
 10
18.54643056235905
 20
33.54370958251568
 42
3.810279321931714
 10
18.43643056235906
 20
33.54370958251568
 10
18.43643056235906
 20
33.48627494522189
 10
18.31643056235904
 20
33.48627494522189
 42
-0.4142135623730659
 10
18.25643056235903
 20
33.5462749452219
 10
18.25643056235903
 20
33.76877494522198
 10
17.84143056235905
 20
34.18377494522194
 10
17.4282072576557
 20
34.18377494522194
 10
17.33981891000738
 20
34.09538659757362
 42
-0.1989123673796591
 10
17.25143056235906
 20
34.05877494522194
 10
17.15143056235905
 20
34.05877494522194
 10
17.15143056235905
 20
33.52877494522193
 10
17.11643056235905
 20
33.49377494522192
 10
17.11643056235905
 20
33.34377494522192
 42
0.4142135623730906
 10
17.17643056235905
 20
33.28377494522192
 10
17.31759950640938
 20
33.28377494522192
 42
0.2909872012783347
 10
17.37193242567295
 20
33.31832039976735
 42
-0.563903107748311
 10
17.83143056235907
 20
33.36709977493252
 10
17.83143056235905
 20
33.31877494522192
 42
-0.4142135623731123
 10
17.77143056235906
 20
33.25877494522192
 10
17.71399592506531
 20
33.25877494522192
 42
3.810279321932645
 10
17.71399592506532
 20
33.14877494522195
 10
17.77143056235906
 20
33.14877494522193
 42
-0.4142135623731124
 10
17.83143056235905
 20
33.08877494522192
 10
17.83143056235905
 20
33.04045011551129
 42
-0.5639031077483271
 10
17.37193242567294
 20
33.08922949067645
 42
0.2909872012781485
 10
17.31759950640936
 20
33.12377494522192
 10
17.17643056235905
 20
33.12377494522192
 42
0.4142135623730908
 10
17.11643056235905
 20
33.06377494522192
 10
17.11643056235905
 20
32.91377494522193
 10
17.15143056235905
 20
32.87877494522192
 10
17.15143056235905
 20
32.3487749452219
 10
17.25143056235906
 20
32.3487749452219
 42
-0.1989123673796621
 10
17.33981891000738
 20
32.31216329287022
 10
17.4282072576557
 20
32.2237749452219
 10
17.84143056235905
 20
32.2237749452219
 10
18.25643056235903
 20
32.63877494522187
 10
18.25643056235903
 20
32.86127494522194
 42
-0.4142135623730777
 10
18.31643056235904
 20
32.92127494522194
 10
18.43643056235905
 20
32.92127494522194
 10
18.43643056235905
 20
32.86384030792817
 42
3.810279321931714
 10
18.54643056235905
 20
32.86384030792817
 10
18.54643056235905
 20
32.92127494522193
 10
18.87393056235905
 20
32.92127494522194
 10
18.87393056235905
 20
32.86384030792816
 42
3.810279321931742
 10
18.98393056235905
 20
32.86384030792816
 10
18.98393056235905
 20
32.92127494522194
 10
19.31143056235905
 20
32.92127494522194
 10
19.31143056235905
 20
32.86384030792816
 42
3.810279321931714
 10
19.42143056235905
 20
32.86384030792816
 10
19.42143056235905
 20
32.92127494522194
 10
19.54143056235907
 20
32.92127494522194
 42
-0.4142135623731036
 10
19.60143056235907
 20
32.86127494522194
 10
19.60143056235907
 20
32.66877494522189
 10
20.96143056235902
 20
32.66877494522189
 10
20.96143056235902
 20
32.71127494522192
 10
21.0188651996528
 20
32.71127494522192
 42
3.810279321931714
 10
21.0188651996528
 20
32.82127494522192
 10
20.96143056235902
 20
32.82127494522192
 10
20.96143056235902
 20
33.14877494522192
 10
21.0188651996528
 20
33.14877494522192
 42
3.810279321931714
 10
21.0188651996528
 20
33.25877494522192
 10
20.96143056235902
 20
33.25877494522192
 10
20.96143056235903
 20
33.58627494522192
 10
21.0188651996528
 20
33.58627494522192
 42
3.810279321931714
 10
21.0188651996528
 20
33.69627494522192
 10
20.96143056235902
 20
33.69627494522192
 10
20.96143056235902
 20
33.73877494522194
 10
19.60143056235908
 20
33.73877494522195
 10
19.60143056235907
 20
33.5462749452219
 42
-0.4142135623730908
  0
LINE
  5
CF8A
330
17
100
AcDbEntity
  8
HIDDEN
100
AcDbLine
 10
16.99143056235905
 20
33.91977494522193
 30
0.0
 11
17.15143056235905
 21
33.91977494522193
 31
0.0
  0
LINE
  5
CF8B
330
17
100
AcDbEntity
  8
HIDDEN
100
AcDbLine
 10
16.99143056235904
 20
33.73777494522192
 30
0.0
 11
17.15143056235905
 21
33.73777494522192
 31
0.0
  0
LINE
  5
CF8C
330
17
100
AcDbEntity
  8
HIDDEN
100
AcDbLine
 10
16.99143056235905
 20
32.66977494522192
 30
0.0
 11
17.15143056235905
 21
32.66977494522192
 31
0.0
  0
LINE
  5
CF8D
330
17
100
AcDbEntity
  8
HIDDEN
100
AcDbLine
 10
16.99143056235904
 20
32.48777494522192
 30
0.0
 11
17.15143056235905
 21
32.48777494522192
 31
0.0
  0
LWPOLYLINE
  5
CF8E
330
17
100
AcDbEntity
  8
0
 62
     4
100
AcDbPolyline
 90
       54
 70
     1
 43
0.0
 10
17.85078085078449
 20
32.0687749452219
 10
17.74143056235905
 20
32.0687749452219
 10
17.71143056235905
 20
32.09877494522189
 10
17.52143056235905
 20
32.0987749452219
 10
17.49143056235905
 20
32.0687749452219
 10
17.41885696923025
 20
32.0687749452219
 42
-0.1989123673796467
 10
17.39764376579466
 20
32.0775617417863
 10
17.25143056235906
 20
32.2237749452219
 10
17.02143056235905
 20
32.2237749452219
 42
-0.4142135623731122
 10
16.99143056235905
 20
32.2537749452219
 10
16.99143056235904
 20
32.56377494522191
 10
17.00643056235904
 20
32.57877494522192
 10
16.99143056235905
 20
32.59377494522192
 10
16.99143056235905
 20
33.81377494522193
 10
17.00643056235905
 20
33.82877494522193
 10
16.99143056235905
 20
33.84377494522193
 10
16.99143056235905
 20
34.15377494522194
 42
-0.4142135623731122
 10
17.02143056235905
 20
34.18377494522194
 10
17.25143056235906
 20
34.18377494522194
 10
17.39764376579466
 20
34.32998814865753
 42
-0.1989123673796529
 10
17.41885696923025
 20
34.33877494522194
 10
17.49143056235905
 20
34.33877494522194
 10
17.52143056235905
 20
34.30877494522194
 10
17.71143056235905
 20
34.30877494522194
 10
17.74143056235905
 20
34.33877494522194
 10
17.85078085078449
 20
34.33877494522194
 42
-0.1989123673796436
 10
17.87199405422009
 20
34.32998814865753
 10
18.3382072576557
 20
33.86377494522193
 10
21.26143056235902
 20
33.86377494522193
 10
21.26143056235902
 20
34.18377494522194
 10
20.82643056235904
 20
34.18377494522194
 42
-0.4142135623731039
 10
20.76643056235904
 20
34.24377494522194
 10
20.76643056235904
 20
34.30877494522194
 42
-0.4142135623730887
 10
20.79643056235904
 20
34.33877494522194
 10
20.99143056235902
 20
34.33877494522194
 10
21.02143056235902
 20
34.30877494522194
 10
21.21143056235903
 20
34.30877494522194
 10
21.24143056235903
 20
34.33877494522195
 10
21.32643056235902
 20
34.33877494522195
 42
-0.414213562373094
 10
21.38643056235902
 20
34.27877494522194
 10
21.38643056235902
 20
32.12877494522189
 42
-0.4142135623730951
 10
21.32643056235902
 20
32.0687749452219
 10
21.24143056235903
 20
32.0687749452219
 10
21.21143056235903
 20
32.09877494522189
 10
21.02143056235902
 20
32.0987749452219
 10
20.99143056235902
 20
32.0687749452219
 10
20.79643056235904
 20
32.0687749452219
 42
-0.4142135623730779
 10
20.76643056235904
 20
32.0987749452219
 10
20.76643056235904
 20
32.1637749452219
 42
-0.4142135623731037
 10
20.82643056235904
 20
32.2237749452219
 10
21.26143056235902
 20
32.2237749452219
 10
21.26143056235902
 20
32.5437749452219
 10
18.3382072576557
 20
32.5437749452219
 10
17.87199405422008
 20
32.0775617417863
 42
-0.1989123673796492
  0
ARC
  5
CFA8
330
17
100
AcDbEntity
  8
R-SWTS-DET3
100
AcDbCircle
 10
40.97686869595376
 20
29.18714937084947
 30
0.0
 40
0.3125
100
AcDbArc
 50
336.421821521801
 51
23.57817847819727
  0
ARC
  5
CFA9
330
17
100
AcDbEntity
  8
R-SWTS-DET3
100
AcDbCircle
 10
41.05549403945409
 20
29.18714937084947
 30
0.0
 40
0.3125
100
AcDbArc
 50
336.421821521801
 51
23.57817847819727
  0
ARC
  5
CFAA
330
17
100
AcDbEntity
  8
R-SWTS-DET3
100
AcDbCircle
 10
41.13411938295445
 20
29.18714937084947
 30
0.0
 40
0.3125
100
AcDbArc
 50
336.421821521801
 51
23.57817847819727
  0
ARC
  5
CFAB
330
17
100
AcDbEntity
  8
R-SWTS-DET3
100
AcDbCircle
 10
41.21688295732909
 20
29.18714937084947
 30
0.0
 40
0.3125
100
AcDbArc
 50
336.421821521801
 51
23.57817847819727
  0
ARC
  5
CFAC
330
17
100
AcDbEntity
  8
R-SWTS-DET3
100
AcDbCircle
 10
41.28723204770308
 20
29.18714937084947
 30
0.0
 40
0.3125
100
AcDbArc
 50
336.421821521801
 51
23.57817847819727
  0
ARC
  5
CFAD
330
17
100
AcDbEntity
  8
R-SWTS-DET3
100
AcDbCircle
 10
43.90485466344413
 20
29.18714937084947
 30
0.0
 40
0.3125
100
AcDbArc
 50
156.4218215218036
 51
203.5781784781982
  0
ARC
  5
CFAE
330
17
100
AcDbEntity
  8
R-SWTS-DET3
100
AcDbCircle
 10
43.83036734219582
 20
29.18714937084947
 30
0.0
 40
0.3125
100
AcDbArc
 50
156.4218215218036
 51
203.5781784781982
  0
ARC
  5
CFAF
330
17
100
AcDbEntity
  8
R-SWTS-DET3
100
AcDbCircle
 10
43.76415669131836
 20
29.18714937084947
 30
0.0
 40
0.3125
100
AcDbArc
 50
156.4218215218036
 51
203.5781784781982
  0
ARC
  5
CFB0
330
17
100
AcDbEntity
  8
R-SWTS-DET3
100
AcDbCircle
 10
43.69794583181866
 20
29.18714937084947
 30
0.0
 40
0.3125
100
AcDbArc
 50
156.4218215218036
 51
203.5781784781982
  0
ARC
  5
CFB1
330
17
100
AcDbEntity
  8
R-SWTS-DET3
100
AcDbCircle
 10
43.62759674144466
 20
29.18714937084947
 30
0.0
 40
0.3125
100
AcDbArc
 50
156.4218215218036
 51
203.5781784781982
  0
ARC
  5
CFB2
330
17
100
AcDbEntity
  8
R-SWTS-DET3
100
AcDbCircle
 10
42.43879256426246
 20
28.30549795266309
 30
0.0
 40
0.625
100
AcDbArc
 50
66.4218215217991
 51
113.5781784782008
  0
ARC
  5
CFB3
330
17
100
AcDbEntity
  8
R-SWTS-DET3
100
AcDbCircle
 10
42.43879256426246
 20
28.3716684963462
 30
0.0
 40
0.625
100
AcDbArc
 50
66.4218215217991
 51
113.5781784782009
  0
ARC
  5
CFB4
330
17
100
AcDbEntity
  8
R-SWTS-DET3
100
AcDbCircle
 10
59.63651624873737
 20
28.16748407964747
 30
0.0
 40
0.3125
100
AcDbArc
 50
291.4218215217992
 51
338.5781784782009
  0
ARC
  5
CFB5
330
17
100
AcDbEntity
  8
R-SWTS-DET3
100
AcDbCircle
 10
59.69320684065704
 20
28.11082785469663
 30
0.0
 40
0.3125
100
AcDbArc
 50
291.4218215217992
 51
338.5781784782009
  0
ARC
  5
CFB6
330
17
100
AcDbEntity
  8
R-SWTS-DET3
100
AcDbCircle
 10
59.75698412165559
 20
28.04708948140098
 30
0.0
 40
0.3125
100
AcDbArc
 50
291.4218215217992
 51
338.5781784782009
  0
ARC
  5
CFB7
330
17
100
AcDbEntity
  8
R-SWTS-DET3
100
AcDbCircle
 10
59.81367492219752
 20
27.98335122833126
 30
0.0
 40
0.3125
100
AcDbArc
 50
291.4218215217992
 51
338.5781784782009
  0
ARC
  5
CFB8
330
17
100
AcDbEntity
  8
R-SWTS-DET3
100
AcDbCircle
 10
59.87390875434553
 20
27.92669488315449
 30
0.0
 40
0.3125
100
AcDbArc
 50
291.4218215217992
 51
338.5781784782009
  0
ARC
  5
CFB9
330
17
100
AcDbEntity
  8
R-SWTS-DET3
100
AcDbCircle
 10
59.93768603534409
 20
27.8664976441442
 30
0.0
 40
0.3125
100
AcDbArc
 50
291.4218215217992
 51
338.5781784782009
  0
ARC
  5
CFBA
330
17
100
AcDbEntity
  8
R-SWTS-DET3
100
AcDbCircle
 10
62.60495742797838
 20
28.14977900935034
 30
0.0
 40
0.3125
100
AcDbArc
 50
201.4218215217994
 51
248.5781784782008
  0
ARC
  5
CFBB
330
17
100
AcDbEntity
  8
R-SWTS-DET3
100
AcDbCircle
 10
62.53763732399597
 20
28.08604063605472
 30
0.0
 40
0.3125
100
AcDbArc
 50
201.4218215217994
 51
248.5781784782008
  0
ARC
  5
CFBC
330
17
100
AcDbEntity
  8
R-SWTS-DET3
100
AcDbCircle
 10
62.47740328322572
 20
28.02584339704441
 30
0.0
 40
0.3125
100
AcDbArc
 50
201.4218215217994
 51
248.5781784782008
  0
ARC
  5
CFBD
330
17
100
AcDbEntity
  8
R-SWTS-DET3
100
AcDbCircle
 10
62.4277987545182
 20
27.97272806592707
 30
0.0
 40
0.3125
100
AcDbArc
 50
201.4218215217994
 51
248.5781784782008
  0
ARC
  5
CFBE
330
17
100
AcDbEntity
  8
R-SWTS-DET3
100
AcDbCircle
 10
62.36402168214187
 20
27.90898981285736
 30
0.0
 40
0.3125
100
AcDbArc
 50
201.4218215217994
 51
248.5781784782008
  0
ARC
  5
CFBF
330
17
100
AcDbEntity
  8
R-SWTS-DET3
100
AcDbCircle
 10
62.30378784999388
 20
27.84525155978764
 30
0.0
 40
0.3125
100
AcDbArc
 50
201.4218215217994
 51
248.5781784782008
  0
ARC
  5
CFC0
330
17
100
AcDbEntity
  8
R-SWTS-DET3
100
AcDbCircle
 10
61.12427997427506
 20
24.78471834463436
 30
0.0
 40
1.908042190309217
100
AcDbArc
 50
78.69792664629499
 51
101.3020733537048
  0
LWPOLYLINE
  5
D10B
330
17
100
AcDbEntity
  8
filler
100
AcDbPolyline
 90
       22
 70
     1
 43
0.0
 10
21.78443056235904
 20
32.05377494522185
 10
21.78443056235904
 20
32.26577494522185
 10
21.81643056235905
 20
32.26577494522185
 10
21.75030620670607
 20
32.38030568883058
 42
0.2679491924311104
 10
21.73736907514161
 20
32.38777494522185
 10
21.47243056235906
 20
32.38777494522185
 10
21.47243056235906
 20
32.32577494522185
 10
21.72243056235906
 20
32.32577494522185
 10
21.72243056235906
 20
32.04377494522186
 10
17.16743056235905
 20
32.04377494522186
 10
17.16743056235905
 20
32.09377494522187
 42
0.414213562373069
 10
17.10743056235905
 20
32.15377494522186
 10
17.02743056235907
 20
32.15377494522186
 42
0.9999999999999998
 10
17.02743056235907
 20
32.09377494522187
 10
17.10243056235906
 20
32.09377494522187
 10
17.10243056235906
 20
32.01377494522186
 10
17.01743056235908
 20
32.01377494522186
 42
0.4142135623731602
 10
16.99743056235907
 20
31.99377494522186
 10
16.99743056235907
 20
31.95377494522186
 10
21.96035949454717
 20
31.95377494522186
 42
0.6681786379192989
 10
21.96743056235904
 20
31.97084601303372
 10
21.8845016301709
 20
32.05377494522185
  0
LWPOLYLINE
  5
D4E6
330
17
100
AcDbEntity
  8
FORMAT
100
AcDbPolyline
 90
        3
 70
     0
 43
0.0
 10
74.59870083066485
 20
0.0
 10
0.0
 20
0.0
 10
0.0
 20
47.60199086639238
  0
MTEXT
  5
D5F2
330
17
100
AcDbEntity
  8
TEXT
100
AcDbMText
 10
1.0
 20
1.999999942131637
 30
0.0
 40
0.375
 41
14.22387531454843
 46
0.0
 71
     1
 72
     5
  1
ENGINEERING CHANGE:  97910-138 (JULY 2018)\PFILE NAME:  KCDD022 SHEET 09 OF 09.DWG
 73
     1
 44
1.0
1001
ACAD
1000
ACAD_MTEXT_COLUMN_INFO_BEGIN
1070
    75
1070
     2
1070
    79
1070
     0
1070
    76
1070
     1
1070
    78
1070
     0
1070
    48
1040
14.22387531454843
1070
    49
1040
1.25
1070
    50
1070
     1
1040
0.0
1000
ACAD_MTEXT_COLUMN_INFO_END
  0
INSERT
  5
D67B
330
17
100
AcDbEntity
  8
0
100
AcDbBlockReference
  2
Kawneer Logo English
 10
1.0
 20
2.5
 30
0.0
 41
5.337
 42
5.337
 43
5.337
  0
MTEXT
  5
D760
330
17
100
AcDbEntity
  8
R-ANNO-TEXT
100
AcDbMText
 10
39.27325156713277
 20
37.46230396643213
 30
0.0
 40
0.25
 41
6.056380044008832
 46
0.0
 71
     1
 72
     5
  1
128267 #12 x 1" AB PHTF \P128348 #10-16 x 1 1/4" FHSD \P162307 MULLION SLEEVE\PSTRUCTURAL SILICONE SEALANT \P(BY OTHERS)*
 73
     1
 44
1.0
  0
MTEXT
  5
D761
330
17
100
AcDbEntity
  8
R-ANNO-TEXT
100
AcDbMText
 10
57.51533125788277
 20
40.20081656501563
 30
0.0
 40
0.25
 41
7.994735261481295
 46
0.0
 71
     1
 72
     5
  1
162306 MULLION SLEEVE \P128267 #12 x 1" AB PHTF \P128348 #10-16 x 1 1/4" FHSD\PSTRUCTURAL SILICONE SEALANT \P(BY OTHERS)*
 73
     1
 44
1.0
  0
MTEXT
  5
D769
330
17
100
AcDbEntity
  8
TEXT
100
AcDbMText
 10
58.2267608855177
 20
3.011686922305472
 30
0.0
 40
0.5
 41
26.42075531882978
 46
0.0
 71
     8
 72
     5
  1
*INSTALLER NOTE: INSTALLER IS RESPONSIBLE FOR ALL REQUIRED COMPATIBILITY REVIEW AND APPROVALS WITH THE STRUCTURAL SILICONE MANUFACTURER AND THE INSULATED GLASS UNIT MANUFACTURERS.
 73
     1
 44
1.0
  0
ENDSEC
  0
SECTION
  2
OBJECTS
  0
DICTIONARY
  5
C
330
0
100
AcDbDictionary
281
     1
  3
ACAD_CIP_PREVIOUS_PRODUCT_INFO
350
D05A
  3
ACAD_COLOR
350
CEBE
  3
ACAD_DETAILVIEWSTYLE
350
D757
  3
ACAD_GROUP
350
D
  3
ACAD_LAYOUT
350
ACB8
  3
ACAD_MATERIAL
350
CEBD
  3
ACAD_MLEADERSTYLE
350
D01B
  3
ACAD_MLINESTYLE
350
1A
  3
ACAD_PLOTSETTINGS
350
ACB9
  3
ACAD_PLOTSTYLENAME
350
ACB6
  3
ACAD_SCALELIST
350
CFF9
  3
ACAD_SECTIONVIEWSTYLE
350
D755
  3
ACAD_TABLESTYLE
350
CEBF
  3
ACAD_VISUALSTYLE
350
CFE8
  3
ACDB_RECOMPOSE_DATA
350
D867
  3
ACDBVARIABLEDICTIONARY
350
3E
  0
DICTIONARY
  5
D036
330
8
100
AcDbDictionary
280
     1
281
     1
  0
DICTIONARY
  5
CEE1
330
2
100
AcDbDictionary
280
     1
281
     1
  3
ACAD_LAYERSTATES
360
CEE2
  0
DICTIONARY
  5
D020
330
E
100
AcDbDictionary
280
     1
281
     1
  3
ADSK_XREC_LAYER_RECONCILED
360
D021
  0
DICTIONARY
  5
D022
330
A48F
100
AcDbDictionary
280
     1
281
     1
  3
ADSK_XREC_LAYER_RECONCILED
360
D023
  0
DICTIONARY
  5
D024
330
A491
100
AcDbDictionary
280
     1
281
     1
  3
ADSK_XREC_LAYER_RECONCILED
360
D025
  0
DICTIONARY
  5
D026
330
A492
100
AcDbDictionary
280
     1
281
     1
  3
ADSK_XREC_LAYER_RECONCILED
360
D027
  0
DICTIONARY
  5
D028
330
A682
100
AcDbDictionary
280
     1
281
     1
  3
ADSK_XREC_LAYER_RECONCILED
360
D029
  0
DICTIONARY
  5
D02A
330
B401
100
AcDbDictionary
280
     1
281
     1
  3
ADSK_XREC_LAYER_RECONCILED
360
D02B
  0
DICTIONARY
  5
D030
330
CF18
100
AcDbDictionary
280
     1
281
     1
  3
ADSK_XREC_LAYER_RECONCILED
360
D031
  0
DICTIONARY
  5
ACE4
330
17
100
AcDbDictionary
280
     1
281
     1
  3
ACAD_LAYOUTSELFREF
360
CEB9
  3
ACAD_SORTENTS
360
CF82
  0
DICTIONARY
  5
ACE2
330
14
100
AcDbDictionary
280
     1
281
     1
  3
ACAD_LAYOUTSELFREF
360
CEB8
  0
DICTIONARY
  5
D677
330
D66D
100
AcDbDictionary
280
     1
281
     1
  3
ACAD_SORTENTS
360
D678
  0
DICTIONARY
  5
D712
330
D66E
100
AcDbDictionary
280
     1
281
     1
  3
ACAD_MTEXT_2008_RT
360
D862
  0
XRECORD
  5
D05A
102
{ACAD_REACTORS
330
C
102
}
330
C
100
AcDbXrecord
280
     1
300
ACD
300
2016
300
86445ACD_2016_0F
  0
DICTIONARY
  5
CEBE
102
{ACAD_REACTORS
330
C
102
}
330
C
100
AcDbDictionary
281
     1
  0
DICTIONARY
  5
D757
102
{ACAD_REACTORS
330
C
102
}
330
C
100
AcDbDictionary
281
     1
  3
Imperial24
350
D758
  0
DICTIONARY
  5
D
102
{ACAD_REACTORS
330
C
102
}
330
C
100
AcDbDictionary
281
     1
  0
DICTIONARY
  5
ACB8
102
{ACAD_REACTORS
330
C
102
}
330
C
100
AcDbDictionary
281
     1
  3
Layout1
350
ACBB
  3
Model
350
ACBA
  0
DICTIONARY
  5
CEBD
102
{ACAD_REACTORS
330
C
102
}
330
C
100
AcDbDictionary
281
     1
  3
ByBlock
350
CFD8
  3
ByLayer
350
CFD0
  3
Global
350
CFE0
  0
DICTIONARY
  5
D01B
102
{ACAD_REACTORS
330
C
102
}
330
C
100
AcDbDictionary
281
     1
  3
Standard
350
D01C
  0
DICTIONARY
  5
1A
102
{ACAD_REACTORS
330
C
102
}
330
C
100
AcDbDictionary
281
     1
  3
STANDARD
350
1B
  0
DICTIONARY
  5
ACB9
102
{ACAD_REACTORS
330
C
102
}
330
C
100
AcDbDictionary
281
     1
  0
ACDBDICTIONARYWDFLT
  5
ACB6
102
{ACAD_REACTORS
330
C
102
}
330
C
100
AcDbDictionary
281
     1
  3
Normal
350
ACB7
100
AcDbDictionaryWithDefault
340
ACB7
  0
DICTIONARY
  5
CFF9
102
{ACAD_REACTORS
330
C
102
}
330
C
100
AcDbDictionary
281
     1
  3
A0
350
CFFA
  3
A1
350
D84A
  3
A2
350
D84B
  3
A3
350
D84C
  3
A4
350
D84D
  3
A5
350
D84E
  3
A6
350
D84F
  3
A7
350
D850
  3
A8
350
D851
  3
A9
350
D852
  3
B0
350
D853
  3
B1
350
D854
  3
B2
350
D855
  3
B3
350
D856
  3
B4
350
D857
  3
B5
350
D858
  3
B6
350
D859
  0
DICTIONARY
  5
D755
102
{ACAD_REACTORS
330
C
102
}
330
C
100
AcDbDictionary
281
     1
  3
Imperial24
350
D756
  0
DICTIONARY
  5
CEBF
102
{ACAD_REACTORS
330
C
102
}
330
C
100
AcDbDictionary
281
     1
  3
Standard
350
CEC0
  0
DICTIONARY
  5
CFE8
102
{ACAD_REACTORS
330
C
102
}
330
C
100
AcDbDictionary
281
     1
  3
2dWireframe
350
CFEE
  3
3D Hidden
350
CFF0
  3
3dWireframe
350
CFEF
  3
Basic
350
CFED
  3
Brighten
350
CFF4
  3
ColorChange
350
CFF8
  3
Conceptual
350
CFF1
  3
Dim
350
CFF3
  3
EdgeColorOff
350
D057
  3
Facepattern
350
CFF7
  3
Flat
350
CFE9
  3
FlatWithEdges
350
CFEA
  3
Gouraud
350
CFEB
  3
GouraudWithEdges
350
CFEC
  3
Hidden
350
D04F
  3
JitterOff
350
D055
  3
Linepattern
350
CFF6
  3
OverhangOff
350
D056
  3
Realistic
350
CFF2
  3
Shaded
350
D054
  3
Shaded with edges
350
D053
  3
Shades of Gray
350
D050
  3
Sketchy
350
D051
  3
Thicken
350
CFF5
  3
Wireframe
350
D04E
  3
X-Ray
350
D052
  0
XRECORD
  5
D867
102
{ACAD_REACTORS
330
C
102
}
330
C
100
AcDbXrecord
280
     1
 90
        1
330
CEC0
330
D5F2
330
D66E
330
D756
330
D758
  0
DICTIONARY
  5
3E
102
{ACAD_REACTORS
330
C
102
}
330
C
100
AcDbDictionary
281
     1
  3
CANNOSCALE
350
D04A
  3
CMLEADERSTYLE
350
D049
  3
CTABLESTYLE
350
CEEC
  3
CVIEWDETAILSTYLE
350
D7B5
  3
CVIEWSECTIONSTYLE
350
D7B6
  3
DIMADEC
350
3F
  3
DIMASSOC
350
CFCD
  3
INDEXCTL
350
D04C
  3
LAYEREVAL
350
D58C
  3
LAYERNOTIFY
350
D58D
  3
LIGHTINGUNITS
350
D58B
  3
MSLTSCALE
350
D58A
  3
PROJECTNAME
350
CFCE
  3
SORTENTS
350
D04B
  0
DICTIONARY
  5
CEE2
102
{ACAD_REACTORS
330
CEE1
102
}
330
CEE1
100
AcDbDictionary
281
     1
  0
XRECORD
  5
D021
102
{ACAD_REACTORS
330
D020
102
}
330
D020
100
AcDbXrecord
280
     1
290
     1
  0
XRECORD
  5
D023
102
{ACAD_REACTORS
330
D022
102
}
330
D022
100
AcDbXrecord
280
     1
290
     1
  0
XRECORD
  5
D025
102
{ACAD_REACTORS
330
D024
102
}
330
D024
100
AcDbXrecord
280
     1
290
     1
  0
XRECORD
  5
D027
102
{ACAD_REACTORS
330
D026
102
}
330
D026
100
AcDbXrecord
280
     1
290
     1
  0
XRECORD
  5
D029
102
{ACAD_REACTORS
330
D028
102
}
330
D028
100
AcDbXrecord
280
     1
290
     1
  0
XRECORD
  5
D02B
102
{ACAD_REACTORS
330
D02A
102
}
330
D02A
100
AcDbXrecord
280
     1
290
     1
  0
XRECORD
  5
D031
102
{ACAD_REACTORS
330
D030
102
}
330
D030
100
AcDbXrecord
280
     1
290
     1
  0
XRECORD
  5
CEB9
102
{ACAD_REACTORS
330
ACE4
102
}
330
ACE4
100
AcDbXrecord
280
     1
340
17
  0
SORTENTSTABLE
  5
CF82
102
{ACAD_REACTORS
330
ACE4
102
}
330
ACE4
100
AcDbSortentsTable
330
17
331
CD8D
  5
CD8E
331
CD89
  5
CD8A
331
CFAD
  5
CFAF
331
CD85
  5
CD86
331
CE92
  5
CE93
331
CFA9
  5
CFAB
331
CDC8
  5
CDC9
331
CD81
  5
CD82
331
CF8D
  5
CFA1
331
CF89
  5
CF8B
331
CB0E
  5
CB0F
331
2E0C
  5
B4B9
331
CBFE
  5
CBFF
331
CB0A
  5
CB0B
331
CBFA
  5
CBFB
331
CB06
  5
CB07
331
CB45
  5
CB46
331
CB84
  5
CB85
331
CBF6
  5
CBF7
331
CC8D
  5
CC8E
331
CB02
  5
CB03
331
CB80
  5
CB81
331
CBF2
  5
CBF3
331
CB7C
  5
CB7D
331
CBBB
  5
CBBC
331
CB78
  5
CB79
331
CE8E
  5
CE8F
331
CD7D
  5
CD7E
331
CDC4
  5
CDC5
331
D4E6
  5
20CF
331
CD79
  5
CD7A
331
CDC0
  5
CDC1
331
CCB5
  5
CCB6
331
CDBC
  5
CDBD
331
CDB8
  5
CDB9
331
CAFE
  5
CAFF
331
CB3D
  5
CB3E
331
CC85
  5
CC86
331
CAFA
  5
CAFB
331
CB39
  5
CB3A
331
CBB7
  5
CBB8
331
CBEA
  5
CBEB
331
CC81
  5
CC82
331
CB35
  5
CB36
331
CB74
  5
CB75
331
CBB3
  5
CBB4
331
CC7D
  5
CC7E
331
CAF2
  5
CAF3
331
CB31
  5
CB32
331
CB70
  5
CB71
331
CBE2
  5
CBE3
331
CC79
  5
CC7A
331
CB6C
  5
CB6D
331
CBAB
  5
CBAC
331
CB68
  5
CB69
331
CE2E
  5
CE2F
331
CCAD
  5
CCAE
331
CCA9
  5
CCAA
331
CDA8
  5
CDA9
331
CCA5
  5
CCA6
331
CDA4
  5
CDA5
331
CCA1
  5
CCA5
331
CDA0
  5
CDA1
331
CFC0
  5
D10B
331
CB2D
  5
CB2E
331
CBDE
  5
CBDF
331
CC75
  5
CC76
331
CB29
  5
CB2A
331
CBA7
  5
CBAA
331
CBDA
  5
CBDB
331
CB25
  5
CB26
331
CB64
  5
CB65
331
CBA3
  5
CBA4
331
CBD6
  5
CBD7
331
CC6D
  5
CC6E
331
B4BA
  5
C070
331
CB21
  5
CB22
331
CB9F
  5
CBA0
331
CB60
  5
CB61
331
CBD2
  5
CBD3
331
CB5C
  5
CB60
331
CB9B
  5
CB9C
331
CB58
  5
CB59
331
CD9C
  5
CD9E
331
CC99
  5
CC9A
331
CD98
  5
CD99
331
CFBC
  5
CFBE
331
CC95
  5
CC96
331
CD94
  5
CD96
331
CFB8
  5
CFBA
331
CC91
  5
CC92
331
CD90
  5
CD91
331
CFB4
  5
CFB6
331
CFB0
  5
CFB2
331
CB1D
  5
CB1E
331
CB97
  5
CB98
331
CC09
  5
CC0A
331
CB15
  5
CB16
331
CB93
  5
CB94
331
CBC6
  5
CBC7
331
CC05
  5
CC06
331
CB11
  5
CB12
331
CB8F
  5
CB90
331
CB50
  5
CB51
331
CC01
  5
CC02
331
CB4C
  5
CB4D
331
CB8B
  5
CB8C
331
CB48
  5
CB49
331
CD8C
  5
CD8D
331
CFAC
  5
CFAE
331
CD88
  5
CD89
331
CE91
  5
CE92
331
CFA8
  5
CFAA
331
CD84
  5
CD85
331
CF8C
  5
CF8E
331
CD80
  5
CD81
331
CB0D
  5
CB0E
331
CBFD
  5
CBFE
331
CB09
  5
CB0A
331
CB87
  5
CB88
331
CB44
  5
CB45
331
CBF9
  5
CBFA
331
CB05
  5
CB06
331
CB83
  5
CB84
331
CC8C
  5
CC8D
331
CBF5
  5
CBF6
331
CB01
  5
CB02
331
CBBE
  5
CBC4
331
CB7F
  5
CB80
331
CC88
  5
CC8A
331
CBF1
  5
CBF2
331
CBBA
  5
CBBB
331
CB7B
  5
CB7C
331
CE8D
  5
CE8E
331
CDC7
  5
CDC8
331
CD7C
  5
CD7D
331
CDC3
  5
CDC4
331
CDBF
  5
CDC0
331
CCB4
  5
CCB5
331
CDBB
  5
CDBC
331
CCB0
  5
CCB2
331
CB3C
  5
CB3D
331
CC84
  5
CC85
331
CB38
  5
CB39
331
CB77
  5
CB78
331
CBB6
  5
CBB7
331
CBE9
  5
CBEA
331
CC80
  5
CC81
331
CB34
  5
CB35
331
CB73
  5
CB74
331
CBB2
  5
CBB3
331
CBE5
  5
CBE7
331
CC7C
  5
CC7D
331
CB30
  5
CB31
331
CB6F
  5
CB70
331
CBAE
  5
CBB0
331
CBE1
  5
CBE2
331
CC78
  5
CC79
331
CB6B
  5
CB6C
331
CBAA
  5
CBAB
331
CCAC
  5
CCAD
331
CDAB
  5
CDAC
331
CDA7
  5
CDA8
331
CCA8
  5
CCA9
331
CDA3
  5
CDA4
331
C075
  5
CAF2
331
CB2C
  5
CB2D
331
CBDD
  5
CBDE
331
CC74
  5
CC75
331
CB28
  5
CB29
331
CB67
  5
CB68
331
CBA6
  5
CBA7
331
CBD9
  5
CBDA
331
CC70
  5
CC72
331
CB24
  5
CB25
331
CB63
  5
CB64
331
CBA2
  5
CBA3
331
CBD5
  5
CBD6
331
B4B9
  5
B4BA
331
CB20
  5
CB21
331
CB9E
  5
CB9F
331
CBD1
  5
CBD2
331
CC68
  5
CC6D
331
CB5B
  5
CB5C
331
CD9F
  5
CDA0
331
CFBF
  5
CFC1
331
CC9C
  5
CC9D
331
CD9B
  5
CD9C
331
CD97
  5
CD98
331
CFBB
  5
CFBD
331
CC98
  5
CC99
331
CFB7
  5
CFB9
331
CC94
  5
CC95
331
CD93
  5
CD94
331
CFB3
  5
CFB5
331
CC90
  5
CC91
331
CB1C
  5
CB1D
331
CBCD
  5
CBD0
331
CB18
  5
CB1A
331
CB96
  5
CB97
331
CC08
  5
CC09
331
CB14
  5
CB15
331
CB92
  5
CB93
331
CBC5
  5
CBC6
331
CC04
  5
CC05
331
CB10
  5
CB11
331
CB4F
  5
CB50
331
CB8E
  5
CB8F
331
CC00
  5
CC01
331
CB4B
  5
CB4C
331
CB8A
  5
CB8B
331
CD8F
  5
CD90
331
CD8B
  5
CD8C
331
CFAF
  5
CFB1
331
CD87
  5
CD88
331
CFAB
  5
CFAD
331
CD83
  5
CD84
331
CE90
  5
CE91
331
CF8B
  5
CF8D
331
CB0C
  5
CB0D
331
CBFC
  5
CBFD
331
CB08
  5
CB09
331
CB47
  5
CB48
331
CB86
  5
CB87
331
CBF8
  5
CBF9
331
CC8F
  5
CC90
331
CB04
  5
CB05
331
CB43
  5
CB44
331
CB82
  5
CB83
331
CBF4
  5
CBF5
331
CC8B
  5
CC8C
331
CB00
  5
CB01
331
CB7E
  5
CB7F
331
CBBD
  5
CBBE
331
CBF0
  5
CBF1
331
CB7A
  5
CB7B
331
CBB9
  5
CBBA
331
CD7F
  5
CD80
331
CDC6
  5
CDC7
331
CE8C
  5
CE8D
331
CD7B
  5
CD7C
331
CDC2
  5
CDC3
331
CCB7
  5
CD79
331
CDBE
  5
CDBF
331
CCB3
  5
CCB4
331
CDBA
  5
CDBB
331
CE30
  5
CE8C
331
CC87
  5
CC88
331
CB3B
  5
CB3C
331
CBEC
  5
CBEF
331
CC83
  5
CC84
331
CB37
  5
CB38
331
CB76
  5
CB77
331
CBB5
  5
CBB6
331
CC7F
  5
CC80
331
CBE8
  5
CBE9
331
CAF4
  5
CAF7
331
CB33
  5
CB34
331
CB72
  5
CB73
331
CBB1
  5
CBB2
331
CBE4
  5
CBE5
331
CC7B
  5
CC7C
331
CB6E
  5
CB6F
331
CBAD
  5
CBAE
331
CBE0
  5
CBE1
331
CB6A
  5
CB6B
331
CCAF
  5
CCB0
331
CCAB
  5
CCAC
331
CDAA
  5
CDAB
331
CCA7
  5
CCA8
331
CDA6
  5
CDA7
331
CDA2
  5
CDA3
331
CB2F
  5
CB30
331
CC77
  5
CC78
331
CB2B
  5
CB2C
331
CB27
  5
CB28
331
CBDC
  5
CBDD
331
CC73
  5
CC74
331
C070
  5
C075
331
CBA5
  5
CBA6
331
CC6F
  5
CC70
331
CBD8
  5
CBD9
331
CB23
  5
CB24
331
CB62
  5
CB63
331
CBA1
  5
CBA2
331
CBD4
  5
CBD5
331
CB9D
  5
CB9E
331
CBD0
  5
CBD1
331
CB5A
  5
CB5B
331
CD9E
  5
CD9F
331
CC9B
  5
CC9C
331
CD9A
  5
CD9B
331
CFBE
  5
CFC0
331
CC97
  5
CC98
331
CD96
  5
CD97
331
CFBA
  5
CFBC
331
CC93
  5
CC94
331
CD92
  5
CD93
331
CFB6
  5
CFB8
331
CFB2
  5
CFB4
331
CC0F
  5
CC68
331
CB1B
  5
CB1C
331
CB17
  5
CB18
331
CB56
  5
CB58
331
CB95
  5
CB96
331
CC07
  5
CC08
331
CBC8
  5
CBCD
331
CB13
  5
CB14
331
CB52
  5
CB56
331
CB91
  5
CB92
331
CBC4
  5
CBC5
331
CC03
  5
CC04
331
CB4E
  5
CB4F
331
CB8D
  5
CB8E
331
CB4A
  5
CB4B
331
CB89
  5
CB8A
331
CD8E
  5
CD8F
331
CD8A
  5
CD8B
331
CFAE
  5
CFB0
331
CD86
  5
CD87
331
CE93
  5
CF8A
331
CFAA
  5
CFAC
331
CDC9
  5
CE2E
331
CD82
  5
CD83
331
CF8E
  5
CFA9
331
CF8A
  5
CF8C
331
CB0F
  5
CB10
331
CBFF
  5
CC00
331
CB0B
  5
CB0C
331
CBFB
  5
CBFC
331
CB07
  5
CB08
331
CB46
  5
CB47
331
CB85
  5
CB86
331
CB03
  5
CB04
331
CB42
  5
CB43
331
CBF7
  5
CBF8
331
CC8E
  5
CC8F
331
CB81
  5
CB82
331
20C5
  5
20C5
331
CBF3
  5
CBF4
331
CC8A
  5
CC8B
331
CB7D
  5
CB7E
331
CBBC
  5
CBBD
331
CB79
  5
CB7A
331
CBB8
  5
CBB9
331
CE8F
  5
CE90
331
CD7E
  5
CD7F
331
CDC5
  5
CDC6
331
CD7A
  5
CD7B
331
CDC1
  5
CDC2
331
CCB6
  5
CCB7
331
CDBD
  5
CDBE
331
CCB2
  5
CCB3
331
CDB9
  5
CDBA
331
D10B
  5
D110
331
CAFF
  5
CB00
331
CB3E
  5
CB42
331
CBEF
  5
CBF0
331
CC86
  5
CC87
331
CAFB
  5
CAFE
331
CB3A
  5
CB3B
331
CBEB
  5
CBEC
331
CC82
  5
CC83
331
CAF7
  5
CAFA
331
CB36
  5
CB37
331
CB75
  5
CB76
331
CBB4
  5
CBB5
331
CBE7
  5
CBE8
331
CC7E
  5
CC7F
331
CAF3
  5
CAF4
331
CB32
  5
CB33
331
CB71
  5
CB72
331
CBB0
  5
CBB1
331
CBE3
  5
CBE4
331
CC7A
  5
CC7B
331
CB6D
  5
CB6E
331
CBAC
  5
CBAD
331
CB69
  5
CB6A
331
CE2F
  5
CE30
331
CCAE
  5
CCAF
331
CCAA
  5
CCAB
331
CDA9
  5
CDAA
331
CCA6
  5
CCA7
331
CDA5
  5
CDA6
331
CDA1
  5
CDA2
331
CB2E
  5
CB2F
331
CBDF
  5
CBE0
331
CC76
  5
CC77
331
CB2A
  5
CB2B
331
CBDB
  5
CBDC
331
CC72
  5
CC73
331
CB26
  5
CB27
331
CB65
  5
CB67
331
CBA4
  5
CBA5
331
CBD7
  5
CBD8
331
CC6E
  5
CC6F
331
CB22
  5
CB23
331
CB61
  5
CB62
331
CBA0
  5
CBA1
331
CBD3
  5
CBD4
331
CB9C
  5
CB9D
331
CB59
  5
CB5A
331
CB98
  5
CB9B
331
CC9A
  5
CC9B
331
CD99
  5
CD9A
331
CFBD
  5
CFBF
331
CC96
  5
CC97
331
CFB9
  5
CFBB
331
CC92
  5
CC93
331
CD91
  5
CD92
331
CFB5
  5
CFB7
331
CFB1
  5
CFB3
331
CB1E
  5
CB20
331
CB1A
  5
CB1B
331
CC0A
  5
CC0F
331
CB16
  5
CB17
331
CB94
  5
CB95
331
CBC7
  5
CBC8
331
CC06
  5
CC07
331
CB12
  5
CB13
331
CB51
  5
CB52
331
CB90
  5
CB91
331
CC02
  5
CC03
331
CB4D
  5
CB4E
331
CB8C
  5
CB8D
331
CB49
  5
CB4A
331
CB88
  5
CB89
  0
XRECORD
  5
CEB8
102
{ACAD_REACTORS
330
ACE2
102
}
330
ACE2
100
AcDbXrecord
280
     1
340
14
  0
SORTENTSTABLE
  5
D678
102
{ACAD_REACTORS
330
D677
102
}
330
D677
100
AcDbSortentsTable
330
D66D
  0
XRECORD
  5
D862
102
{ACAD_REACTORS
330
D712
102
}
330
D712
100
AcDbXrecord
280
     1
 40
102645.0
  1
\pxqr;{\fArial TUR|b0|i0|c0|p34;\T1.05;AN ARCONIC COMPANY}
  0
ACDBDETAILVIEWSTYLE
  5
D758
102
{ACAD_XDICTIONARY
360
D865
102
}
102
{ACAD_REACTORS
330
D757
102
}
330
D757
100
AcDbModelDocViewStyle
 70
     0
  3
Imperial24
290
     0
100
AcDbDetailViewStyle
 70
     0
 71
     0
 90
        3
 71
     1
340
F
 62
   256
 40
0.24
340
0
 62
   256
 40
0.24
300

 40
0.36
280
     3
 71
     2
340
13
 90
       25
 62
   256
 71
     3
340
F
 62
   256
 40
0.24
 90
        1
 40
0.75
 90
        1
300
%<\AcVar ViewType \f "%tc1">% %<\AcVar ViewDetailId>%\PSCALE %<\AcVar ViewScale \f "%sn">%
 71
     4
340
13
 90
       25
 62
   256
340
13
 90
       25
 62
   256
280
     0
  0
LAYOUT
  5
ACBB
102
{ACAD_REACTORS
330
ACB8
102
}
330
ACB8
100
AcDbPlotSettings
  1

  2
HP LaserJet 5Si/5Si MX PS
  4

  6

 40
0.0
 41
0.0
 42
0.0
 43
0.0
 44
0.0
 45
0.0
 46
0.0
 47
0.0
 48
0.0
 49
0.0
140
0.0
141
0.0
142
1.0
143
1.0
 70
   688
 72
     0
 73
     0
 74
     5
  7
monochrome2.ctb
 75
    16
147
1.0
 76
     0
 77
     2
 78
   300
148
0.0
149
0.0
100
AcDbLayout
  1
Layout1
 70
     1
 71
     1
 10
0.0
 20
0.0
 11
12.0
 21
9.0
 12
0.0
 22
0.0
 32
0.0
 14
1.000000000000000E+20
 24
1.000000000000000E+20
 34
1.000000000000000E+20
 15
-1.000000000000000E+20
 25
-1.000000000000000E+20
 35
-1.000000000000000E+20
146
0.0
 13
0.0
 23
0.0
 33
0.0
 16
1.0
 26
0.0
 36
0.0
 17
0.0
 27
1.0
 37
0.0
 76
     0
330
14
  0
LAYOUT
  5
ACBA
102
{ACAD_XDICTIONARY
360
D77B
102
}
102
{ACAD_REACTORS
330
ACB8
102
}
330
ACB8
100
AcDbPlotSettings
  1

  2
\\NOAKCI-HUB01\KCI_MKT_HP9000_PCL6
  4
11x17
  6

 40
3.174999952316284
 41
3.174999952316284
 42
3.17498779296875
 43
3.17498779296875
 44
279.3999938964844
 45
431.8000183105469
 46
0.0
 47
0.0
 48
0.0
 49
0.0
140
0.0
141
0.0
142
1.0
143
5.951566198729589
 70
 11952
 72
     0
 73
     1
 74
     1
  7
monochrome2.ctb
 75
     0
147
0.1680229987550938
 76
     0
 77
     2
 78
   300
148
0.1545208164723874
149
0.0898485278226502
100
AcDbLayout
  1
Model
 70
     1
 71
     0
 10
0.0
 20
0.0
 11
12.0
 21
9.0
 12
0.0
 22
0.0
 32
0.0
 14
0.0
 24
0.0
 34
0.0
 15
0.0
 25
0.0
 35
0.0
146
0.0
 13
0.0
 23
0.0
 33
0.0
 16
1.0
 26
0.0
 36
0.0
 17
0.0
 27
1.0
 37
0.0
 76
     0
330
17
331
CFC7
  0
MATERIAL
  5
CFD8
102
{ACAD_XDICTIONARY
360
CFD9
102
}
102
{ACAD_REACTORS
330
CEBD
102
}
330
CEBD
100
AcDbMaterial
  1
ByBlock
 72
     0
 43
0.0208333333333333
 43
0.0
 43
0.0
 43
0.0
 43
0.0
 43
0.0208333333333333
 43
0.0
 43
0.0
 43
0.0
 43
0.0
 43
1.0
 43
0.0
 43
0.0
 43
0.0
 43
0.0
 43
1.0
 77
     0
 47
0.0208333333333333
 47
0.0
 47
0.0
 47
0.0
 47
0.0
 47
0.0208333333333333
 47
0.0
 47
0.0
 47
0.0
 47
0.0
 47
1.0
 47
0.0
 47
0.0
 47
0.0
 47
0.0
 47
1.0
171
     0
 49
0.0208333333333333
 49
0.0
 49
0.0
 49
0.0
 49
0.0
 49
0.0208333333333333
 49
0.0
 49
0.0
 49
0.0
 49
0.0
 49
1.0
 49
0.0
 49
0.0
 49
0.0
 49
0.0
 49
1.0
175
     0
142
0.0208333333333333
142
0.0
142
0.0
142
0.0
142
0.0
142
0.0208333333333333
142
0.0
142
0.0
142
0.0
142
0.0
142
1.0
142
0.0
142
0.0
142
0.0
142
0.0
142
1.0
179
     0
144
0.0208333333333333
144
0.0
144
0.0
144
0.0
144
0.0
144
0.0208333333333333
144
0.0
144
0.0
144
0.0
144
0.0
144
1.0
144
0.0
144
0.0
144
0.0
144
0.0
144
1.0
147
0.0208333333333333
147
0.0
147
0.0
147
0.0
147
0.0
147
0.0208333333333333
147
0.0
147
0.0
147
0.0
147
0.0
147
1.0
147
0.0
147
0.0
147
0.0
147
0.0
147
1.0
  0
MATERIAL
  5
CFD0
102
{ACAD_XDICTIONARY
360
CFD1
102
}
102
{ACAD_REACTORS
330
CEBD
102
}
330
CEBD
100
AcDbMaterial
  1
ByLayer
 72
     0
 43
0.0208333333333333
 43
0.0
 43
0.0
 43
0.0
 43
0.0
 43
0.0208333333333333
 43
0.0
 43
0.0
 43
0.0
 43
0.0
 43
1.0
 43
0.0
 43
0.0
 43
0.0
 43
0.0
 43
1.0
 77
     0
 47
0.0208333333333333
 47
0.0
 47
0.0
 47
0.0
 47
0.0
 47
0.0208333333333333
 47
0.0
 47
0.0
 47
0.0
 47
0.0
 47
1.0
 47
0.0
 47
0.0
 47
0.0
 47
0.0
 47
1.0
171
     0
 49
0.0208333333333333
 49
0.0
 49
0.0
 49
0.0
 49
0.0
 49
0.0208333333333333
 49
0.0
 49
0.0
 49
0.0
 49
0.0
 49
1.0
 49
0.0
 49
0.0
 49
0.0
 49
0.0
 49
1.0
175
     0
142
0.0208333333333333
142
0.0
142
0.0
142
0.0
142
0.0
142
0.0208333333333333
142
0.0
142
0.0
142
0.0
142
0.0
142
1.0
142
0.0
142
0.0
142
0.0
142
0.0
142
1.0
179
     0
144
0.0208333333333333
144
0.0
144
0.0
144
0.0
144
0.0
144
0.0208333333333333
144
0.0
144
0.0
144
0.0
144
0.0
144
1.0
144
0.0
144
0.0
144
0.0
144
0.0
144
1.0
147
0.0208333333333333
147
0.0
147
0.0
147
0.0
147
0.0
147
0.0208333333333333
147
0.0
147
0.0
147
0.0
147
0.0
147
1.0
147
0.0
147
0.0
147
0.0
147
0.0
147
1.0
  0
MATERIAL
  5
CFE0
102
{ACAD_XDICTIONARY
360
CFE1
102
}
102
{ACAD_REACTORS
330
CEBD
102
}
330
CEBD
100
AcDbMaterial
  1
Global
 72
     0
 43
0.0208333333333333
 43
0.0
 43
0.0
 43
0.0
 43
0.0
 43
0.0208333333333333
 43
0.0
 43
0.0
 43
0.0
 43
0.0
 43
1.0
 43
0.0
 43
0.0
 43
0.0
 43
0.0
 43
1.0
 77
     0
 47
0.0208333333333333
 47
0.0
 47
0.0
 47
0.0
 47
0.0
 47
0.0208333333333333
 47
0.0
 47
0.0
 47
0.0
 47
0.0
 47
1.0
 47
0.0
 47
0.0
 47
0.0
 47
0.0
 47
1.0
171
     0
 49
0.0208333333333333
 49
0.0
 49
0.0
 49
0.0
 49
0.0
 49
0.0208333333333333
 49
0.0
 49
0.0
 49
0.0
 49
0.0
 49
1.0
 49
0.0
 49
0.0
 49
0.0
 49
0.0
 49
1.0
175
     0
142
0.0208333333333333
142
0.0
142
0.0
142
0.0
142
0.0
142
0.0208333333333333
142
0.0
142
0.0
142
0.0
142
0.0
142
1.0
142
0.0
142
0.0
142
0.0
142
0.0
142
1.0
179
     0
144
0.0208333333333333
144
0.0
144
0.0
144
0.0
144
0.0
144
0.0208333333333333
144
0.0
144
0.0
144
0.0
144
0.0
144
1.0
144
0.0
144
0.0
144
0.0
144
0.0
144
1.0
147
0.0208333333333333
147
0.0
147
0.0
147
0.0
147
0.0
147
0.0208333333333333
147
0.0
147
0.0
147
0.0
147
0.0
147
1.0
147
0.0
147
0.0
147
0.0
147
0.0
147
1.0
  0
MLEADERSTYLE
  5
D01C
102
{ACAD_REACTORS
330
D01B
102
}
330
D01B
100
AcDbMLeaderStyle
179
     2
170
     2
171
     1
172
     0
 90
        2
 40
0.0
 41
0.0
173
     1
 91
-1056964608
340
11
 92
       -2
290
     1
 42
0.09
291
     1
 43
0.36
  3
Standard
 44
0.18
300

342
F
174
     1
178
     6
175
     1
176
     0
 93
-1056964608
 45
0.18
292
     0
297
     0
 46
0.18
 94
-1056964608
 47
1.0
 49
1.0
140
1.0
293
     1
141
0.0
294
     1
177
     0
142
1.0
295
     0
296
     0
143
0.125
271
     0
272
     9
273
     9
298
     0
  0
MLINESTYLE
  5
1B
102
{ACAD_REACTORS
330
1A
102
}
330
1A
100
AcDbMlineStyle
  2
STANDARD
 70
     0
  3

 62
   256
 51
90.0
 52
90.0
 71
     2
 49
0.5
 62
   256
  6
BYLAYER
 49
-0.5
 62
   256
  6
BYLAYER
  0
ACDBPLACEHOLDER
  5
ACB7
102
{ACAD_REACTORS
330
ACB6
102
}
330
ACB6
  0
SCALE
  5
CFFA
102
{ACAD_REACTORS
330
CFF9
102
}
330
CFF9
100
AcDbScale
 70
     0
300
1:1
140
1.0
141
1.0
290
     1
  0
SCALE
  5
D84A
102
{ACAD_REACTORS
330
CFF9
102
}
330
CFF9
100
AcDbScale
 70
     0
300
1/128" = 1'-0"
140
0.0078125
141
12.0
290
     0
  0
SCALE
  5
D84B
102
{ACAD_REACTORS
330
CFF9
102
}
330
CFF9
100
AcDbScale
 70
     0
300
1/64" = 1'-0"
140
0.015625
141
12.0
290
     0
  0
SCALE
  5
D84C
102
{ACAD_REACTORS
330
CFF9
102
}
330
CFF9
100
AcDbScale
 70
     0
300
1/32" = 1'-0"
140
0.03125
141
12.0
290
     0
  0
SCALE
  5
D84D
102
{ACAD_REACTORS
330
CFF9
102
}
330
CFF9
100
AcDbScale
 70
     0
300
1/16" = 1'-0"
140
0.0625
141
12.0
290
     0
  0
SCALE
  5
D84E
102
{ACAD_REACTORS
330
CFF9
102
}
330
CFF9
100
AcDbScale
 70
     0
300
3/32" = 1'-0"
140
0.09375
141
12.0
290
     0
  0
SCALE
  5
D84F
102
{ACAD_REACTORS
330
CFF9
102
}
330
CFF9
100
AcDbScale
 70
     0
300
1/8" = 1'-0"
140
0.125
141
12.0
290
     0
  0
SCALE
  5
D850
102
{ACAD_REACTORS
330
CFF9
102
}
330
CFF9
100
AcDbScale
 70
     0
300
3/16" = 1'-0"
140
0.1875
141
12.0
290
     0
  0
SCALE
  5
D851
102
{ACAD_REACTORS
330
CFF9
102
}
330
CFF9
100
AcDbScale
 70
     0
300
1/4" = 1'-0"
140
0.25
141
12.0
290
     0
  0
SCALE
  5
D852
102
{ACAD_REACTORS
330
CFF9
102
}
330
CFF9
100
AcDbScale
 70
     0
300
3/8" = 1'-0"
140
0.375
141
12.0
290
     0
  0
SCALE
  5
D853
102
{ACAD_REACTORS
330
CFF9
102
}
330
CFF9
100
AcDbScale
 70
     0
300
1/2" = 1'-0"
140
0.5
141
12.0
290
     0
  0
SCALE
  5
D854
102
{ACAD_REACTORS
330
CFF9
102
}
330
CFF9
100
AcDbScale
 70
     0
300
3/4" = 1'-0"
140
0.75
141
12.0
290
     0
  0
SCALE
  5
D855
102
{ACAD_REACTORS
330
CFF9
102
}
330
CFF9
100
AcDbScale
 70
     0
300
1" = 1'-0"
140
1.0
141
12.0
290
     0
  0
SCALE
  5
D856
102
{ACAD_REACTORS
330
CFF9
102
}
330
CFF9
100
AcDbScale
 70
     0
300
1-1/2" = 1'-0"
140
1.5
141
12.0
290
     0
  0
SCALE
  5
D857
102
{ACAD_REACTORS
330
CFF9
102
}
330
CFF9
100
AcDbScale
 70
     0
300
3" = 1'-0"
140
3.0
141
12.0
290
     0
  0
SCALE
  5
D858
102
{ACAD_REACTORS
330
CFF9
102
}
330
CFF9
100
AcDbScale
 70
     0
300
6" = 1'-0"
140
6.0
141
12.0
290
     0
  0
SCALE
  5
D859
102
{ACAD_REACTORS
330
CFF9
102
}
330
CFF9
100
AcDbScale
 70
     0
300
1'-0" = 1'-0"
140
12.0
141
12.0
290
     0
  0
ACDBSECTIONVIEWSTYLE
  5
D756
102
{ACAD_XDICTIONARY
360
D863
102
}
102
{ACAD_REACTORS
330
D755
102
}
330
D755
100
AcDbModelDocViewStyle
 70
     0
  3
Imperial24
290
     0
100
AcDbSectionViewStyle
 70
     0
 71
     0
 90
       78
 71
     1
340
F
 62
   256
 40
0.24
340
0
340
0
 62
   256
 40
0.24
300
I, O, Q, S, X, Z
 40
0.48
 90
        3
 40
0.18
 90
        1
 71
     2
340
13
 90
       25
 62
   256
340
13
 90
       50
 62
   256
 40
0.24
 40
0.0
 40
0.24
 71
     3
340
F
 62
   256
 40
0.24
 90
        1
 40
0.75
 90
        1
300
%<\AcVar ViewType \f "%tc1">% %<\AcVar ViewSectionStartId>%-%<\AcVar ViewSectionEndId>%\PSCALE %<\AcVar ViewScale \f "%sn">%
 71
     4
 62
   256
 62
   257
300
ANSI31
 40
1.0
 90
        0
290
     0
290
     0
 90
        6
 40
0.0
 40
1.570796326794896
 40
0.2617993877991494
 40
1.308996938995747
 40
-0.2617993877991494
 40
1.832595714594046
  0
TABLESTYLE
  5
CEC0
102
{ACAD_XDICTIONARY
360
D032
102
}
102
{ACAD_REACTORS
330
CEBF
102
}
330
CEBF
100
AcDbTableStyle
280
     0
  3
Standard
 70
     0
 71
     0
 40
0.06
 41
0.06
280
     0
281
     0
  7
STANDARD
140
0.18
170
     2
 62
     0
 63
     7
283
     0
 90
        4
 91
        0
  1

274
    -2
284
     1
 64
     0
275
    -2
285
     1
 65
     0
276
    -2
286
     1
 66
     0
277
    -2
287
     1
 67
     0
278
    -2
288
     1
 68
     0
279
    -2
289
     1
 69
     0
  7
STANDARD
140
0.25
170
     5
 62
     0
 63
     7
283
     0
 90
        4
 91
        0
  1

274
    -2
284
     1
 64
     0
275
    -2
285
     1
 65
     0
276
    -2
286
     1
 66
     0
277
    -2
287
     1
 67
     0
278
    -2
288
     1
 68
     0
279
    -2
289
     1
 69
     0
  7
STANDARD
140
0.18
170
     5
 62
     0
 63
     7
283
     0
 90
        4
 91
        0
  1

274
    -2
284
     1
 64
     0
275
    -2
285
     1
 65
     0
276
    -2
286
     1
 66
     0
277
    -2
287
     1
 67
     0
278
    -2
288
     1
 68
     0
279
    -2
289
     1
 69
     0
  0
VISUALSTYLE
  5
CFEE
102
{ACAD_REACTORS
330
CFE8
102
}
330
CFE8
100
AcDbVisualStyle
  2
2dWireframe
 70
     4
177
     3
291
     0
 70
    58
 90
        0
176
     1
 90
        2
176
     1
 90
        0
176
     1
 90
        0
176
     1
 40
0.6
176
     1
 40
30.0
176
     1
 62
     7
176
     1
 90
        1
176
     1
 90
        4
176
     1
 62
     7
176
     1
 62
   257
176
     1
 90
        1
176
     1
 90
        1
176
     1
 40
1.0
176
     1
 90
        0
176
     1
 62
   257
176
     1
 40
1.0
176
     1
 90
        1
176
     1
 90
        6
176
     1
 90
        2
176
     1
 62
     7
176
     1
 90
        5
176
     1
 90
        0
176
     1
 90
        0
176
     1
290
     0
176
     1
 90
        1
176
     1
 40
0.0
176
     1
 90
        0
176
     1
290
     1
176
     1
290
     1
176
     1
290
     0
176
     1
290
     0
176
     1
290
     0
176
     1
290
     0
176
     1
290
     0
176
     1
290
     0
176
     1
290
     0
176
     1
 90
       50
176
     1
 40
0.0
176
     1
 40
1.0
176
     1
 90
        0
176
     1
 62
    18
420
        0
176
     1
 90
       50
176
     1
 90
        3
176
     1
 62
     5
420
      255
176
     1
290
     0
176
     1
 90
       50
176
     1
 90
       50
176
     1
 90
       50
176
     1
290
     0
176
     1
 90
       50
176
     1
 62
   256
176
     0
 40
1.0
176
     0
 90
        2
176
     1
  1
strokes_ogs.tif
176
     1
290
     0
176
     1
 40
1.0
176
     1
 40
1.0
176
     1
  0
VISUALSTYLE
  5
CFF0
102
{ACAD_REACTORS
330
CFE8
102
}
330
CFE8
100
AcDbVisualStyle
  2
3D Hidden
 70
     6
177
     3
291
     0
 70
    58
 90
        1
176
     1
 90
        2
176
     1
 90
        2
176
     1
 90
        0
176
     1
 40
0.6
176
     1
 40
30.0
176
     1
 62
     7
176
     1
 90
        2
176
     1
 90
        2
176
     1
 62
     7
176
     1
 62
   257
176
     1
 90
        2
176
     1
 90
        1
176
     1
 40
40.0
176
     1
 90
        0
176
     1
 62
   257
176
     1
 40
1.0
176
     1
 90
        1
176
     1
 90
        6
176
     1
 90
        2
176
     1
 62
     7
176
     1
 90
        3
176
     1
 90
        0
176
     1
 90
        0
176
     1
290
     0
176
     1
 90
        1
176
     1
 40
0.0
176
     1
 90
        0
176
     1
290
     0
176
     1
290
     1
176
     1
290
     1
176
     1
290
     0
176
     1
290
     0
176
     1
290
     0
176
     1
290
     0
176
     1
290
     0
176
     1
290
     0
176
     1
 90
       50
176
     1
 40
0.0
176
     1
 40
1.0
176
     1
 90
        0
176
     1
 62
    18
420
        0
176
     1
 90
       50
176
     1
 90
        3
176
     1
 62
     5
420
      255
176
     1
290
     0
176
     1
 90
       50
176
     1
 90
       50
176
     1
 90
       50
176
     1
290
     0
176
     1
 90
       50
176
     1
 62
   256
176
     0
 40
1.0
176
     0
 90
        2
176
     1
  1
strokes_ogs.tif
176
     1
290
     0
176
     1
 40
1.0
176
     1
 40
1.0
176
     1
  0
VISUALSTYLE
  5
CFEF
102
{ACAD_REACTORS
330
CFE8
102
}
330
CFE8
100
AcDbVisualStyle
  2
3dWireframe
 70
     5
177
     3
291
     0
 70
    58
 90
        0
176
     1
 90
        2
176
     1
 90
        0
176
     1
 90
        0
176
     1
 40
0.6
176
     1
 40
30.0
176
     1
 62
     7
176
     1
 90
        1
176
     1
 90
        4
176
     1
 62
     7
176
     1
 62
   257
176
     1
 90
        1
176
     1
 90
        1
176
     1
 40
1.0
176
     1
 90
        0
176
     1
 62
   257
176
     1
 40
1.0
176
     1
 90
        1
176
     1
 90
        6
176
     1
 90
        2
176
     1
 62
     7
176
     1
 90
        5
176
     1
 90
        0
176
     1
 90
        0
176
     1
290
     0
176
     1
 90
        1
176
     1
 40
0.0
176
     1
 90
        0
176
     1
290
     0
176
     1
290
     1
176
     1
290
     1
176
     1
290
     0
176
     1
290
     0
176
     1
290
     0
176
     1
290
     0
176
     1
290
     0
176
     1
290
     0
176
     1
 90
       50
176
     1
 40
0.0
176
     1
 40
1.0
176
     1
 90
        0
176
     1
 62
    18
420
        0
176
     1
 90
       50
176
     1
 90
        3
176
     1
 62
     5
420
      255
176
     1
290
     0
176
     1
 90
       50
176
     1
 90
       50
176
     1
 90
       50
176
     1
290
     0
176
     1
 90
       50
176
     1
 62
   256
176
     0
 40
1.0
176
     0
 90
        2
176
     1
  1
strokes_ogs.tif
176
     1
290
     0
176
     1
 40
1.0
176
     1
 40
1.0
176
     1
  0
VISUALSTYLE
  5
CFED
102
{ACAD_REACTORS
330
CFE8
102
}
330
CFE8
100
AcDbVisualStyle
  2
Basic
 70
     7
177
     3
291
     1
 70
    58
 90
        1
176
     1
 90
        0
176
     1
 90
        1
176
     1
 90
        0
176
     1
 40
0.6
176
     1
 40
30.0
176
     1
 62
     7
176
     1
 90
        0
176
     1
 90
        4
176
     1
 62
     7
176
     1
 62
   257
176
     1
 90
        1
176
     1
 90
        1
176
     1
 40
1.0
176
     1
 90
        8
176
     1
 62
     7
176
     1
 40
1.0
176
     1
 90
        1
176
     1
 90
        6
176
     1
 90
        2
176
     1
 62
     7
176
     1
 90
        5
176
     1
 90
        0
176
     1
 90
        0
176
     1
290
     0
176
     1
 90
        1
176
     1
 40
0.0
176
     1
 90
        0
176
     1
290
     0
176
     1
290
     1
176
     1
290
     1
176
     1
290
     0
176
     1
290
     0
176
     1
290
     0
176
     1
290
     0
176
     1
290
     0
176
     1
290
     0
176
     1
 90
       50
176
     1
 40
0.0
176
     1
 40
1.0
176
     1
 90
        0
176
     1
 62
    18
420
        0
176
     1
 90
       50
176
     1
 90
        3
176
     1
 62
     5
420
      255
176
     1
290
     0
176
     1
 90
       50
176
     1
 90
       50
176
     1
 90
       50
176
     1
290
     0
176
     1
 90
       50
176
     1
 62
   256
176
     0
 40
1.0
176
     0
 90
        2
176
     1
  1
strokes_ogs.tif
176
     1
290
     0
176
     1
 40
1.0
176
     1
 40
1.0
176
     1
  0
VISUALSTYLE
  5
CFF4
102
{ACAD_REACTORS
330
CFE8
102
}
330
CFE8
100
AcDbVisualStyle
  2
Brighten
 70
    12
177
     3
291
     1
 70
    58
 90
        2
176
     1
 90
        2
176
     1
 90
        0
176
     1
 90
        0
176
     1
 40
0.6
176
     1
 40
30.0
176
     1
 62
     7
176
     1
 90
        1
176
     1
 90
        4
176
     1
 62
     7
176
     1
 62
   257
176
     1
 90
        1
176
     1
 90
        1
176
     1
 40
1.0
176
     1
 90
        8
176
     1
 62
     7
176
     1
 40
1.0
176
     1
 90
        1
176
     1
 90
        6
176
     1
 90
        2
176
     1
 62
     7
176
     1
 90
        5
176
     1
 90
        0
176
     1
 90
        0
176
     1
290
     0
176
     1
 90
        1
176
     1
 40
50.0
176
     1
 90
        0
176
     1
290
     0
176
     1
290
     1
176
     1
290
     1
176
     1
290
     0
176
     1
290
     0
176
     1
290
     0
176
     1
290
     0
176
     1
290
     0
176
     1
290
     0
176
     1
 90
       50
176
     1
 40
0.0
176
     1
 40
1.0
176
     1
 90
        0
176
     1
 62
    18
420
        0
176
     1
 90
       50
176
     1
 90
        3
176
     1
 62
     5
420
      255
176
     1
290
     0
176
     1
 90
       50
176
     1
 90
       50
176
     1
 90
       50
176
     1
290
     0
176
     1
 90
       50
176
     1
 62
   256
176
     0
 40
1.0
176
     0
 90
        2
176
     1
  1
strokes_ogs.tif
176
     1
290
     0
176
     1
 40
1.0
176
     1
 40
1.0
176
     1
  0
VISUALSTYLE
  5
CFF8
102
{ACAD_REACTORS
330
CFE8
102
}
330
CFE8
100
AcDbVisualStyle
  2
ColorChange
 70
    16
177
     3
291
     1
 70
    58
 90
        2
176
     1
 90
        2
176
     1
 90
        3
176
     1
 90
        0
176
     1
 40
0.6
176
     1
 40
30.0
176
     1
 62
     8
176
     1
 90
        1
176
     1
 90
        4
176
     1
 62
     7
176
     1
 62
   257
176
     1
 90
        1
176
     1
 90
        1
176
     1
 40
1.0
176
     1
 90
        8
176
     1
 62
     8
176
     1
 40
1.0
176
     1
 90
        1
176
     1
 90
        6
176
     1
 90
        2
176
     1
 62
     7
176
     1
 90
        5
176
     1
 90
        0
176
     1
 90
        0
176
     1
290
     0
176
     1
 90
        1
176
     1
 40
0.0
176
     1
 90
        0
176
     1
290
     0
176
     1
290
     1
176
     1
290
     1
176
     1
290
     0
176
     1
290
     0
176
     1
290
     0
176
     1
290
     0
176
     1
290
     0
176
     1
290
     0
176
     1
 90
       50
176
     1
 40
0.0
176
     1
 40
1.0
176
     1
 90
        0
176
     1
 62
    18
420
        0
176
     1
 90
       50
176
     1
 90
        3
176
     1
 62
     5
420
      255
176
     1
290
     0
176
     1
 90
       50
176
     1
 90
       50
176
     1
 90
       50
176
     1
290
     0
176
     1
 90
       50
176
     1
 62
   256
176
     0
 40
1.0
176
     0
 90
        2
176
     1
  1
strokes_ogs.tif
176
     1
290
     0
176
     1
 40
1.0
176
     1
 40
1.0
176
     1
  0
VISUALSTYLE
  5
CFF1
102
{ACAD_REACTORS
330
CFE8
102
}
330
CFE8
100
AcDbVisualStyle
  2
Conceptual
 70
     9
177
     3
291
     0
 70
    58
 90
        3
176
     1
 90
        2
176
     1
 90
        0
176
     1
 90
        0
176
     1
 40
0.6
176
     1
 40
30.0
176
     1
 62
     7
176
     1
 90
        2
176
     1
 90
        2
176
     1
 62
     7
176
     1
 62
   257
176
     1
 90
        1
176
     1
 90
        1
176
     1
 40
40.0
176
     1
 90
        8
176
     1
 62
     7
176
     1
 40
1.0
176
     1
 90
        1
176
     1
 90
        6
176
     1
 90
        2
176
     1
 62
     7
176
     1
 90
        3
176
     1
 90
        0
176
     1
 90
        0
176
     1
290
     0
176
     1
 90
        1
176
     1
 40
0.0
176
     1
 90
        0
176
     1
290
     0
176
     1
290
     1
176
     1
290
     1
176
     1
290
     0
176
     1
290
     0
176
     1
290
     0
176
     1
290
     0
176
     1
290
     0
176
     1
290
     0
176
     1
 90
       50
176
     1
 40
0.0
176
     1
 40
1.0
176
     1
 90
        0
176
     1
 62
    18
420
        0
176
     1
 90
       50
176
     1
 90
        3
176
     1
 62
     5
420
      255
176
     1
290
     0
176
     1
 90
       50
176
     1
 90
       50
176
     1
 90
       50
176
     1
290
     0
176
     1
 90
       50
176
     1
 62
   256
176
     0
 40
1.0
176
     0
 90
        2
176
     1
  1
strokes_ogs.tif
176
     1
290
     0
176
     1
 40
1.0
176
     1
 40
1.0
176
     1
  0
VISUALSTYLE
  5
CFF3
102
{ACAD_REACTORS
330
CFE8
102
}
330
CFE8
100
AcDbVisualStyle
  2
Dim
 70
    11
177
     3
291
     1
 70
    58
 90
        2
176
     1
 90
        2
176
     1
 90
        0
176
     1
 90
        0
176
     1
 40
0.6
176
     1
 40
30.0
176
     1
 62
     7
176
     1
 90
        1
176
     1
 90
        4
176
     1
 62
     7
176
     1
 62
   257
176
     1
 90
        1
176
     1
 90
        1
176
     1
 40
1.0
176
     1
 90
        8
176
     1
 62
     7
176
     1
 40
1.0
176
     1
 90
        1
176
     1
 90
        6
176
     1
 90
        2
176
     1
 62
     7
176
     1
 90
        5
176
     1
 90
        0
176
     1
 90
        0
176
     1
290
     0
176
     1
 90
        1
176
     1
 40
-50.0
176
     1
 90
        0
176
     1
290
     0
176
     1
290
     1
176
     1
290
     1
176
     1
290
     0
176
     1
290
     0
176
     1
290
     0
176
     1
290
     0
176
     1
290
     0
176
     1
290
     0
176
     1
 90
       50
176
     1
 40
0.0
176
     1
 40
1.0
176
     1
 90
        0
176
     1
 62
    18
420
        0
176
     1
 90
       50
176
     1
 90
        3
176
     1
 62
     5
420
      255
176
     1
290
     0
176
     1
 90
       50
176
     1
 90
       50
176
     1
 90
       50
176
     1
290
     0
176
     1
 90
       50
176
     1
 62
   256
176
     0
 40
1.0
176
     0
 90
        2
176
     1
  1
strokes_ogs.tif
176
     1
290
     0
176
     1
 40
1.0
176
     1
 40
1.0
176
     1
  0
VISUALSTYLE
  5
D057
102
{ACAD_REACTORS
330
CFE8
102
}
330
CFE8
100
AcDbVisualStyle
  2
EdgeColorOff
 70
    22
177
     3
291
     1
 70
    58
 90
        2
176
     0
 90
        2
176
     0
 90
        0
176
     0
 90
        0
176
     0
 40
0.6
176
     0
 40
30.0
176
     0
 62
     7
176
     0
 90
        1
176
     0
 90
        4
176
     0
 62
     7
176
     0
 62
   257
176
     0
 90
        1
176
     0
 90
        1
176
     0
 40
1.0
176
     0
 90
        8
176
     2
 62
     7
176
     0
 40
1.0
176
     0
 90
        1
176
     0
 90
        6
176
     0
 90
        2
176
     0
 62
     7
176
     0
 90
        5
176
     0
 90
        0
176
     0
 90
        0
176
     0
290
     0
176
     0
 90
        1
176
     0
 40
0.0
176
     0
 90
        0
176
     0
290
     0
176
     1
290
     1
176
     1
290
     1
176
     1
290
     0
176
     1
290
     0
176
     1
290
     0
176
     1
290
     0
176
     1
290
     0
176
     1
290
     0
176
     1
 90
       50
176
     1
 40
0.0
176
     1
 40
1.0
176
     1
 90
        0
176
     1
 62
    18
420
        0
176
     1
 90
       50
176
     1
 90
        3
176
     1
 62
     5
420
      255
176
     1
290
     0
176
     1
 90
       50
176
     1
 90
       50
176
     1
 90
       50
176
     1
290
     0
176
     1
 90
       50
176
     1
 62
   256
176
     0
 40
1.0
176
     0
 90
        2
176
     1
  1
strokes_ogs.tif
176
     1
290
     0
176
     1
 40
1.0
176
     1
 40
1.0
176
     1
  0
VISUALSTYLE
  5
CFF7
102
{ACAD_REACTORS
330
CFE8
102
}
330
CFE8
100
AcDbVisualStyle
  2
Facepattern
 70
    15
177
     3
291
     1
 70
    58
 90
        2
176
     1
 90
        2
176
     1
 90
        0
176
     1
 90
        0
176
     1
 40
0.6
176
     1
 40
30.0
176
     1
 62
     7
176
     1
 90
        1
176
     1
 90
        4
176
     1
 62
     7
176
     1
 62
   257
176
     1
 90
        1
176
     1
 90
        1
176
     1
 40
1.0
176
     1
 90
        8
176
     1
 62
     7
176
     1
 40
1.0
176
     1
 90
        1
176
     1
 90
        6
176
     1
 90
        2
176
     1
 62
     7
176
     1
 90
        5
176
     1
 90
        0
176
     1
 90
        0
176
     1
290
     0
176
     1
 90
        1
176
     1
 40
0.0
176
     1
 90
        0
176
     1
290
     0
176
     1
290
     1
176
     1
290
     1
176
     1
290
     0
176
     1
290
     0
176
     1
290
     0
176
     1
290
     0
176
     1
290
     0
176
     1
290
     0
176
     1
 90
       50
176
     1
 40
0.0
176
     1
 40
1.0
176
     1
 90
        0
176
     1
 62
    18
420
        0
176
     1
 90
       50
176
     1
 90
        3
176
     1
 62
     5
420
      255
176
     1
290
     0
176
     1
 90
       50
176
     1
 90
       50
176
     1
 90
       50
176
     1
290
     0
176
     1
 90
       50
176
     1
 62
   256
176
     0
 40
1.0
176
     0
 90
        2
176
     1
  1
strokes_ogs.tif
176
     1
290
     0
176
     1
 40
1.0
176
     1
 40
1.0
176
     1
  0
VISUALSTYLE
  5
CFE9
102
{ACAD_REACTORS
330
CFE8
102
}
330
CFE8
100
AcDbVisualStyle
  2
Flat
 70
     0
177
     3
291
     1
 70
    58
 90
        2
176
     1
 90
        1
176
     1
 90
        1
176
     1
 90
        2
176
     1
 40
0.6
176
     1
 40
30.0
176
     1
 62
     7
176
     1
 90
        0
176
     1
 90
        4
176
     1
 62
     7
176
     1
 62
   257
176
     1
 90
        1
176
     1
 90
        1
176
     1
 40
1.0
176
     1
 90
        8
176
     1
 62
     7
176
     1
 40
1.0
176
     1
 90
        1
176
     1
 90
        6
176
     1
 90
        2
176
     1
 62
     7
176
     1
 90
        5
176
     1
 90
        0
176
     1
 90
        0
176
     1
290
     0
176
     1
 90
       13
176
     1
 40
0.0
176
     1
 90
        0
176
     1
290
     0
176
     1
290
     1
176
     1
290
     1
176
     1
290
     0
176
     1
290
     0
176
     1
290
     0
176
     1
290
     0
176
     1
290
     0
176
     1
290
     0
176
     1
 90
       50
176
     1
 40
0.0
176
     1
 40
1.0
176
     1
 90
        0
176
     1
 62
    18
420
        0
176
     1
 90
       50
176
     1
 90
        3
176
     1
 62
     5
420
      255
176
     1
290
     0
176
     1
 90
       50
176
     1
 90
       50
176
     1
 90
       50
176
     1
290
     0
176
     1
 90
       50
176
     1
 62
   256
176
     0
 40
1.0
176
     0
 90
        2
176
     1
  1
strokes_ogs.tif
176
     1
290
     0
176
     1
 40
1.0
176
     1
 40
1.0
176
     1
  0
VISUALSTYLE
  5
CFEA
102
{ACAD_REACTORS
330
CFE8
102
}
330
CFE8
100
AcDbVisualStyle
  2
FlatWithEdges
 70
     1
177
     3
291
     1
 70
    58
 90
        2
176
     1
 90
        1
176
     1
 90
        1
176
     1
 90
        2
176
     1
 40
0.6
176
     1
 40
30.0
176
     1
 62
     7
176
     1
 90
        1
176
     1
 90
        4
176
     1
 62
     7
176
     1
 62
   257
176
     1
 90
        1
176
     1
 90
        1
176
     1
 40
1.0
176
     1
 90
        0
176
     1
 62
   257
176
     1
 40
1.0
176
     1
 90
        1
176
     1
 90
        6
176
     1
 90
        2
176
     1
 62
     7
176
     1
 90
        5
176
     1
 90
        0
176
     1
 90
        0
176
     1
290
     0
176
     1
 90
       13
176
     1
 40
0.0
176
     1
 90
        0
176
     1
290
     0
176
     1
290
     1
176
     1
290
     1
176
     1
290
     0
176
     1
290
     0
176
     1
290
     0
176
     1
290
     0
176
     1
290
     0
176
     1
290
     0
176
     1
 90
       50
176
     1
 40
0.0
176
     1
 40
1.0
176
     1
 90
        0
176
     1
 62
    18
420
        0
176
     1
 90
       50
176
     1
 90
        3
176
     1
 62
     5
420
      255
176
     1
290
     0
176
     1
 90
       50
176
     1
 90
       50
176
     1
 90
       50
176
     1
290
     0
176
     1
 90
       50
176
     1
 62
   256
176
     0
 40
1.0
176
     0
 90
        2
176
     1
  1
strokes_ogs.tif
176
     1
290
     0
176
     1
 40
1.0
176
     1
 40
1.0
176
     1
  0
VISUALSTYLE
  5
CFEB
102
{ACAD_REACTORS
330
CFE8
102
}
330
CFE8
100
AcDbVisualStyle
  2
Gouraud
 70
     2
177
     3
291
     1
 70
    58
 90
        2
176
     1
 90
        2
176
     1
 90
        1
176
     1
 90
        2
176
     1
 40
0.6
176
     1
 40
30.0
176
     1
 62
     7
176
     1
 90
        0
176
     1
 90
        4
176
     1
 62
     7
176
     1
 62
   257
176
     1
 90
        1
176
     1
 90
        1
176
     1
 40
1.0
176
     1
 90
        0
176
     1
 62
     7
176
     1
 40
1.0
176
     1
 90
        1
176
     1
 90
        6
176
     1
 90
        2
176
     1
 62
     7
176
     1
 90
        5
176
     1
 90
        0
176
     1
 90
        0
176
     1
290
     0
176
     1
 90
       13
176
     1
 40
0.0
176
     1
 90
        0
176
     1
290
     0
176
     1
290
     1
176
     1
290
     1
176
     1
290
     0
176
     1
290
     0
176
     1
290
     0
176
     1
290
     0
176
     1
290
     0
176
     1
290
     0
176
     1
 90
       50
176
     1
 40
0.0
176
     1
 40
1.0
176
     1
 90
        0
176
     1
 62
    18
420
        0
176
     1
 90
       50
176
     1
 90
        3
176
     1
 62
     5
420
      255
176
     1
290
     0
176
     1
 90
       50
176
     1
 90
       50
176
     1
 90
       50
176
     1
290
     0
176
     1
 90
       50
176
     1
 62
   256
176
     0
 40
1.0
176
     0
 90
        2
176
     1
  1
strokes_ogs.tif
176
     1
290
     0
176
     1
 40
1.0
176
     1
 40
1.0
176
     1
  0
VISUALSTYLE
  5
CFEC
102
{ACAD_REACTORS
330
CFE8
102
}
330
CFE8
100
AcDbVisualStyle
  2
GouraudWithEdges
 70
     3
177
     3
291
     1
 70
    58
 90
        2
176
     1
 90
        2
176
     1
 90
        1
176
     1
 90
        2
176
     1
 40
0.6
176
     1
 40
30.0
176
     1
 62
     7
176
     1
 90
        1
176
     1
 90
        4
176
     1
 62
     7
176
     1
 62
   257
176
     1
 90
        1
176
     1
 90
        1
176
     1
 40
1.0
176
     1
 90
        0
176
     1
 62
   257
176
     1
 40
1.0
176
     1
 90
        1
176
     1
 90
        6
176
     1
 90
        2
176
     1
 62
     7
176
     1
 90
        5
176
     1
 90
        0
176
     1
 90
        0
176
     1
290
     0
176
     1
 90
       13
176
     1
 40
0.0
176
     1
 90
        0
176
     1
290
     0
176
     1
290
     1
176
     1
290
     1
176
     1
290
     0
176
     1
290
     0
176
     1
290
     0
176
     1
290
     0
176
     1
290
     0
176
     1
290
     0
176
     1
 90
       50
176
     1
 40
0.0
176
     1
 40
1.0
176
     1
 90
        0
176
     1
 62
    18
420
        0
176
     1
 90
       50
176
     1
 90
        3
176
     1
 62
     5
420
      255
176
     1
290
     0
176
     1
 90
       50
176
     1
 90
       50
176
     1
 90
       50
176
     1
290
     0
176
     1
 90
       50
176
     1
 62
   256
176
     0
 40
1.0
176
     0
 90
        2
176
     1
  1
strokes_ogs.tif
176
     1
290
     0
176
     1
 40
1.0
176
     1
 40
1.0
176
     1
  0
VISUALSTYLE
  5
D04F
102
{ACAD_REACTORS
330
CFE8
102
}
330
CFE8
100
AcDbVisualStyle
  2
Hidden
 70
     6
177
     3
291
     0
 70
    58
 90
        1
176
     1
 90
        2
176
     1
 90
        2
176
     1
 90
        0
176
     1
 40
0.6
176
     1
 40
30.0
176
     1
 62
     7
176
     1
 90
        2
176
     1
 90
        2
176
     1
 62
     7
176
     1
 62
   257
176
     1
 90
        2
176
     1
 90
        1
176
     1
 40
40.0
176
     1
 90
        0
176
     1
 62
   257
176
     1
 40
1.0
176
     1
 90
        1
176
     1
 90
        6
176
     1
 90
        2
176
     1
 62
     7
176
     1
 90
        3
176
     1
 90
        0
176
     1
 90
        0
176
     1
290
     0
176
     1
 90
        1
176
     1
 40
0.0
176
     1
 90
        0
176
     1
290
     0
176
     1
290
     1
176
     1
290
     1
176
     1
290
     0
176
     1
290
     0
176
     1
290
     0
176
     1
290
     0
176
     1
290
     0
176
     1
290
     0
176
     1
 90
       50
176
     1
 40
0.0
176
     1
 40
1.0
176
     1
 90
        0
176
     1
 62
    18
420
        0
176
     1
 90
       50
176
     1
 90
        3
176
     1
 62
     5
420
      255
176
     1
290
     0
176
     1
 90
       50
176
     1
 90
       50
176
     1
 90
       50
176
     1
290
     0
176
     1
 90
       50
176
     1
 62
   256
176
     0
 40
1.0
176
     0
 90
        2
176
     1
  1
strokes_ogs.tif
176
     1
290
     0
176
     1
 40
1.0
176
     1
 40
1.0
176
     1
  0
VISUALSTYLE
  5
D055
102
{ACAD_REACTORS
330
CFE8
102
}
330
CFE8
100
AcDbVisualStyle
  2
JitterOff
 70
    20
177
     3
291
     1
 70
    58
 90
        2
176
     0
 90
        2
176
     0
 90
        0
176
     0
 90
        0
176
     0
 40
0.6
176
     0
 40
30.0
176
     0
 62
     7
176
     0
 90
        1
176
     0
 90
        4
176
     0
 62
     7
176
     0
 62
   257
176
     0
 90
        1
176
     0
 90
        1
176
     0
 40
1.0
176
     0
 90
       10
176
     2
 62
     7
176
     0
 40
1.0
176
     0
 90
        1
176
     0
 90
        6
176
     0
 90
        2
176
     0
 62
     7
176
     0
 90
        5
176
     0
 90
        0
176
     0
 90
        0
176
     0
290
     0
176
     0
 90
        1
176
     0
 40
0.0
176
     0
 90
        0
176
     0
290
     0
176
     1
290
     1
176
     1
290
     1
176
     1
290
     0
176
     1
290
     0
176
     1
290
     0
176
     1
290
     0
176
     1
290
     0
176
     1
290
     0
176
     1
 90
       50
176
     1
 40
0.0
176
     1
 40
1.0
176
     1
 90
        0
176
     1
 62
    18
420
        0
176
     1
 90
       50
176
     1
 90
        3
176
     1
 62
     5
420
      255
176
     1
290
     0
176
     1
 90
       50
176
     1
 90
       50
176
     1
 90
       50
176
     1
290
     0
176
     1
 90
       50
176
     1
 62
   256
176
     0
 40
1.0
176
     0
 90
        2
176
     1
  1
strokes_ogs.tif
176
     1
290
     0
176
     1
 40
1.0
176
     1
 40
1.0
176
     1
  0
VISUALSTYLE
  5
CFF6
102
{ACAD_REACTORS
330
CFE8
102
}
330
CFE8
100
AcDbVisualStyle
  2
Linepattern
 70
    14
177
     3
291
     1
 70
    58
 90
        2
176
     1
 90
        2
176
     1
 90
        0
176
     1
 90
        0
176
     1
 40
0.6
176
     1
 40
30.0
176
     1
 62
     7
176
     1
 90
        1
176
     1
 90
        4
176
     1
 62
     7
176
     1
 62
   257
176
     1
 90
        7
176
     1
 90
        7
176
     1
 40
1.0
176
     1
 90
        8
176
     1
 62
     7
176
     1
 40
1.0
176
     1
 90
        1
176
     1
 90
        6
176
     1
 90
        2
176
     1
 62
     7
176
     1
 90
        5
176
     1
 90
        0
176
     1
 90
        0
176
     1
290
     0
176
     1
 90
        1
176
     1
 40
0.0
176
     1
 90
        0
176
     1
290
     0
176
     1
290
     1
176
     1
290
     1
176
     1
290
     0
176
     1
290
     0
176
     1
290
     0
176
     1
290
     0
176
     1
290
     0
176
     1
290
     0
176
     1
 90
       50
176
     1
 40
0.0
176
     1
 40
1.0
176
     1
 90
        0
176
     1
 62
    18
420
        0
176
     1
 90
       50
176
     1
 90
        3
176
     1
 62
     5
420
      255
176
     1
290
     0
176
     1
 90
       50
176
     1
 90
       50
176
     1
 90
       50
176
     1
290
     0
176
     1
 90
       50
176
     1
 62
   256
176
     0
 40
1.0
176
     0
 90
        2
176
     1
  1
strokes_ogs.tif
176
     1
290
     0
176
     1
 40
1.0
176
     1
 40
1.0
176
     1
  0
VISUALSTYLE
  5
D056
102
{ACAD_REACTORS
330
CFE8
102
}
330
CFE8
100
AcDbVisualStyle
  2
OverhangOff
 70
    21
177
     3
291
     1
 70
    58
 90
        2
176
     0
 90
        2
176
     0
 90
        0
176
     0
 90
        0
176
     0
 40
0.6
176
     0
 40
30.0
176
     0
 62
     7
176
     0
 90
        1
176
     0
 90
        4
176
     0
 62
     7
176
     0
 62
   257
176
     0
 90
        1
176
     0
 90
        1
176
     0
 40
1.0
176
     0
 90
        9
176
     2
 62
     7
176
     0
 40
1.0
176
     0
 90
        1
176
     0
 90
        6
176
     0
 90
        2
176
     0
 62
     7
176
     0
 90
        5
176
     0
 90
        0
176
     0
 90
        0
176
     0
290
     0
176
     0
 90
        1
176
     0
 40
0.0
176
     0
 90
        0
176
     0
290
     0
176
     1
290
     1
176
     1
290
     1
176
     1
290
     0
176
     1
290
     0
176
     1
290
     0
176
     1
290
     0
176
     1
290
     0
176
     1
290
     0
176
     1
 90
       50
176
     1
 40
0.0
176
     1
 40
1.0
176
     1
 90
        0
176
     1
 62
    18
420
        0
176
     1
 90
       50
176
     1
 90
        3
176
     1
 62
     5
420
      255
176
     1
290
     0
176
     1
 90
       50
176
     1
 90
       50
176
     1
 90
       50
176
     1
290
     0
176
     1
 90
       50
176
     1
 62
   256
176
     0
 40
1.0
176
     0
 90
        2
176
     1
  1
strokes_ogs.tif
176
     1
290
     0
176
     1
 40
1.0
176
     1
 40
1.0
176
     1
  0
VISUALSTYLE
  5
CFF2
102
{ACAD_REACTORS
330
CFE8
102
}
330
CFE8
100
AcDbVisualStyle
  2
Realistic
 70
     8
177
     3
291
     0
 70
    58
 90
        2
176
     1
 90
        2
176
     1
 90
        0
176
     1
 90
        0
176
     1
 40
0.6
176
     1
 40
30.0
176
     1
 62
     7
176
     1
 90
        1
176
     1
 90
        0
176
     1
 62
     7
176
     1
 62
   257
176
     1
 90
        1
176
     1
 90
        1
176
     1
 40
1.0
176
     1
 90
        8
176
     1
 62
     8
176
     1
 40
1.0
176
     1
 90
        1
176
     1
 90
        6
176
     1
 90
        2
176
     1
 62
     7
176
     1
 90
        5
176
     1
 90
        0
176
     1
 90
        0
176
     1
290
     0
176
     1
 90
       13
176
     1
 40
0.0
176
     1
 90
        0
176
     1
290
     0
176
     1
290
     1
176
     1
290
     1
176
     1
290
     0
176
     1
290
     0
176
     1
290
     0
176
     1
290
     0
176
     1
290
     0
176
     1
290
     0
176
     1
 90
       50
176
     1
 40
0.0
176
     1
 40
1.0
176
     1
 90
        0
176
     1
 62
    18
420
        0
176
     1
 90
       50
176
     1
 90
        3
176
     1
 62
     5
420
      255
176
     1
290
     0
176
     1
 90
       50
176
     1
 90
       50
176
     1
 90
       50
176
     1
290
     0
176
     1
 90
       50
176
     1
 62
   256
176
     0
 40
1.0
176
     0
 90
        2
176
     1
  1
strokes_ogs.tif
176
     1
290
     0
176
     1
 40
1.0
176
     1
 40
1.0
176
     1
  0
VISUALSTYLE
  5
D054
102
{ACAD_REACTORS
330
CFE8
102
}
330
CFE8
100
AcDbVisualStyle
  2
Shaded
 70
    27
177
     3
291
     0
 70
    58
 90
        2
176
     1
 90
        2
176
     1
 90
        1
176
     1
 90
        2
176
     1
 40
0.6
176
     1
 40
30.0
176
     1
 62
     7
176
     1
 90
        0
176
     1
 90
        4
176
     1
 62
     7
176
     1
 62
   257
176
     1
 90
        1
176
     1
 90
        1
176
     1
 40
1.0
176
     1
 90
        8
176
     1
 62
   257
176
     1
 40
1.0
176
     1
 90
        1
176
     1
 90
        6
176
     1
 90
        2
176
     1
 62
     8
176
     1
 90
        3
176
     1
 90
        0
176
     1
 90
        0
176
     1
290
     0
176
     1
 90
        5
176
     1
 40
0.0
176
     1
 90
        0
176
     1
290
     0
176
     1
290
     1
176
     1
290
     1
176
     1
290
     0
176
     1
290
     0
176
     1
290
     0
176
     1
290
     0
176
     1
290
     0
176
     1
290
     0
176
     1
 90
       50
176
     1
 40
0.0
176
     1
 40
1.0
176
     1
 90
        0
176
     1
 62
    18
420
        0
176
     1
 90
       50
176
     1
 90
        3
176
     1
 62
     5
420
      255
176
     1
290
     0
176
     1
 90
       50
176
     1
 90
       50
176
     1
 90
       50
176
     1
290
     0
176
     1
 90
       50
176
     1
 62
   256
176
     0
 40
1.0
176
     0
 90
        2
176
     1
  1
strokes_ogs.tif
176
     1
290
     0
176
     1
 40
1.0
176
     1
 40
1.0
176
     1
  0
VISUALSTYLE
  5
D053
102
{ACAD_REACTORS
330
CFE8
102
}
330
CFE8
100
AcDbVisualStyle
  2
Shaded with edges
 70
    26
177
     3
291
     0
 70
    58
 90
        2
176
     1
 90
        2
176
     1
 90
        1
176
     1
 90
        2
176
     1
 40
0.6
176
     1
 40
30.0
176
     1
 62
     7
176
     1
 90
        1
176
     1
 90
       10
176
     1
 62
     7
176
     1
 62
   257
176
     1
 90
        2
176
     1
 90
        1
176
     1
 40
1.0
176
     1
 90
        8
176
     1
 62
   257
176
     1
 40
1.0
176
     1
 90
        1
176
     1
 90
        6
176
     1
 90
        2
176
     1
 62
     7
176
     1
 90
        3
176
     1
 90
        0
176
     1
 90
        0
176
     1
290
     0
176
     1
 90
        5
176
     1
 40
0.0
176
     1
 90
        0
176
     1
290
     0
176
     1
290
     1
176
     1
290
     1
176
     1
290
     0
176
     1
290
     0
176
     1
290
     0
176
     1
290
     0
176
     1
290
     0
176
     1
290
     0
176
     1
 90
       50
176
     1
 40
0.0
176
     1
 40
1.0
176
     1
 90
        0
176
     1
 62
    18
420
        0
176
     1
 90
       50
176
     1
 90
        3
176
     1
 62
     5
420
      255
176
     1
290
     0
176
     1
 90
       50
176
     1
 90
       50
176
     1
 90
       50
176
     1
290
     0
176
     1
 90
       50
176
     1
 62
   256
176
     0
 40
1.0
176
     0
 90
        2
176
     1
  1
strokes_ogs.tif
176
     1
290
     0
176
     1
 40
1.0
176
     1
 40
1.0
176
     1
  0
VISUALSTYLE
  5
D050
102
{ACAD_REACTORS
330
CFE8
102
}
330
CFE8
100
AcDbVisualStyle
  2
Shades of Gray
 70
    23
177
     3
291
     0
 70
    58
 90
        2
176
     1
 90
        2
176
     1
 90
        3
176
     1
 90
        0
176
     1
 40
0.6
176
     1
 40
30.0
176
     1
 62
     7
176
     1
 90
        2
176
     1
 90
        2
176
     1
 62
     7
176
     1
 62
     7
176
     1
 90
        1
176
     1
 90
        1
176
     1
 40
40.0
176
     1
 90
        8
176
     1
 62
     7
176
     1
 40
1.0
176
     1
 90
        1
176
     1
 90
        6
176
     1
 90
        2
176
     1
 62
     7
176
     1
 90
        3
176
     1
 90
        0
176
     1
 90
        0
176
     1
290
     0
176
     1
 90
        1
176
     1
 40
0.0
176
     1
 90
        0
176
     1
290
     0
176
     1
290
     1
176
     1
290
     1
176
     1
290
     0
176
     1
290
     0
176
     1
290
     0
176
     1
290
     0
176
     1
290
     0
176
     1
290
     0
176
     1
 90
       50
176
     1
 40
0.0
176
     1
 40
1.0
176
     1
 90
        0
176
     1
 62
    18
420
        0
176
     1
 90
       50
176
     1
 90
        3
176
     1
 62
     5
420
      255
176
     1
290
     0
176
     1
 90
       50
176
     1
 90
       50
176
     1
 90
       50
176
     1
290
     0
176
     1
 90
       50
176
     1
 62
   256
176
     0
 40
1.0
176
     0
 90
        2
176
     1
  1
strokes_ogs.tif
176
     1
290
     0
176
     1
 40
1.0
176
     1
 40
1.0
176
     1
  0
VISUALSTYLE
  5
D051
102
{ACAD_REACTORS
330
CFE8
102
}
330
CFE8
100
AcDbVisualStyle
  2
Sketchy
 70
    24
177
     3
291
     0
 70
    58
 90
        1
176
     1
 90
        2
176
     1
 90
        2
176
     1
 90
        0
176
     1
 40
0.6
176
     1
 40
30.0
176
     1
 62
     7
176
     1
 90
        2
176
     1
 90
        2
176
     1
 62
     7
176
     1
 62
     7
176
     1
 90
        1
176
     1
 90
        1
176
     1
 40
40.0
176
     1
 90
       11
176
     1
 62
     7
176
     1
 40
1.0
176
     1
 90
        1
176
     1
 90
        6
176
     1
 90
        2
176
     1
 62
     7
176
     1
 90
        6
176
     1
 90
        0
176
     1
 90
        0
176
     1
290
     0
176
     1
 90
        1
176
     1
 40
0.0
176
     1
 90
        0
176
     1
290
     0
176
     1
290
     1
176
     1
290
     1
176
     1
290
     0
176
     1
290
     0
176
     1
290
     0
176
     1
290
     0
176
     1
290
     0
176
     1
290
     0
176
     1
 90
       50
176
     1
 40
0.0
176
     1
 40
1.0
176
     1
 90
        0
176
     1
 62
    18
420
        0
176
     1
 90
       50
176
     1
 90
        3
176
     1
 62
     5
420
      255
176
     1
290
     0
176
     1
 90
       50
176
     1
 90
       50
176
     1
 90
       50
176
     1
290
     0
176
     1
 90
       50
176
     1
 62
   256
176
     0
 40
1.0
176
     0
 90
        2
176
     1
  1
strokes_ogs.tif
176
     1
290
     0
176
     1
 40
1.0
176
     1
 40
1.0
176
     1
  0
VISUALSTYLE
  5
CFF5
102
{ACAD_REACTORS
330
CFE8
102
}
330
CFE8
100
AcDbVisualStyle
  2
Thicken
 70
    13
177
     3
291
     1
 70
    58
 90
        2
176
     1
 90
        2
176
     1
 90
        0
176
     1
 90
        0
176
     1
 40
0.6
176
     1
 40
30.0
176
     1
 62
     7
176
     1
 90
        1
176
     1
 90
        4
176
     1
 62
     7
176
     1
 62
   257
176
     1
 90
        1
176
     1
 90
        1
176
     1
 40
1.0
176
     1
 90
       12
176
     1
 62
     7
176
     1
 40
1.0
176
     1
 90
        1
176
     1
 90
        6
176
     1
 90
        2
176
     1
 62
     7
176
     1
 90
        5
176
     1
 90
        0
176
     1
 90
        0
176
     1
290
     0
176
     1
 90
        1
176
     1
 40
0.0
176
     1
 90
        0
176
     1
290
     0
176
     1
290
     1
176
     1
290
     1
176
     1
290
     0
176
     1
290
     0
176
     1
290
     0
176
     1
290
     0
176
     1
290
     0
176
     1
290
     0
176
     1
 90
       50
176
     1
 40
0.0
176
     1
 40
1.0
176
     1
 90
        0
176
     1
 62
    18
420
        0
176
     1
 90
       50
176
     1
 90
        3
176
     1
 62
     5
420
      255
176
     1
290
     0
176
     1
 90
       50
176
     1
 90
       50
176
     1
 90
       50
176
     1
290
     0
176
     1
 90
       50
176
     1
 62
   256
176
     0
 40
1.0
176
     0
 90
        2
176
     1
  1
strokes_ogs.tif
176
     1
290
     0
176
     1
 40
1.0
176
     1
 40
1.0
176
     1
  0
VISUALSTYLE
  5
D04E
102
{ACAD_REACTORS
330
CFE8
102
}
330
CFE8
100
AcDbVisualStyle
  2
Wireframe
 70
     5
177
     3
291
     0
 70
    58
 90
        0
176
     1
 90
        2
176
     1
 90
        0
176
     1
 90
        0
176
     1
 40
0.6
176
     1
 40
30.0
176
     1
 62
     7
176
     1
 90
        1
176
     1
 90
        4
176
     1
 62
     7
176
     1
 62
   257
176
     1
 90
        1
176
     1
 90
        1
176
     1
 40
1.0
176
     1
 90
        0
176
     1
 62
   257
176
     1
 40
1.0
176
     1
 90
        1
176
     1
 90
        6
176
     1
 90
        2
176
     1
 62
     7
176
     1
 90
        3
176
     1
 90
        0
176
     1
 90
        0
176
     1
290
     0
176
     1
 90
        1
176
     1
 40
0.0
176
     1
 90
        0
176
     1
290
     0
176
     1
290
     1
176
     1
290
     1
176
     1
290
     0
176
     1
290
     0
176
     1
290
     0
176
     1
290
     0
176
     1
290
     0
176
     1
290
     0
176
     1
 90
       50
176
     1
 40
0.0
176
     1
 40
1.0
176
     1
 90
        0
176
     1
 62
    18
420
        0
176
     1
 90
       50
176
     1
 90
        3
176
     1
 62
     5
420
      255
176
     1
290
     0
176
     1
 90
       50
176
     1
 90
       50
176
     1
 90
       50
176
     1
290
     0
176
     1
 90
       50
176
     1
 62
   256
176
     0
 40
1.0
176
     0
 90
        2
176
     1
  1
strokes_ogs.tif
176
     1
290
     0
176
     1
 40
1.0
176
     1
 40
1.0
176
     1
  0
VISUALSTYLE
  5
D052
102
{ACAD_REACTORS
330
CFE8
102
}
330
CFE8
100
AcDbVisualStyle
  2
X-Ray
 70
    25
177
     3
291
     0
 70
    58
 90
        2
176
     1
 90
        2
176
     1
 90
        1
176
     1
 90
        1
176
     1
 40
0.5
176
     1
 40
30.0
176
     1
 62
     7
176
     1
 90
        1
176
     1
 90
        0
176
     1
 62
     7
176
     1
 62
   257
176
     1
 90
        1
176
     1
 90
        1
176
     1
 40
1.0
176
     1
 90
        8
176
     1
 62
     7
176
     1
 40
1.0
176
     1
 90
        1
176
     1
 90
        6
176
     1
 90
        2
176
     1
 62
     7
176
     1
 90
        3
176
     1
 90
        0
176
     1
 90
        0
176
     1
290
     0
176
     1
 90
       13
176
     1
 40
0.0
176
     1
 90
        0
176
     1
290
     0
176
     1
290
     1
176
     1
290
     1
176
     1
290
     0
176
     1
290
     0
176
     1
290
     0
176
     1
290
     0
176
     1
290
     0
176
     1
290
     0
176
     1
 90
       50
176
     1
 40
0.0
176
     1
 40
1.0
176
     1
 90
        0
176
     1
 62
    18
420
        0
176
     1
 90
       50
176
     1
 90
        3
176
     1
 62
     5
420
      255
176
     1
290
     0
176
     1
 90
       50
176
     1
 90
       50
176
     1
 90
       50
176
     1
290
     0
176
     1
 90
       50
176
     1
 62
   256
176
     0
 40
1.0
176
     0
 90
        2
176
     1
  1
strokes_ogs.tif
176
     1
290
     0
176
     1
 40
1.0
176
     1
 40
1.0
176
     1
  0
DICTIONARYVAR
  5
D04A
102
{ACAD_REACTORS
330
3E
102
}
330
3E
100
DictionaryVariables
280
     0
  1
1:1
  0
DICTIONARYVAR
  5
D049
102
{ACAD_REACTORS
330
3E
102
}
330
3E
100
DictionaryVariables
280
     0
  1
STANDARD
  0
DICTIONARYVAR
  5
CEEC
102
{ACAD_REACTORS
330
3E
102
}
330
3E
100
DictionaryVariables
280
     0
  1
STANDARD
  0
DICTIONARYVAR
  5
D7B5
102
{ACAD_REACTORS
330
3E
102
}
330
3E
100
DictionaryVariables
280
     0
  1
Imperial24
  0
DICTIONARYVAR
  5
D7B6
102
{ACAD_REACTORS
330
3E
102
}
330
3E
100
DictionaryVariables
280
     0
  1
Imperial24
  0
DICTIONARYVAR
  5
3F
102
{ACAD_REACTORS
330
3E
102
}
330
3E
100
DictionaryVariables
280
     0
  1
0
  0
DICTIONARYVAR
  5
CFCD
102
{ACAD_REACTORS
330
3E
102
}
330
3E
100
DictionaryVariables
280
     0
  1
1
  0
DICTIONARYVAR
  5
D04C
102
{ACAD_REACTORS
330
3E
102
}
330
3E
100
DictionaryVariables
280
     0
  1
0
  0
DICTIONARYVAR
  5
D58C
102
{ACAD_REACTORS
330
3E
102
}
330
3E
100
DictionaryVariables
280
     0
  1
1
  0
DICTIONARYVAR
  5
D58D
102
{ACAD_REACTORS
330
3E
102
}
330
3E
100
DictionaryVariables
280
     0
  1
15
  0
DICTIONARYVAR
  5
D58B
102
{ACAD_REACTORS
330
3E
102
}
330
3E
100
DictionaryVariables
280
     0
  1
0
  0
DICTIONARYVAR
  5
D58A
102
{ACAD_REACTORS
330
3E
102
}
330
3E
100
DictionaryVariables
280
     0
  1
0
  0
DICTIONARYVAR
  5
CFCE
102
{ACAD_REACTORS
330
3E
102
}
330
3E
100
DictionaryVariables
280
     0
  1

  0
DICTIONARYVAR
  5
D04B
102
{ACAD_REACTORS
330
3E
102
}
330
3E
100
DictionaryVariables
280
     0
  1
127
  0
DICTIONARY
  5
D865
330
D758
100
AcDbDictionary
280
     1
281
     1
  3
ACAD_XREC_ROUNDTRIP
360
D866
  0
DICTIONARY
  5
D77B
330
ACBA
100
AcDbDictionary
280
     1
281
     1
  0
DICTIONARY
  5
CFD9
330
CFD8
100
AcDbDictionary
280
     1
281
     1
  3
BUMPTILE
360
CFDB
  3
DIFFUSETILE
360
CFDA
  3
OPACITYTILE
360
CFDE
  3
REFLECTIONTILE
360
CFDD
  3
REFRACTIONTILE
360
CFDF
  3
SPECULARTILE
360
CFDC
  0
DICTIONARY
  5
CFD1
330
CFD0
100
AcDbDictionary
280
     1
281
     1
  3
BUMPTILE
360
CFD3
  3
DIFFUSETILE
360
CFD2
  3
OPACITYTILE
360
CFD6
  3
REFLECTIONTILE
360
CFD5
  3
REFRACTIONTILE
360
CFD7
  3
SPECULARTILE
360
CFD4
  0
DICTIONARY
  5
CFE1
330
CFE0
100
AcDbDictionary
280
     1
281
     1
  3
BUMPTILE
360
CFE3
  3
DIFFUSETILE
360
CFE2
  3
OPACITYTILE
360
CFE6
  3
REFLECTIONTILE
360
CFE5
  3
REFRACTIONTILE
360
CFE7
  3
SPECULARTILE
360
CFE4
  0
DICTIONARY
  5
D863
330
D756
100
AcDbDictionary
280
     1
281
     1
  3
ACAD_XREC_ROUNDTRIP
360
D864
  0
DICTIONARY
  5
D032
330
CEC0
100
AcDbDictionary
280
     1
281
     1
  3
ACAD_ROUNDTRIP_2008_TABLESTYLE_CELLSTYLEMAP
360
D861
  0
XRECORD
  5
D866
102
{ACAD_REACTORS
330
D865
102
}
330
D865
100
AcDbXrecord
280
     1
102
DISPLAYNAME
  1
Imperial24
102
FLAGS
 90
        0
  0
XRECORD
  5
CFDB
102
{ACAD_REACTORS
330
CFD9
102
}
330
CFD9
100
AcDbXrecord
280
     1
270
     1
271
     1
  0
XRECORD
  5
CFDA
102
{ACAD_REACTORS
330
CFD9
102
}
330
CFD9
100
AcDbXrecord
280
     1
270
     1
271
     1
  0
XRECORD
  5
CFDE
102
{ACAD_REACTORS
330
CFD9
102
}
330
CFD9
100
AcDbXrecord
280
     1
270
     1
271
     1
  0
XRECORD
  5
CFDD
102
{ACAD_REACTORS
330
CFD9
102
}
330
CFD9
100
AcDbXrecord
280
     1
270
     1
271
     1
  0
XRECORD
  5
CFDF
102
{ACAD_REACTORS
330
CFD9
102
}
330
CFD9
100
AcDbXrecord
280
     1
270
     1
271
     1
  0
XRECORD
  5
CFDC
102
{ACAD_REACTORS
330
CFD9
102
}
330
CFD9
100
AcDbXrecord
280
     1
270
     1
271
     1
  0
XRECORD
  5
CFD3
102
{ACAD_REACTORS
330
CFD1
102
}
330
CFD1
100
AcDbXrecord
280
     1
270
     1
271
     1
  0
XRECORD
  5
CFD2
102
{ACAD_REACTORS
330
CFD1
102
}
330
CFD1
100
AcDbXrecord
280
     1
270
     1
271
     1
  0
XRECORD
  5
CFD6
102
{ACAD_REACTORS
330
CFD1
102
}
330
CFD1
100
AcDbXrecord
280
     1
270
     1
271
     1
  0
XRECORD
  5
CFD5
102
{ACAD_REACTORS
330
CFD1
102
}
330
CFD1
100
AcDbXrecord
280
     1
270
     1
271
     1
  0
XRECORD
  5
CFD7
102
{ACAD_REACTORS
330
CFD1
102
}
330
CFD1
100
AcDbXrecord
280
     1
270
     1
271
     1
  0
XRECORD
  5
CFD4
102
{ACAD_REACTORS
330
CFD1
102
}
330
CFD1
100
AcDbXrecord
280
     1
270
     1
271
     1
  0
XRECORD
  5
CFE3
102
{ACAD_REACTORS
330
CFE1
102
}
330
CFE1
100
AcDbXrecord
280
     1
270
     1
271
     1
  0
XRECORD
  5
CFE2
102
{ACAD_REACTORS
330
CFE1
102
}
330
CFE1
100
AcDbXrecord
280
     1
270
     1
271
     1
  0
XRECORD
  5
CFE6
102
{ACAD_REACTORS
330
CFE1
102
}
330
CFE1
100
AcDbXrecord
280
     1
270
     1
271
     1
  0
XRECORD
  5
CFE5
102
{ACAD_REACTORS
330
CFE1
102
}
330
CFE1
100
AcDbXrecord
280
     1
270
     1
271
     1
  0
XRECORD
  5
CFE7
102
{ACAD_REACTORS
330
CFE1
102
}
330
CFE1
100
AcDbXrecord
280
     1
270
     1
271
     1
  0
XRECORD
  5
CFE4
102
{ACAD_REACTORS
330
CFE1
102
}
330
CFE1
100
AcDbXrecord
280
     1
270
     1
271
     1
  0
XRECORD
  5
D864
102
{ACAD_REACTORS
330
D863
102
}
330
D863
100
AcDbXrecord
280
     1
102
DISPLAYNAME
  1
Imperial24
102
FLAGS
 90
        0
  0
CELLSTYLEMAP
  5
D861
102
{ACAD_REACTORS
330
D032
102
}
330
D032
100
AcDbCellStyleMap
 90
        3
300
CELLSTYLE
  1
TABLEFORMAT_BEGIN
 90
        5
170
     1
 91
        0
 92
    32768
 62
   257
 93
        1
300
CONTENTFORMAT
  1
CONTENTFORMAT_BEGIN
 90
        0
 91
        0
 92
        4
 93
        0
300

 40
0.0
140
1.0
 94
        5
 62
     0
340
F
144
0.25
309
CONTENTFORMAT_END
171
     0
 94
        6
 95
        1
302
GRIDFORMAT
  1
GRIDFORMAT_BEGIN
 90
        0
 91
        1
 62
     0
 92
       -2
340
0
 93
        0
 40
0.045
309
GRIDFORMAT_END
 95
        2
302
GRIDFORMAT
  1
GRIDFORMAT_BEGIN
 90
        0
 91
        1
 62
     0
 92
       -2
340
0
 93
        0
 40
0.045
309
GRIDFORMAT_END
 95
        4
302
GRIDFORMAT
  1
GRIDFORMAT_BEGIN
 90
        0
 91
        1
 62
     0
 92
       -2
340
0
 93
        0
 40
0.045
309
GRIDFORMAT_END
 95
        8
302
GRIDFORMAT
  1
GRIDFORMAT_BEGIN
 90
        0
 91
        1
 62
     0
 92
       -2
340
0
 93
        0
 40
0.045
309
GRIDFORMAT_END
 95
       16
302
GRIDFORMAT
  1
GRIDFORMAT_BEGIN
 90
        0
 91
        1
 62
     0
 92
       -2
340
0
 93
        0
 40
0.045
309
GRIDFORMAT_END
 95
       32
302
GRIDFORMAT
  1
GRIDFORMAT_BEGIN
 90
        0
 91
        1
 62
     0
 92
       -2
340
0
 93
        0
 40
0.045
309
GRIDFORMAT_END
309
TABLEFORMAT_END
  1
CELLSTYLE_BEGIN
 90
        1
 91
        1
300
_TITLE
309
CELLSTYLE_END
300
CELLSTYLE
  1
TABLEFORMAT_BEGIN
 90
        5
170
     1
 91
        0
 92
        0
 62
   257
 93
        1
300
CONTENTFORMAT
  1
CONTENTFORMAT_BEGIN
 90
        0
 91
        0
 92
        4
 93
        0
300

 40
0.0
140
1.0
 94
        5
 62
     0
340
F
144
0.18
309
CONTENTFORMAT_END
171
     0
 94
        6
 95
        1
302
GRIDFORMAT
  1
GRIDFORMAT_BEGIN
 90
        0
 91
        1
 62
     0
 92
       -2
340
0
 93
        0
 40
0.045
309
GRIDFORMAT_END
 95
        2
302
GRIDFORMAT
  1
GRIDFORMAT_BEGIN
 90
        0
 91
        1
 62
     0
 92
       -2
340
0
 93
        0
 40
0.045
309
GRIDFORMAT_END
 95
        4
302
GRIDFORMAT
  1
GRIDFORMAT_BEGIN
 90
        0
 91
        1
 62
     0
 92
       -2
340
0
 93
        0
 40
0.045
309
GRIDFORMAT_END
 95
        8
302
GRIDFORMAT
  1
GRIDFORMAT_BEGIN
 90
        0
 91
        1
 62
     0
 92
       -2
340
0
 93
        0
 40
0.045
309
GRIDFORMAT_END
 95
       16
302
GRIDFORMAT
  1
GRIDFORMAT_BEGIN
 90
        0
 91
        1
 62
     0
 92
       -2
340
0
 93
        0
 40
0.045
309
GRIDFORMAT_END
 95
       32
302
GRIDFORMAT
  1
GRIDFORMAT_BEGIN
 90
        0
 91
        1
 62
     0
 92
       -2
340
0
 93
        0
 40
0.045
309
GRIDFORMAT_END
309
TABLEFORMAT_END
  1
CELLSTYLE_BEGIN
 90
        2
 91
        1
300
_HEADER
309
CELLSTYLE_END
300
CELLSTYLE
  1
TABLEFORMAT_BEGIN
 90
        5
170
     1
 91
        0
 92
        0
 62
   257
 93
        1
300
CONTENTFORMAT
  1
CONTENTFORMAT_BEGIN
 90
        0
 91
        0
 92
        4
 93
        0
300

 40
0.0
140
1.0
 94
        2
 62
     0
340
F
144
0.18
309
CONTENTFORMAT_END
171
     0
 94
        6
 95
        1
302
GRIDFORMAT
  1
GRIDFORMAT_BEGIN
 90
        0
 91
        1
 62
     0
 92
       -2
340
0
 93
        0
 40
0.045
309
GRIDFORMAT_END
 95
        2
302
GRIDFORMAT
  1
GRIDFORMAT_BEGIN
 90
        0
 91
        1
 62
     0
 92
       -2
340
0
 93
        0
 40
0.045
309
GRIDFORMAT_END
 95
        4
302
GRIDFORMAT
  1
GRIDFORMAT_BEGIN
 90
        0
 91
        1
 62
     0
 92
       -2
340
0
 93
        0
 40
0.045
309
GRIDFORMAT_END
 95
        8
302
GRIDFORMAT
  1
GRIDFORMAT_BEGIN
 90
        0
 91
        1
 62
     0
 92
       -2
340
0
 93
        0
 40
0.045
309
GRIDFORMAT_END
 95
       16
302
GRIDFORMAT
  1
GRIDFORMAT_BEGIN
 90
        0
 91
        1
 62
     0
 92
       -2
340
0
 93
        0
 40
0.045
309
GRIDFORMAT_END
 95
       32
302
GRIDFORMAT
  1
GRIDFORMAT_BEGIN
 90
        0
 91
        1
 62
     0
 92
       -2
340
0
 93
        0
 40
0.045
309
GRIDFORMAT_END
309
TABLEFORMAT_END
  1
CELLSTYLE_BEGIN
 90
        3
 91
        2
300
_DATA
309
CELLSTYLE_END
  0
ENDSEC
  0
SECTION
  2
ACDSDATA
 70
     2
 71
     8
  0
ACDSSCHEMA
 90
        0
  1
AcDb_Thumbnail_Schema
  2
AcDbDs::ID
280
    10
 91
        8
  2
Thumbnail_Data
280
    15
 91
        0
101
ACDSRECORD
 95
        0
 90
        1
  2
AcDbDs::TreatedAsObjectData
280
     1
291
     1
101
ACDSRECORD
 95
        0
 90
        2
  2
AcDbDs::Legacy
280
     1
291
     1
101
ACDSRECORD
  1
AcDbDs::ID
 90
        3
  2
AcDs:Indexable
280
     1
291
     1
101
ACDSRECORD
  1
AcDbDs::ID
 90
        4
  2
AcDbDs::HandleAttribute
280
     7
282
     1
  0
ACDSSCHEMA
 90
        1
  1
AcDbDs::TreatedAsObjectDataSchema
  2
AcDbDs::TreatedAsObjectData
280
     1
 91
        0
  0
ACDSSCHEMA
 90
        2
  1
AcDbDs::LegacySchema
  2
AcDbDs::Legacy
280
     1
 91
        0
  0
ACDSSCHEMA
 90
        3
  1
AcDbDs::IndexedPropertySchema
  2
AcDs:Indexable
280
     1
 91
        0
  0
ACDSSCHEMA
 90
        4
  1
AcDbDs::HandleAttributeSchema
  2
AcDbDs::HandleAttribute
280
     7
 91
        1
284
     1
  0
ACDSRECORD
 90
        0
  2
AcDbDs::ID
280
    10
320
ACBA
  2
Thumbnail_Data
280
    15
 94
     1799
310
89504E470D0A1A0A0000000D49484452000001000000008E0803000000E961264800000300504C54451E2830000000C8C8C80000000000000000000000000000000000000000000000000000330000660000990000CC0000FF0033000033330033660033990033CC0033FF0066000066330066660066990066CC0066FF0099
310
000099330099660099990099CC0099FF00CC0000CC3300CC6600CC9900CCCC00CCFF00FF0000FF3300FF6600FF9900FFCC00FFFF3300003300333300663300993300CC3300FF3333003333333333663333993333CC3333FF3366003366333366663366993366CC3366FF3399003399333399663399993399CC3399FF33CC00
310
33CC3333CC6633CC9933CCCC33CCFF33FF0033FF3333FF6633FF9933FFCC33FFFF6600006600336600666600996600CC6600FF6633006633336633666633996633CC6633FF6666006666336666666666996666CC6666FF6699006699336699666699996699CC6699FF66CC0066CC3366CC6666CC9966CCCC66CCFF66FF0066
310
FF3366FF6666FF9966FFCC66FFFF9900009900339900669900999900CC9900FF9933009933339933669933999933CC9933FF9966009966339966669966999966CC9966FF9999009999339999669999999999CC9999FF99CC0099CC3399CC6699CC9999CCCC99CCFF99FF0099FF3399FF6699FF9999FFCC99FFFFCC0000CC00
310
33CC0066CC0099CC00CCCC00FFCC3300CC3333CC3366CC3399CC33CCCC33FFCC6600CC6633CC6666CC6699CC66CCCC66FFCC9900CC9933CC9966CC9999CC99CCCC99FFCCCC00CCCC33CCCC66CCCC99CCCCCCCCCCFFCCFF00CCFF33CCFF66CCFF99CCFFCCCCFFFFFF0000FF0033FF0066FF0099FF00CCFF00FFFF3300FF3333
310
FF3366FF3399FF33CCFF33FFFF6600FF6633FF6666FF6699FF66CCFF66FFFF9900FF9933FF9966FF9999FF99CCFF99FFFFCC00FFCC33FFCC66FFCC99FFCCCCFFCCFFFFFF00FFFF33FFFF66FFFF99FFFFCCFFFFFF0000000D0D0D1A1A1A2828283535354343435050505D5D5D6B6B6B787878868686939393A1A1A1AEAEAEBB
310
BBBBC9C9C9D6D6D6E4E4E4F1F1F1FFFFFF0000000000000000000000000000000000000000000000000000000000000F42FBE2000003C24944415478DAEDDB4B62E3200C06606EE06B68C3FD77DAF41ABD46F6C53C6CE1A431602CE2F8D74CA793CCC4893E0B044E63CC361EE6E60100000000000000000000000000000000
310
00000000000000000000000000C027C68F8CBB036008DC7E08FCDC1EA09B410300C51803B0B9979500682FCE07E08A7BBB03EC26A820C05C7AE7291570F0DF3B34347E71B6596D086CCE3389BF69CDE7FC5CEF6CD401BA8CFE66804DBA6CD401462E6A39FD91D8596F12A413018A1142AA1C4B8E88B5BA002D89B38B69E26D
310
74EAE8856D905FDF3C17408403C89F978D5270D6F858138072009B0537A752B99E590058F63F1D80141C9297F5BF02948FEAF5B1BC1C6BBFA3AC15C0A2FF6901884960264837650594CF68E121A984D6BB4A0164FF3B1F409E1A3705BA574CD6F418022C0578BFCB8C9A037CFA09201BFDE12CB60C817430D304C0DA93A0A8
310
8025F7F8BA8F02B823C8764EEF270E390966B7F400FC04D06F08D400880A90CB0FA536B800F01680B52A60D306C700CCCB40FBDF42B07C69DB02400317426BCC4D607A062085212001ECFCB02100DE60DA2C84D2AEB87C6BF30F00BD01A01520368F2143C08F82B40C0A61977357BCC14B8D2C03E0F700B202B2B9476933F4
310
16806A37CA0D15306F7F392DC749AC2087000801BB02946FF00540D54228AE80B2878DA900BBE66FC34AB1AD026A97C2BC01E04143C08A02B061F0D601C4F9D38ABDE56E17209EDC5718022BC0347A0EA0268074A0F055DA06DDFFE458017EE8CDF94F1A9BA15D80DA49708A61FDEF103B47F16DD00B44007F5920905C1740
310
4601404898C3E4C9E9E608801797C41AE600CABE9554007BBAF8BC5E8D952A8068734D30AD0B5D4BE6FAF747B26CA9EC8A905F07300501570129FF1100F244D99653F0AA024A14430DB82DA9992FCF7739FFF5432074FDE5C552FB6BC82AA0B474DCB34DFEAA60AFFC1BE6806CC5AA0B1005C2A4D927FF2600330C6011E896
310
7F0B40FEDEB02E40EA05DDF21F520187DE64E7E59712C0D352985F5EAAD30BF61714BA3DEDF500BA9EFF4B02747833E0E2005D9FB311808702984100BD7E42E46200A717E125010C000070287E659CFE3054C05180DF3771F0EC971EA8E70B0000864031C0A33CD00500000000000000000000000000000000000000000000
310
00000000000000000000000000000000000000000000000000000000000000000000701780DFB200C0D70F810F4D1C001F3709528FF84080E2C13F14E0F1180B403DA31AE0033EF0311EC08CFD10CC770394B58021D9A73920659CA5DF4DE01A00EB1D97FF1C183643B500E7F457007C11C0ED87002641007C33C057C753BA
310
7F81803A89E7BE80DB0000000049454E44AE426082
  0
ENDSEC
  0
EOF
