  0
SECTION
  2
HEADER
  9
$ACADVER
  1
AC1015
  9
$ACADMAINTVER
 70
    20
  9
$DWGCODEPAGE
  3
ANSI_1252
  9
$INSBASE
 10
0.0
 20
0.0
 30
0.0
  9
$EXTMIN
 10
0.0
 20
0.0
 30
0.0
  9
$EXTMAX
 10
76.07433584118723
 20
48.97780244374283
 30
0.0
  9
$LIMMIN
 10
0.0
 20
0.0
  9
$LIMMAX
 10
12.0
 20
9.0
  9
$ORTHOMODE
 70
     1
  9
$REGENMODE
 70
     1
  9
$FILLMODE
 70
     1
  9
$QTEXTMODE
 70
     0
  9
$MIRRTEXT
 70
     1
  9
$LTSCALE
 40
0.5
  9
$ATTMODE
 70
     1
  9
$TEXTSIZE
 40
0.25
  9
$TRACEWID
 40
0.05
  9
$TEXTSTYLE
  7
STANDARD
  9
$CLAYER
  8
0
  9
$CELTYPE
  6
BYLAYER
  9
$CECOLOR
 62
   256
  9
$CELTSCALE
 40
1.0
  9
$DISPSILH
 70
     0
  9
$DIMSCALE
 40
1.0
  9
$DIMASZ
 40
0.2
  9
$DIMEXO
 40
0.125
  9
$DIMDLI
 40
0.375
  9
$DIMRND
 40
0.0
  9
$DIMDLE
 40
0.0
  9
$DIMEXE
 40
0.125
  9
$DIMTP
 40
0.0
  9
$DIMTM
 40
0.0
  9
$DIMTXT
 40
0.25
  9
$DIMCEN
 40
0.0
  9
$DIMTSZ
 40
0.0
  9
$DIMTOL
 70
     0
  9
$DIMLIM
 70
     0
  9
$DIMTIH
 70
     0
  9
$DIMTOH
 70
     0
  9
$DIMSE1
 70
     0
  9
$DIMSE2
 70
     0
  9
$DIMTAD
 70
     1
  9
$DIMZIN
 70
     3
  9
$DIMBLK
  1

  9
$DIMASO
 70
     1
  9
$DIMSHO
 70
     1
  9
$DIMPOST
  1

  9
$DIMAPOST
  1

  9
$DIMALT
 70
     0
  9
$DIMALTD
 70
     2
  9
$DIMALTF
 40
25.4
  9
$DIMLFAC
 40
1.0
  9
$DIMTOFL
 70
     0
  9
$DIMTVP
 40
0.0
  9
$DIMTIX
 70
     0
  9
$DIMSOXD
 70
     0
  9
$DIMSAH
 70
     0
  9
$DIMBLK1
  1

  9
$DIMBLK2
  1

  9
$DIMSTYLE
  2
STANDARD
  9
$DIMCLRD
 70
     0
  9
$DIMCLRE
 70
     0
  9
$DIMCLRT
 70
     0
  9
$DIMTFAC
 40
1.0
  9
$DIMGAP
 40
0.125
  9
$DIMJUST
 70
     0
  9
$DIMSD1
 70
     0
  9
$DIMSD2
 70
     0
  9
$DIMTOLJ
 70
     1
  9
$DIMTZIN
 70
     3
  9
$DIMALTZ
 70
     3
  9
$DIMALTTZ
 70
     3
  9
$DIMUPT
 70
     0
  9
$DIMDEC
 70
     5
  9
$DIMTDEC
 70
     5
  9
$DIMALTU
 70
     4
  9
$DIMALTTD
 70
     2
  9
$DIMTXSTY
  7
STANDARD
  9
$DIMAUNIT
 70
     0
  9
$DIMADEC
 70
     0
  9
$DIMALTRND
 40
0.0
  9
$DIMAZIN
 70
     0
  9
$DIMDSEP
 70
    46
  9
$DIMATFIT
 70
     0
  9
$DIMFRAC
 70
     2
  9
$DIMLDRBLK
  1

  9
$DIMLUNIT
 70
     4
  9
$DIMLWD
 70
    -2
  9
$DIMLWE
 70
    -2
  9
$DIMTMOVE
 70
     0
  9
$LUNITS
 70
     2
  9
$LUPREC
 70
     5
  9
$SKETCHINC
 40
0.1
  9
$FILLETRAD
 40
0.0
  9
$AUNITS
 70
     0
  9
$AUPREC
 70
     0
  9
$MENU
  1
ACAD
  9
$ELEVATION
 40
0.0
  9
$PELEVATION
 40
0.0
  9
$THICKNESS
 40
0.0
  9
$LIMCHECK
 70
     0
  9
$CHAMFERA
 40
0.0
  9
$CHAMFERB
 40
0.0
  9
$CHAMFERC
 40
0.0
  9
$CHAMFERD
 40
0.0
  9
$SKPOLY
 70
     0
  9
$TDCREATE
 40
2450777.537570949
  9
$TDUCREATE
 40
2450777.745904282
  9
$TDUPDATE
 40
2457801.555619572
  9
$TDUUPDATE
 40
2457801.763952905
  9
$TDINDWG
 40
0.8165837384
  9
$TDUSRTIMER
 40
0.8165837384
  9
$USRTIMER
 70
     1
  9
$ANGBASE
 50
0.0
  9
$ANGDIR
 70
     0
  9
$PDMODE
 70
     0
  9
$PDSIZE
 40
0.0
  9
$PLINEWID
 40
0.0
  9
$SPLFRAME
 70
     0
  9
$SPLINETYPE
 70
     6
  9
$SPLINESEGS
 70
     8
  9
$HANDSEED
  5
FF96
  9
$SURFTAB1
 70
     6
  9
$SURFTAB2
 70
     6
  9
$SURFTYPE
 70
     6
  9
$SURFU
 70
     6
  9
$SURFV
 70
     6
  9
$UCSBASE
  2

  9
$UCSNAME
  2

  9
$UCSORG
 10
0.0
 20
0.0
 30
0.0
  9
$UCSXDIR
 10
1.0
 20
0.0
 30
0.0
  9
$UCSYDIR
 10
0.0
 20
1.0
 30
0.0
  9
$UCSORTHOREF
  2

  9
$UCSORTHOVIEW
 70
     0
  9
$UCSORGTOP
 10
0.0
 20
0.0
 30
0.0
  9
$UCSORGBOTTOM
 10
0.0
 20
0.0
 30
0.0
  9
$UCSORGLEFT
 10
0.0
 20
0.0
 30
0.0
  9
$UCSORGRIGHT
 10
0.0
 20
0.0
 30
0.0
  9
$UCSORGFRONT
 10
0.0
 20
0.0
 30
0.0
  9
$UCSORGBACK
 10
0.0
 20
0.0
 30
0.0
  9
$PUCSBASE
  2

  9
$PUCSNAME
  2

  9
$PUCSORG
 10
0.0
 20
0.0
 30
0.0
  9
$PUCSXDIR
 10
1.0
 20
0.0
 30
0.0
  9
$PUCSYDIR
 10
0.0
 20
1.0
 30
0.0
  9
$PUCSORTHOREF
  2

  9
$PUCSORTHOVIEW
 70
     0
  9
$PUCSORGTOP
 10
0.0
 20
0.0
 30
0.0
  9
$PUCSORGBOTTOM
 10
0.0
 20
0.0
 30
0.0
  9
$PUCSORGLEFT
 10
0.0
 20
0.0
 30
0.0
  9
$PUCSORGRIGHT
 10
0.0
 20
0.0
 30
0.0
  9
$PUCSORGFRONT
 10
0.0
 20
0.0
 30
0.0
  9
$PUCSORGBACK
 10
0.0
 20
0.0
 30
0.0
  9
$USERI1
 70
     0
  9
$USERI2
 70
     0
  9
$USERI3
 70
     0
  9
$USERI4
 70
     0
  9
$USERI5
 70
     0
  9
$USERR1
 40
0.0
  9
$USERR2
 40
0.0
  9
$USERR3
 40
0.0
  9
$USERR4
 40
0.0
  9
$USERR5
 40
0.0
  9
$WORLDVIEW
 70
     1
  9
$SHADEDGE
 70
     3
  9
$SHADEDIF
 70
    70
  9
$TILEMODE
 70
     1
  9
$MAXACTVP
 70
    16
  9
$PINSBASE
 10
0.0
 20
0.0
 30
0.0
  9
$PLIMCHECK
 70
     0
  9
$PEXTMIN
 10
1.000000000000000E+20
 20
1.000000000000000E+20
 30
1.000000000000000E+20
  9
$PEXTMAX
 10
-1.000000000000000E+20
 20
-1.000000000000000E+20
 30
-1.000000000000000E+20
  9
$PLIMMIN
 10
0.0
 20
0.0
  9
$PLIMMAX
 10
12.0
 20
9.0
  9
$UNITMODE
 70
     0
  9
$VISRETAIN
 70
     0
  9
$PLINEGEN
 70
     0
  9
$PSLTSCALE
 70
     1
  9
$TREEDEPTH
 70
  3020
  9
$CMLSTYLE
  2
STANDARD
  9
$CMLJUST
 70
     0
  9
$CMLSCALE
 40
1.0
  9
$PROXYGRAPHICS
 70
     1
  9
$MEASUREMENT
 70
     0
  9
$CELWEIGHT
370
    -1
  9
$ENDCAPS
280
     0
  9
$JOINSTYLE
280
     0
  9
$LWDISPLAY
290
     0
  9
$INSUNITS
 70
     0
  9
$HYPERLINKBASE
  1

  9
$STYLESHEET
  1
monochrome2.ctb
  9
$XEDIT
290
     1
  9
$CEPSNTYPE
380
     0
  9
$PSTYLEMODE
290
     1
  9
$FINGERPRINTGUID
  2
{C96DCFB1-D063-4DA6-8539-C52BD9DCE695}
  9
$VERSIONGUID
  2
{B73039BA-EA94-417E-A08C-559AE44F4CB6}
  9
$EXTNAMES
290
     1
  9
$PSVPSCALE
 40
0.0
  9
$OLESTARTUP
290
     0
  0
ENDSEC
  0
SECTION
  2
CLASSES
  0
CLASS
  1
DICTIONARYVAR
  2
AcDbDictionaryVar
  3
ObjectDBX Classes
 90
        0
280
     0
281
     0
  0
CLASS
  1
ACDBDICTIONARYWDFLT
  2
AcDbDictionaryWithDefault
  3
ObjectDBX Classes
 90
        0
280
     0
281
     0
  0
CLASS
  1
ACDBPLACEHOLDER
  2
AcDbPlaceHolder
  3
ObjectDBX Classes
 90
        0
280
     0
281
     0
  0
CLASS
  1
LAYOUT
  2
AcDbLayout
  3
ObjectDBX Classes
 90
        0
280
     0
281
     0
  0
CLASS
  1
MATERIAL
  2
AcDbMaterial
  3
ObjectDBX Classes
 90
     1153
280
     0
281
     0
  0
CLASS
  1
VISUALSTYLE
  2
AcDbVisualStyle
  3
ObjectDBX Classes
 90
     4095
280
     0
281
     0
  0
CLASS
  1
TABLESTYLE
  2
AcDbTableStyle
  3
ObjectDBX Classes
 90
     4095
280
     0
281
     0
  0
CLASS
  1
SCALE
  2
AcDbScale
  3
ObjectDBX Classes
 90
     1153
280
     0
281
     0
  0
CLASS
  1
MLEADERSTYLE
  2
AcDbMLeaderStyle
  3
ACDB_MLEADERSTYLE_CLASS
 90
     4095
280
     0
281
     0
  0
CLASS
  1
CELLSTYLEMAP
  2
AcDbCellStyleMap
  3
ObjectDBX Classes
 90
     1152
280
     0
281
     0
  0
CLASS
  1
EXACXREFPANELOBJECT
  2
ExAcXREFPanelObject
  3
EXAC_ESW
 90
     1025
280
     0
281
     0
  0
CLASS
  1
NPOCOLLECTION
  2
AcDbImpNonPersistentObjectsCollection
  3
ObjectDBX Classes
 90
     1153
280
     0
281
     0
  0
CLASS
  1
SORTENTSTABLE
  2
AcDbSortentsTable
  3
ObjectDBX Classes
 90
        0
280
     0
281
     0
  0
ENDSEC
  0
SECTION
  2
TABLES
  0
TABLE
  2
VPORT
  5
8
102
{ACAD_XDICTIONARY
360
F95D
102
}
330
0
100
AcDbSymbolTable
 70
     1
  0
VPORT
  5
F8A6
330
8
100
AcDbSymbolTableRecord
100
AcDbViewportTableRecord
  2
*Active
 70
     0
 10
0.0
 20
0.0
 11
1.0
 21
1.0
 12
53.11209413106387
 22
35.17324000964969
 13
0.0
 23
0.0
 14
1.0
 24
1.0
 15
0.0
 25
0.0
 16
0.0
 26
0.0
 36
1.0
 17
0.0
 27
0.0
 37
0.0
 40
70.71857986665495
 41
1.907862407862408
 42
50.0
 43
0.0
 44
0.0
 50
0.0
 51
0.0
 71
     0
 72
  2000
 73
     1
 74
     0
 75
     0
 76
     0
 77
     0
 78
     1
281
     0
 65
     1
110
0.0
120
0.0
130
0.0
111
1.0
121
0.0
131
0.0
112
0.0
122
1.0
132
0.0
 79
     0
146
0.0
1001
ACAD_NAV_VCDISPLAY
1070
     3
  0
ENDTAB
  0
TABLE
  2
LTYPE
  5
5
330
0
100
AcDbSymbolTable
 70
     6
  0
LTYPE
  5
11
330
5
100
AcDbSymbolTableRecord
100
AcDbLinetypeTableRecord
  2
BYBLOCK
 70
     0
  3

 72
    65
 73
     0
 40
0.0
  0
LTYPE
  5
12
330
5
100
AcDbSymbolTableRecord
100
AcDbLinetypeTableRecord
  2
BYLAYER
 70
     0
  3

 72
    65
 73
     0
 40
0.0
  0
LTYPE
  5
13
330
5
100
AcDbSymbolTableRecord
100
AcDbLinetypeTableRecord
  2
CONTINUOUS
 70
     0
  3
Solid line
 72
    65
 73
     0
 40
0.0
  0
LTYPE
  5
985C
330
5
100
AcDbSymbolTableRecord
100
AcDbLinetypeTableRecord
  2
HIDDEN
 70
     0
  3
Hidden __ __ __ __ __ __ __ __ __ __ __ __ __ _
 72
    65
 73
     2
 40
0.375
 49
0.25
 74
     0
 49
-0.125
 74
     0
  0
LTYPE
  5
98AB
330
5
100
AcDbSymbolTableRecord
100
AcDbLinetypeTableRecord
  2
CENTER
 70
     0
  3
CENTER LINE
 72
    65
 73
     4
 40
2.0
 49
1.25
 74
     0
 49
-0.25
 74
     0
 49
0.25
 74
     0
 49
-0.25
 74
     0
  0
LTYPE
  5
E5F4
330
5
100
AcDbSymbolTableRecord
100
AcDbLinetypeTableRecord
  2
HIDDEN2
 70
     0
  3
_ _ _ _ _ _ _ _ _ _ _ _ _ _ _ _ _ _ _ _ _ _ _ _
 72
    65
 73
     2
 40
0.1875
 49
0.125
 74
     0
 49
-0.0625
 74
     0
  0
LTYPE
  5
FE06
330
5
100
AcDbSymbolTableRecord
100
AcDbLinetypeTableRecord
  2
DASHED
 70
     0
  3
Dashed __ __ __ __ __ __ __ __ __ __ __ __ __ _
 72
    65
 73
     2
 40
0.75
 49
0.5
 74
     0
 49
-0.25
 74
     0
  0
LTYPE
  5
FE07
330
5
100
AcDbSymbolTableRecord
100
AcDbLinetypeTableRecord
  2
DOT
 70
     0
  3
Dot . . . . . . . . . . . . . . . . . . . . . .
 72
    65
 73
     2
 40
0.25
 49
0.0
 74
     0
 49
-0.25
 74
     0
  0
ENDTAB
  0
TABLE
  2
LAYER
  5
2
102
{ACAD_XDICTIONARY
360
D51D
102
}
330
0
100
AcDbSymbolTable
 70
     8
  0
LAYER
  5
E
102
{ACAD_XDICTIONARY
360
F94C
102
}
330
2
100
AcDbSymbolTableRecord
100
AcDbLayerTableRecord
  2
0
 70
     0
 62
     7
  6
CONTINUOUS
370
    -3
390
ACBF
  0
LAYER
  5
A492
102
{ACAD_XDICTIONARY
360
F94E
102
}
330
2
100
AcDbSymbolTableRecord
100
AcDbLayerTableRecord
  2
R-SWTS-DET1
 70
     0
 62
     1
  6
CONTINUOUS
370
    -3
390
ACBF
  0
LAYER
  5
A637
102
{ACAD_XDICTIONARY
360
F950
102
}
330
2
100
AcDbSymbolTableRecord
100
AcDbLayerTableRecord
  2
R-ANNO-DIMS
 70
     0
 62
     3
  6
CONTINUOUS
370
    -3
390
ACBF
  0
LAYER
  5
A638
102
{ACAD_XDICTIONARY
360
F952
102
}
330
2
100
AcDbSymbolTableRecord
100
AcDbLayerTableRecord
  2
R-SWTS-DET2
 70
     0
 62
     4
  6
CONTINUOUS
370
    -3
390
ACBF
  0
LAYER
  5
A639
102
{ACAD_XDICTIONARY
360
F954
102
}
330
2
100
AcDbSymbolTableRecord
100
AcDbLayerTableRecord
  2
R-SWTS-DET3
 70
     0
 62
     5
  6
CONTINUOUS
370
    -3
390
ACBF
  0
LAYER
  5
ECAF
102
{ACAD_XDICTIONARY
360
F956
102
}
330
2
100
AcDbSymbolTableRecord
100
AcDbLayerTableRecord
  2
PART_NUMBERS
 70
     0
 62
     6
  6
CONTINUOUS
370
    -3
390
ACBF
  0
LAYER
  5
FD32
330
2
100
AcDbSymbolTableRecord
100
AcDbLayerTableRecord
  2
TEXT
 70
     0
 62
     3
  6
CONTINUOUS
370
    -3
390
ACBF
1001
AcAecLayerStandard
1000

1000

1001
AcCmTransparency
1071
        0
  0
LAYER
  5
FE08
330
2
100
AcDbSymbolTableRecord
100
AcDbLayerTableRecord
  2
Kawneer Logo-English
 70
     0
 62
     7
  6
CONTINUOUS
370
    -3
390
ACBF
1001
AcAecLayerStandard
1000

1000

1001
AcCmTransparency
1071
        0
  0
ENDTAB
  0
TABLE
  2
STYLE
  5
3
330
0
100
AcDbSymbolTable
 70
     1
  0
STYLE
  5
F
330
3
100
AcDbSymbolTableRecord
100
AcDbTextStyleTableRecord
  2
STANDARD
 70
     0
 40
0.0
 41
1.0
 50
0.0
 71
     0
 42
0.25
  3
arial.ttf
  4

1001
ACAD
1000
Arial
1071
       34
  0
ENDTAB
  0
TABLE
  2
VIEW
  5
6
330
0
100
AcDbSymbolTable
 70
     0
  0
ENDTAB
  0
TABLE
  2
UCS
  5
7
330
0
100
AcDbSymbolTable
 70
     0
  0
ENDTAB
  0
TABLE
  2
APPID
  5
9
330
0
100
AcDbSymbolTable
 70
    15
  0
APPID
  5
10
330
9
100
AcDbSymbolTableRecord
100
AcDbRegAppTableRecord
  2
ACAD
 70
     0
  0
APPID
  5
FA98
330
9
100
AcDbSymbolTableRecord
100
AcDbRegAppTableRecord
  2
ACAD_NAV_VCDISPLAY
 70
     0
  0
APPID
  5
FD33
330
9
100
AcDbSymbolTableRecord
100
AcDbRegAppTableRecord
  2
AcAecLayerStandard
 70
     0
  0
APPID
  5
FD34
330
9
100
AcDbSymbolTableRecord
100
AcDbRegAppTableRecord
  2
AcCmTransparency
 70
     0
  0
APPID
  5
FE09
330
9
100
AcDbSymbolTableRecord
100
AcDbRegAppTableRecord
  2
ACAD_EXEMPT_FROM_CAD_STANDARDS
 70
     0
  0
APPID
  5
FE0A
330
9
100
AcDbSymbolTableRecord
100
AcDbRegAppTableRecord
  2
GradientColor1ACI
 70
     0
  0
APPID
  5
FE0B
330
9
100
AcDbSymbolTableRecord
100
AcDbRegAppTableRecord
  2
GradientColor2ACI
 70
     0
  0
APPID
  5
FE0C
330
9
100
AcDbSymbolTableRecord
100
AcDbRegAppTableRecord
  2
ACAD_MLEADERVER
 70
     0
  0
APPID
  5
FE0D
330
9
100
AcDbSymbolTableRecord
100
AcDbRegAppTableRecord
  2
ACAD_PSEXT
 70
     0
  0
APPID
  5
FE0E
330
9
100
AcDbSymbolTableRecord
100
AcDbRegAppTableRecord
  2
ACAD_DSTYLE_DIMJAG
 70
     0
  0
APPID
  5
FE0F
330
9
100
AcDbSymbolTableRecord
100
AcDbRegAppTableRecord
  2
ACAD_DSTYLE_DIMTALN
 70
     0
  0
APPID
  5
FE10
330
9
100
AcDbSymbolTableRecord
100
AcDbRegAppTableRecord
  2
ACAD_DSTYLE_DIMBREAK
 70
     0
  0
APPID
  5
FE11
330
9
100
AcDbSymbolTableRecord
100
AcDbRegAppTableRecord
  2
AcDbDynamicBlockGUID
 70
     0
  0
APPID
  5
FE12
330
9
100
AcDbSymbolTableRecord
100
AcDbRegAppTableRecord
  2
ACAUTHENVIRON
 70
     0
  0
APPID
  5
FE13
330
9
100
AcDbSymbolTableRecord
100
AcDbRegAppTableRecord
  2
AcDbDynamicBlockTrueName
 70
     0
  0
ENDTAB
  0
TABLE
  2
DIMSTYLE
  5
A
330
0
100
AcDbSymbolTable
 70
     1
100
AcDbDimStyleTable
 71
     1
340
26C
  0
DIMSTYLE
105
26C
330
A
100
AcDbSymbolTableRecord
100
AcDbDimStyleTableRecord
  2
STANDARD
 70
     0
340
F
  0
ENDTAB
  0
TABLE
  2
BLOCK_RECORD
  5
1
330
0
100
AcDbSymbolTable
 70
     1
  0
BLOCK_RECORD
  5
17
102
{ACAD_XDICTIONARY
360
BB27
102
}
330
1
100
AcDbSymbolTableRecord
100
AcDbBlockTableRecord
  2
*MODEL_SPACE
340
ACC2
  0
BLOCK_RECORD
  5
14
102
{ACAD_XDICTIONARY
360
BB25
102
}
330
1
100
AcDbSymbolTableRecord
100
AcDbBlockTableRecord
  2
*PAPER_SPACE
340
ACC3
  0
BLOCK_RECORD
  5
FE14
102
{ACAD_XDICTIONARY
360
FE1E
102
}
330
1
100
AcDbSymbolTableRecord
100
AcDbBlockTableRecord
  2
Kawneer Logo English
340
0
102
{BLKREFS
331
FE22
102
}
1001
ACAD
1000
DesignCenter Data
1002
{
1070
     1
1070
     1
1002
}
  0
ENDTAB
  0
ENDSEC
  0
SECTION
  2
BLOCKS
  0
BLOCK
  5
3C
330
17
100
AcDbEntity
  8
0
100
AcDbBlockBegin
  2
*MODEL_SPACE
 70
     0
 10
0.0
 20
0.0
 30
0.0
  3
*MODEL_SPACE
  1

  0
ENDBLK
  5
3D
330
17
100
AcDbEntity
  8
0
100
AcDbBlockEnd
  0
BLOCK
  5
3A
330
14
100
AcDbEntity
 67
     1
  8
0
100
AcDbBlockBegin
  2
*PAPER_SPACE
 70
     0
 10
0.0
 20
0.0
 30
0.0
  3
*PAPER_SPACE
  1

  0
ENDBLK
  5
3B
330
14
100
AcDbEntity
 67
     1
  8
0
100
AcDbBlockEnd
  0
BLOCK
  5
FE20
330
FE14
100
AcDbEntity
  8
0
100
AcDbBlockBegin
  2
Kawneer Logo English
 70
     0
 10
0.0
 20
0.0
 30
0.0
  3
Kawneer Logo English
  1

  0
MTEXT
  5
FE15
102
{ACAD_XDICTIONARY
360
FF56
102
}
330
FE14
100
AcDbEntity
  8
Kawneer Logo-English
100
AcDbMText
 10
1.510096758583198
 20
0.0372523876656778
 30
0.0
 40
0.036
 41
0.6125900866323382
 71
     3
 72
     5
  1
{\fArial TUR|b0|i0|c0|p34;\T1.05;AN ARCONIC COMPANY}
 73
     1
 44
1.0
1001
ACAD
1000
ACAD_MTEXT_COLUMN_INFO_BEGIN
1070
    75
1070
     2
1070
    79
1070
     0
1070
    76
1070
     1
1070
    78
1070
     0
1070
    48
1040
0.6125900866323382
1070
    49
1040
1.0
1070
    50
1070
     1
1040
0.0
1000
ACAD_MTEXT_COLUMN_INFO_END
1000
MTEXTBEGIN
1070
    73
1070
     1
1070
    44
1040
1.0
1070
    74
1070
     0
1000
MTEXTEND
  0
HATCH
  5
FE16
330
FE14
100
AcDbEntity
  8
Kawneer Logo-English
100
AcDbHatch
 10
0.0
 20
0.0
 30
0.0
210
0.0
220
0.0
230
1.0
  2
SOLID
 70
     1
 71
     0
 91
        1
 92
        1
 93
       81
 72
     1
 10
0.2706169776412204
 20
0.0336337282279411
 11
0.2687512969786691
 21
0.0350329887248546
 72
     1
 10
0.2687512969786696
 20
0.0350329887248547
 11
0.2633408230572721
 21
0.039137486182467
 72
     1
 10
0.2633408230572729
 20
0.0391374861824669
 11
0.2550385441089194
 21
0.0453875164020133
 72
     1
 10
0.2550385441089191
 20
0.0453875164020132
 11
0.2442175962661241
 21
0.053596511317238
 72
     1
 10
0.2442175962661235
 20
0.0535965113172379
 11
0.2314376837276472
 21
0.0632980507625037
 72
     1
 10
0.2314376837276479
 20
0.0632980507625037
 11
0.2172585106922595
 21
0.0741189986052996
 72
     1
 10
0.2172585106922598
 20
0.0741189986052996
 11
0.2019599292593419
 21
0.0856862187131167
 72
     1
 10
0.201959929259341
 20
0.0856862187131167
 11
0.1862882116939105
 21
0.0976265749534437
 72
     1
 10
0.1862882116939102
 20
0.0976265749534437
 11
0.1706164941284813
 21
0.1095669311937706
 72
     1
 10
0.1706164941284811
 20
0.1095669311937709
 11
0.1553179126955632
 21
0.1211341513015875
 72
     1
 10
0.1553179126955642
 20
0.1211341513015876
 11
0.1411387396601757
 21
0.131955099144384
 72
     1
 10
0.1411387396601755
 20
0.1319550991443839
 11
0.1284521111548274
 21
0.141749922622777
 72
     1
 10
0.1284521111548278
 20
0.1417499226227768
 11
0.117631163312031
 21
0.1499589175380016
 72
     1
 10
0.1176311633120304
 20
0.1499589175380017
 11
0.1094221683968068
 21
0.1563022317906752
 72
     1
 10
0.1094221683968062
 20
0.1563022317906754
 11
0.1041049785085351
 21
0.1604067292482882
 72
     1
 10
0.1041049785085351
 20
0.1604067292482878
 11
0.1023325818791119
 21
0.1618992737783286
 72
     1
 10
0.1023325818791116
 20
0.1618992737783289
 11
0.1043848306079176
 21
0.1636716704077524
 72
     1
 10
0.1043848306079194
 20
0.1636716704077524
 11
0.1100751566286996
 21
0.1683358720641301
 72
     1
 10
0.1100751566286986
 20
0.1683358720641301
 11
0.1189371397758159
 21
0.1757053106812067
 72
     1
 10
0.1189371397758161
 20
0.1757053106812067
 11
0.1304110758505067
 21
0.1851269980270901
 72
     1
 10
0.1304110758505059
 20
0.1851269980270902
 11
0.1439372606540007
 21
0.1963210820023967
 72
     1
 10
0.1439372606540017
 20
0.1963210820023967
 11
0.1589559899875385
 21
0.2087278584083611
 72
     1
 10
0.1589559899875379
 20
0.2087278584083611
 11
0.1750941277186041
 21
0.2220674751456017
 72
     1
 10
0.1750941277186047
 20
0.2220674751456017
 11
0.19169868561531
 21
0.2358735120484796
 72
     1
 10
0.1916986856153105
 20
0.2358735120484796
 11
0.208303243512014
 21
0.2495862649182301
 72
     1
 10
0.2083032435120131
 20
0.2495862649182304
 11
0.2244413812430811
 21
0.2628325976223432
 72
     1
 10
0.2244413812430812
 20
0.2628325976223429
 11
0.239460110576618
 21
0.2753326580614352
 72
     1
 10
0.2394601105766174
 20
0.2753326580614351
 11
0.2529862953801122
 21
0.2864334580036143
 72
     1
 10
0.2529862953801132
 20
0.2864334580036143
 11
0.2643669474216756
 21
0.2958551453494973
 72
     1
 10
0.2643669474216757
 20
0.2958551453494973
 11
0.2731356465356649
 21
0.3031312999334466
 72
     1
 10
0.273135646535664
 20
0.3031312999334466
 11
0.2788259725564443
 21
0.3077955015898243
 72
     1
 10
0.278825972556445
 20
0.3077955015898246
 11
0.2807849372521245
 21
0.3094746141861208
 72
     1
 10
0.2807849372521249
 20
0.3094746141861205
 11
0.2798520969208501
 21
0.3094746141861205
 72
     1
 10
0.2798520969208496
 20
0.3094746141861205
 11
0.2769602918938953
 21
0.3095678982192478
 72
     1
 10
0.2769602918938943
 20
0.3095678982192481
 11
0.2724826583037715
 21
0.3095678982192481
 72
     1
 10
0.2724826583037729
 20
0.3095678982192481
 11
0.2666057642167363
 21
0.3095678982192481
 72
     1
 10
0.266605764216735
 20
0.3095678982192481
 11
0.2597027457652953
 21
0.3095678982192481
 72
     1
 10
0.2597027457652956
 20
0.3095678982192481
 11
0.2519601710157094
 21
0.3095678982192481
 72
     1
 10
0.2519601710157104
 20
0.3095678982192481
 11
0.2437511761004851
 21
0.3095678982192481
 72
     1
 10
0.243751176100484
 20
0.3095678982192481
 11
0.2351690450527495
 21
0.3095678982192481
 72
     1
 10
0.2351690450527495
 20
0.3095678982192481
 11
0.2266801980381413
 21
0.3095678982192481
 72
     1
 10
0.2266801980381423
 20
0.3095678982192481
 11
0.2183779190897905
 21
0.3094746141861208
 72
     1
 10
0.2183779190897899
 20
0.3094746141861205
 11
0.2106353443402037
 21
0.3094746141861205
 72
     1
 10
0.2106353443402029
 20
0.3094746141861205
 11
0.2037323258887632
 21
0.3094746141861205
 72
     1
 10
0.203732325888764
 20
0.3094746141861205
 11
0.1978554318017273
 21
0.3094746141861205
 72
     1
 10
0.1978554318017278
 20
0.3094746141861205
 11
0.1932845141784786
 21
0.3094746141861205
 72
     1
 10
0.1932845141784787
 20
0.3094746141861205
 11
0.1903927091515244
 21
0.3094746141861205
 72
     1
 10
0.1903927091515234
 20
0.3094746141861205
 11
0.1893665847871204
 21
0.3094746141861205
 72
     1
 10
0.1893665847871206
 20
0.3094746141861205
 11
0.1879673242902067
 21
0.3077955015898243
 72
     1
 10
0.1879673242902076
 20
0.3077955015898246
 11
0.1841426789319786
 21
0.3030380159003196
 72
     1
 10
0.1841426789319787
 20
0.3030380159003192
 11
0.1780792167786874
 21
0.29576186131637
 72
     1
 10
0.1780792167786873
 20
0.29576186131637
 11
0.170243357995973
 21
0.2862468899373593
 72
     1
 10
0.170243357995973
 20
0.2862468899373593
 11
0.1610082387163447
 21
0.2750528059620528
 72
     1
 10
0.1610082387163438
 20
0.2750528059620528
 11
0.1507469950723126
 21
0.2624594614898328
 72
     1
 10
0.1507469950723133
 20
0.2624594614898328
 11
0.1396461951301336
 21
0.2491198447525922
 72
     1
 10
0.1396461951301333
 20
0.2491198447525922
 11
0.1282655430885727
 21
0.2352205238165866
 72
     1
 10
0.1282655430885726
 20
0.2352205238165868
 11
0.1168848910470102
 21
0.2214144869137089
 72
     1
 10
0.1168848910470102
 20
0.2214144869137087
 11
0.1058773751379587
 21
0.2079815861433408
 72
     1
 10
0.105877375137958
 20
0.2079815861433408
 11
0.0955228474608004
 21
0.1954815257042486
 72
     1
 10
0.0955228474608019
 20
0.1954815257042488
 11
0.0862877281811736
 21
0.1842874417289424
 72
     1
 10
0.0862877281811727
 20
0.1842874417289424
 11
0.0784518693984583
 21
0.1747724703499316
 72
     1
 10
0.0784518693984584
 20
0.1747724703499314
 11
0.0723884072451672
 21
0.1674963157659821
 72
     1
 10
0.0723884072451671
 20
0.1674963157659822
 11
0.0685637618869363
 21
0.1627388300764767
 72
     1
 10
0.0685637618869364
 20
0.1627388300764767
 11
0.0671645013900242
 21
0.1611530015133082
 72
     1
 10
0.0671645013900251
 20
0.1611530015133082
 11
0.0680040576881734
 21
0.1596604569832674
 72
     1
 10
0.0680040576881726
 20
0.1596604569832674
 11
0.0704294425494878
 21
0.1556492435587824
 72
     1
 10
0.0704294425494871
 20
0.1556492435587824
 11
0.0742540879077179
 21
0.1493059293061089
 72
     1
 10
0.0742540879077192
 20
0.1493059293061089
 11
0.0791048576303511
 21
0.1411902184240116
 72
     1
 10
0.0791048576303508
 20
0.1411902184240116
 11
0.0848884676842594
 21
0.1314886789787458
 72
     1
 10
0.0848884676842596
 20
0.1314886789787459
 11
0.0913250659700619
 21
0.1207610151690772
 72
     1
 10
0.0913250659700613
 20
0.1207610151690775
 11
0.0982280844214992
 21
0.1091937950612604
 72
     1
 10
0.0982280844214985
 20
0.1091937950612603
 11
0.1053176709391927
 21
0.0973467228540611
 72
     1
 10
0.105317670939193
 20
0.0973467228540612
 11
0.1124072574568872
 21
0.0854996506468619
 72
     1
 10
0.1124072574568871
 20
0.0854996506468617
 11
0.1193102759083267
 21
0.0739324305390446
 72
     1
 10
0.1193102759083278
 20
0.0739324305390448
 11
0.1257468741941283
 21
0.0632047667293762
 72
     1
 10
0.1257468741941277
 20
0.063204766729376
 11
0.1315304842480362
 21
0.0535032272841102
 72
     1
 10
0.1315304842480365
 20
0.0535032272841104
 11
0.1363812539706702
 21
0.0453875164020132
 72
     1
 10
0.1363812539706699
 20
0.0453875164020132
 11
0.1402058993288989
 21
0.0391374861824667
 72
     1
 10
0.1402058993288988
 20
0.0391374861824669
 11
0.1426312841902157
 21
0.0350329887248546
 72
     1
 10
0.1426312841902164
 20
0.0350329887248547
 11
0.1434708404883648
 21
0.0336337282279412
 72
     1
 10
0.143470840488364
 20
0.0336337282279411
 11
0.2706169776412211
 21
0.0336337282279411
 97
        0
 75
     0
 76
     1
 98
        1
 10
-0.3743130907707726
 20
-0.2500502867693841
1001
ACAD
1010
0.0
1020
0.0
1030
0.0
  0
HATCH
  5
FE17
330
FE14
100
AcDbEntity
  8
Kawneer Logo-English
100
AcDbHatch
 10
0.0
 20
0.0
 30
0.0
210
0.0
220
0.0
230
1.0
  2
SOLID
 70
     1
 71
     0
 91
        1
 92
        1
 93
       18
 72
     1
 10
0.0001865656044393
 20
0.2563959993365415
 11
-0.0000000024618153
 21
0.113671428651383
 72
     1
 10
-0.0000000024618159
 20
0.1136714286513832
 11
0.0012126899688416
 21
0.1152572572145516
 72
     1
 10
0.0012126899688421
 20
0.1152572572145516
 11
0.0045709151614355
 21
0.1197348908046738
 72
     1
 10
0.004570915161435
 20
0.119734890804674
 11
0.0098881050497044
 21
0.1268244773223682
 72
     1
 10
0.0098881050497044
 20
0.1268244773223682
 11
0.0166978394680158
 21
0.1359663125688683
 72
     1
 10
0.016697839468016
 20
0.1359663125688683
 11
0.0248135503501131
 21
0.1467872604116651
 72
     1
 10
0.024813550350113
 20
0.1467872604116652
 11
0.0338621015634867
 21
0.1588209006851195
 72
     1
 10
0.0338621015634872
 20
0.1588209006851194
 11
0.0434703569756247
 21
0.1716940972567221
 72
     1
 10
0.0434703569756247
 20
0.1716940972567224
 11
0.0534517485202732
 21
0.1850337139939626
 72
     1
 10
0.0534517485202724
 20
0.1850337139939624
 11
0.0634331400649208
 21
0.1983733307312025
 72
     1
 10
0.0634331400649222
 20
0.1983733307312024
 11
0.0730413954770597
 21
0.2112465273028051
 72
     1
 10
0.0730413954770595
 20
0.2112465273028053
 11
0.0820899466904331
 21
0.2233734516093873
 72
     1
 10
0.0820899466904321
 20
0.2233734516093873
 11
0.0902056575725293
 21
0.2341943994521837
 72
     1
 10
0.0902056575725308
 20
0.2341943994521837
 11
0.0970153919908422
 21
0.2433362346986839
 72
     1
 10
0.0970153919908405
 20
0.2433362346986839
 11
0.1022392978459834
 21
0.2503325371832507
 72
     1
 10
0.1022392978459843
 20
0.2503325371832508
 11
0.1056908070717041
 21
0.2549034548065008
 72
     1
 10
0.1056908070717046
 20
0.254903454806501
 11
0.1069034995023621
 21
0.2564892833696694
 72
     1
 10
0.1069034995023625
 20
0.2564892833696695
 11
0.0001865656044399
 21
0.2563959993365418
 97
        0
 75
     0
 76
     1
 98
        1
 10
-0.3743130907707726
 20
-0.2500502867693841
1001
ACAD
1010
0.0
1020
0.0
1030
0.0
  0
HATCH
  5
FE18
330
FE14
100
AcDbEntity
  8
Kawneer Logo-English
100
AcDbHatch
 10
0.0
 20
0.0
 30
0.0
210
0.0
220
0.0
230
1.0
  2
SOLID
 70
     1
 71
     0
 91
        2
 92
       16
 93
       76
 72
     1
 10
1.358402087941634
 20
0.1650709309046659
 11
1.358402087941634
 21
0.16796273593162
 72
     1
 10
1.358402087941634
 20
0.1679627359316202
 11
1.358402087941634
 21
0.1729067896873803
 72
     1
 10
1.358402087941634
 20
0.1729067896873803
 11
1.358402087941634
 21
0.1791568199069267
 72
     1
 10
1.358402087941634
 20
0.1791568199069267
 11
1.358402087941634
 21
0.1861531223914932
 72
     1
 10
1.358402087941634
 20
0.186153122391493
 11
1.358402087941634
 21
0.1931494248760595
 72
     1
 10
1.358402087941634
 20
0.1931494248760596
 11
1.358402087941634
 21
0.1994927391287338
 72
     1
 10
1.358402087941634
 20
0.1994927391287336
 11
1.358402087941634
 21
0.2044367928844937
 72
     1
 10
1.358402087941634
 20
0.2044367928844937
 11
1.358402087941634
 21
0.2072353138783208
 72
     1
 10
1.358402087941634
 20
0.2072353138783208
 11
1.359894632471676
 21
0.2072353138783208
 72
     1
 10
1.359894632471676
 20
0.2072353138783208
 11
1.362693153465502
 21
0.2072353138783208
 72
     1
 10
1.362693153465502
 20
0.2072353138783208
 11
1.366424514790605
 21
0.2072353138783208
 72
     1
 10
1.366424514790606
 20
0.2072353138783208
 11
1.371088716446983
 21
0.2072353138783208
 72
     1
 10
1.371088716446982
 20
0.2072353138783208
 11
1.376405906335254
 21
0.2072353138783208
 72
     1
 10
1.376405906335254
 20
0.2072353138783208
 11
1.382282800422289
 21
0.2072353138783208
 72
     1
 10
1.38228280042229
 20
0.2072353138783208
 11
1.388346262575581
 21
0.2072353138783208
 72
     1
 10
1.388346262575579
 20
0.2072353138783208
 11
1.394596292795125
 21
0.2072353138783208
 72
     1
 10
1.394596292795125
 20
0.2072353138783208
 11
1.400753038981545
 21
0.2072353138783208
 72
     1
 10
1.400753038981546
 20
0.2072353138783208
 11
1.406723217101709
 21
0.2072353138783208
 72
     1
 10
1.406723217101708
 20
0.2072353138783208
 11
1.412320259089362
 21
0.2072353138783208
 72
     1
 10
1.412320259089362
 20
0.2072353138783208
 11
1.417264312845122
 21
0.2072353138783208
 72
     1
 10
1.417264312845123
 20
0.2072353138783208
 11
1.421368810302735
 21
0.2072353138783208
 72
     1
 10
1.421368810302734
 20
0.2072353138783208
 11
1.424540467429071
 21
0.2072353138783208
 72
     1
 10
1.424540467429072
 20
0.2072353138783208
 11
1.426592716157878
 21
0.2072353138783208
 72
     1
 10
1.426592716157878
 20
0.2072353138783208
 11
1.427338988422898
 21
0.2072353138783208
 72
     1
 10
1.427338988422898
 20
0.2072353138783208
 11
1.430977065714873
 21
0.207142029845193
 72
     1
 10
1.430977065714872
 20
0.207142029845193
 11
1.434335290907465
 21
0.2068621777458102
 72
     1
 10
1.434335290907465
 20
0.2068621777458102
 11
1.435921119470633
 21
0.2066756096795552
 72
     1
 10
1.435921119470633
 20
0.206675609679555
 11
1.437413664000673
 21
0.2063957575801723
 72
     1
 10
1.437413664000674
 20
0.2063957575801723
 11
1.438906208530714
 21
0.2061159054807895
 72
     1
 10
1.438906208530714
 20
0.2061159054807898
 11
1.440398753060756
 21
0.2056494853151523
 72
     1
 10
1.440398753060756
 20
0.2056494853151521
 11
1.441704729524542
 21
0.2050897811163865
 72
     1
 10
1.441704729524542
 20
0.2050897811163866
 11
1.443010705988328
 21
0.204530076917621
 72
     1
 10
1.443010705988329
 20
0.204530076917621
 11
1.444223398418986
 21
0.2036905206194736
 72
     1
 10
1.444223398418985
 20
0.2036905206194736
 11
1.445436090849643
 21
0.2028509643213252
 72
     1
 10
1.445436090849643
 20
0.2028509643213252
 11
1.446555499247174
 21
0.2018248399569224
 72
     1
 10
1.446555499247173
 20
0.2018248399569223
 11
1.447581623611576
 21
0.2007054315593917
 72
     1
 10
1.447581623611578
 20
0.2007054315593915
 11
1.448607747975981
 21
0.1993061710624781
 72
     1
 10
1.448607747975981
 20
0.1993061710624781
 11
1.449540588307258
 21
0.1978136265324374
 72
     1
 10
1.449540588307256
 20
0.1978136265324373
 11
1.450380144605403
 21
0.1961345139361415
 72
     1
 10
1.450380144605404
 20
0.1961345139361415
 11
1.451126416870426
 21
0.1944554013398453
 72
     1
 10
1.451126416870426
 20
0.1944554013398454
 11
1.451592837036063
 21
0.1929628568098046
 72
     1
 10
1.451592837036062
 20
0.1929628568098046
 11
1.451965973168573
 21
0.1913770282466361
 72
     1
 10
1.451965973168574
 20
0.1913770282466361
 11
1.452245825267955
 21
0.1899777677497231
 72
     1
 10
1.452245825267954
 20
0.1899777677497231
 11
1.452432393334211
 21
0.188671791285937
 72
     1
 10
1.452432393334211
 20
0.1886717912859369
 11
1.452432393334211
 21
0.1874590988552789
 72
     1
 10
1.452432393334211
 20
0.1874590988552789
 11
1.452525677367338
 21
0.1863396904577482
 72
     1
 10
1.452525677367337
 20
0.1863396904577481
 11
1.452432393334211
 21
0.1844740097951972
 72
     1
 10
1.452432393334211
 20
0.1844740097951974
 11
1.452245825267955
 21
0.1827948971989012
 72
     1
 10
1.452245825267954
 20
0.1827948971989009
 11
1.451872689135445
 21
0.1810225005694773
 72
     1
 10
1.451872689135446
 20
0.1810225005694774
 11
1.451406268969809
 21
0.1794366720063093
 72
     1
 10
1.451406268969809
 20
0.1794366720063094
 11
1.450846564771043
 21
0.1779441274762682
 72
     1
 10
1.450846564771041
 20
0.1779441274762681
 11
1.450100292506021
 21
0.1764515829462274
 72
     1
 10
1.450100292506023
 20
0.1764515829462275
 11
1.449260736207875
 21
0.1750523224493141
 72
     1
 10
1.449260736207873
 20
0.1750523224493139
 11
1.448327895876597
 21
0.1737463459855283
 72
     1
 10
1.448327895876596
 20
0.1737463459855281
 11
1.44702191941281
 21
0.1723470854886151
 72
     1
 10
1.447021919412811
 20
0.1723470854886151
 11
1.445715942949025
 21
0.1711343930579568
 72
     1
 10
1.445715942949026
 20
0.1711343930579568
 11
1.444316682452114
 21
0.1700149846604262
 72
     1
 10
1.444316682452114
 20
0.1700149846604259
 11
1.442824137922072
 21
0.168988860296023
 72
     1
 10
1.442824137922072
 20
0.168988860296023
 11
1.441238309358904
 21
0.1682425880310024
 72
     1
 10
1.441238309358902
 20
0.1682425880310024
 11
1.439559196762608
 21
0.1674963157659821
 72
     1
 10
1.439559196762608
 20
0.1674963157659822
 11
1.437880084166311
 21
0.1669366115672166
 72
     1
 10
1.437880084166311
 20
0.1669366115672167
 11
1.436107687536888
 21
0.1664701914015788
 72
     1
 10
1.436107687536888
 20
0.1664701914015789
 11
1.434242006874337
 21
0.166003771235941
 72
     1
 10
1.434242006874337
 20
0.1660037712359412
 11
1.432376326211786
 21
0.1657239191365588
 72
     1
 10
1.432376326211785
 20
0.1657239191365585
 11
1.430417361516107
 21
0.1655373510703035
 72
     1
 10
1.430417361516108
 20
0.1655373510703037
 11
1.428458396820429
 21
0.1653507830040482
 72
     1
 10
1.428458396820428
 20
0.1653507830040482
 11
1.424353899362817
 21
0.1651642149377932
 72
     1
 10
1.424353899362817
 20
0.1651642149377932
 11
1.420156117872077
 21
0.1650709309046658
 72
     1
 10
1.420156117872076
 20
0.1650709309046659
 11
1.41773073301076
 21
0.1650709309046659
 72
     1
 10
1.417730733010761
 20
0.1650709309046659
 11
1.411107566658704
 21
0.1650709309046659
 72
     1
 10
1.411107566658702
 20
0.1650709309046659
 11
1.401779163345947
 21
0.1650709309046659
 72
     1
 10
1.401779163345949
 20
0.1650709309046659
 11
1.390958215503152
 21
0.1650709309046659
 72
     1
 10
1.390958215503152
 20
0.1650709309046659
 11
1.379950699594101
 21
0.1650709309046659
 72
     1
 10
1.379950699594099
 20
0.1650709309046659
 11
1.369969308049451
 21
0.1650709309046659
 72
     1
 10
1.369969308049451
 20
0.1650709309046659
 11
1.362320017332992
 21
0.1650709309046659
 72
     1
 10
1.362320017332992
 20
0.1650709309046659
 11
1.358402087941635
 21
0.1650709309046659
 97
        0
 92
        1
 93
      107
 72
     1
 10
1.443756978253348
 20
0.1485596570410883
 11
1.446928635379685
 21
0.1492126452729816
 72
     1
 10
1.446928635379685
 20
0.1492126452729817
 11
1.449540588307256
 21
0.1498656335048746
 72
     1
 10
1.449540588307256
 20
0.1498656335048745
 11
1.451872689135445
 21
0.1506119057698948
 72
     1
 10
1.451872689135446
 20
0.1506119057698946
 11
1.45401822189738
 21
0.1514514620680426
 72
     1
 10
1.45401822189738
 20
0.1514514620680425
 11
1.455883902559929
 21
0.1521977343330632
 72
     1
 10
1.455883902559929
 20
0.1521977343330631
 11
1.457563015156225
 21
0.1530372906312111
 72
     1
 10
1.457563015156225
 20
0.1530372906312111
 11
1.459148843719394
 21
0.1539701309624869
 72
     1
 10
1.459148843719394
 20
0.1539701309624866
 11
1.460641388249434
 21
0.1549029712937624
 72
     1
 10
1.460641388249434
 20
0.1549029712937622
 11
1.462133932779476
 21
0.155835811625038
 72
     1
 10
1.462133932779476
 20
0.155835811625038
 11
1.463439909243262
 21
0.1568619359894408
 72
     1
 10
1.463439909243262
 20
0.1568619359894408
 11
1.464745885707048
 21
0.1579813443869714
 72
     1
 10
1.464745885707047
 20
0.1579813443869716
 11
1.465865294104579
 21
0.1591007527845022
 72
     1
 10
1.465865294104579
 20
0.1591007527845025
 11
1.466984702502109
 21
0.1602201611820331
 72
     1
 10
1.466984702502108
 20
0.1602201611820328
 11
1.468010826866511
 21
0.1613395695795634
 72
     1
 10
1.468010826866511
 20
0.1613395695795637
 11
1.468943667197788
 21
0.1625522620102216
 72
     1
 10
1.468943667197788
 20
0.1625522620102216
 11
1.469876507529063
 21
0.1636716704077522
 72
     1
 10
1.469876507529063
 20
0.1636716704077524
 11
1.470622779794084
 21
0.1648843628384107
 72
     1
 10
1.470622779794084
 20
0.1648843628384107
 11
1.471462336092232
 21
0.1661903393021964
 72
     1
 10
1.471462336092232
 20
0.1661903393021967
 11
1.472115324324125
 21
0.1674030317328546
 72
     1
 10
1.472115324324124
 20
0.1674030317328546
 11
1.472768312556016
 21
0.1686157241635125
 72
     1
 10
1.472768312556017
 20
0.1686157241635125
 11
1.473328016754783
 21
0.1699217006272986
 72
     1
 10
1.473328016754782
 20
0.1699217006272989
 11
1.47379443692042
 21
0.1711343930579568
 72
     1
 10
1.47379443692042
 20
0.1711343930579568
 11
1.474260857086057
 21
0.1724403695217425
 72
     1
 10
1.474260857086058
 20
0.1724403695217424
 11
1.474727277251697
 21
0.1736530619524008
 72
     1
 10
1.474727277251697
 20
0.173653061952401
 11
1.475380265483589
 21
0.1760784468137175
 72
     1
 10
1.475380265483588
 20
0.1760784468137173
 11
1.475846685649225
 21
0.1785038316750338
 72
     1
 10
1.475846685649226
 20
0.1785038316750335
 11
1.476219821781737
 21
0.1808359325032223
 72
     1
 10
1.476219821781738
 20
0.1808359325032223
 11
1.47649967388112
 21
0.1830747492982838
 72
     1
 10
1.47649967388112
 20
0.1830747492982838
 11
1.476592957914248
 21
0.1851269980270901
 72
     1
 10
1.476592957914248
 20
0.1851269980270902
 11
1.476686241947374
 21
0.1870859627227688
 72
     1
 10
1.476686241947375
 20
0.1870859627227687
 11
1.476592957914249
 21
0.1888583593521923
 72
     1
 10
1.476592957914248
 20
0.1888583593521922
 11
1.476499673881119
 21
0.1906307559816158
 72
     1
 10
1.47649967388112
 20
0.1906307559816159
 11
1.476406389847991
 21
0.1924031526110394
 72
     1
 10
1.476406389847991
 20
0.1924031526110394
 11
1.476126537748608
 21
0.1940822652073352
 72
     1
 10
1.476126537748608
 20
0.1940822652073352
 11
1.475846685649226
 21
0.195761377803631
 72
     1
 10
1.475846685649226
 20
0.1957613778036309
 11
1.475566833549843
 21
0.1974404903999272
 72
     1
 10
1.475566833549843
 20
0.1974404903999272
 11
1.475100413384206
 21
0.1990263189630953
 72
     1
 10
1.475100413384205
 20
0.1990263189630952
 11
1.474633993218568
 21
0.2006121475262637
 72
     1
 10
1.474633993218568
 20
0.2006121475262639
 11
1.47416757305293
 21
0.2021046920563051
 72
     1
 10
1.474167573052932
 20
0.2021046920563049
 11
1.473514584821038
 21
0.2035972365863457
 72
     1
 10
1.473514584821037
 20
0.2035972365863459
 11
1.472954880622271
 21
0.2050897811163867
 72
     1
 10
1.472954880622272
 20
0.2050897811163866
 11
1.472208608357252
 21
0.2064890416133
 72
     1
 10
1.472208608357252
 20
0.2064890416133001
 11
1.471462336092232
 21
0.2078883021102135
 72
     1
 10
1.471462336092232
 20
0.2078883021102136
 11
1.470622779794083
 21
0.2091942785739993
 72
     1
 10
1.470622779794084
 20
0.2091942785739991
 11
1.469783223495935
 21
0.2105002550377848
 72
     1
 10
1.469783223495934
 20
0.2105002550377851
 11
1.468850383164659
 21
0.2118062315015707
 72
     1
 10
1.468850383164661
 20
0.2118062315015709
 11
1.467917542833386
 21
0.2130189239322288
 72
     1
 10
1.467917542833385
 20
0.2130189239322289
 11
1.466891418468982
 21
0.2141383323297595
 72
     1
 10
1.466891418468982
 20
0.2141383323297595
 11
1.465772010071451
 21
0.2153510247604178
 72
     1
 10
1.46577201007145
 20
0.215351024760418
 11
1.464652601673919
 21
0.2163771491248209
 72
     1
 10
1.46465260167392
 20
0.2163771491248209
 11
1.463533193276389
 21
0.2174032734892238
 72
     1
 10
1.463533193276389
 20
0.2174032734892238
 11
1.462227216812603
 21
0.2184293978536266
 72
     1
 10
1.462227216812602
 20
0.2184293978536266
 11
1.461014524381945
 21
0.2193622381849024
 72
     1
 10
1.461014524381946
 20
0.2193622381849023
 11
1.459615263885032
 21
0.2202950785161781
 72
     1
 10
1.459615263885031
 20
0.2202950785161782
 11
1.458309287421245
 21
0.2211346348143262
 72
     1
 10
1.458309287421246
 20
0.221134634814326
 11
1.456816742891206
 21
0.221974191112474
 72
     1
 10
1.456816742891206
 20
0.2219741911124738
 11
1.455417482394292
 21
0.2227204633774945
 72
     1
 10
1.455417482394291
 20
0.2227204633774944
 11
1.453831653831122
 21
0.2233734516093874
 72
     1
 10
1.453831653831123
 20
0.2233734516093873
 11
1.452339109301082
 21
0.2240264398412803
 72
     1
 10
1.452339109301082
 20
0.2240264398412803
 11
1.450659996704785
 21
0.2245861440400459
 72
     1
 10
1.450659996704787
 20
0.2245861440400457
 11
1.44907416814162
 21
0.2251458482388108
 72
     1
 10
1.449074168141619
 20
0.2251458482388109
 11
1.447301771512194
 21
0.2256122684044489
 72
     1
 10
1.447301771512194
 20
0.2256122684044488
 11
1.445249522783388
 21
0.2261719726032139
 72
     1
 10
1.445249522783388
 20
0.226171972603214
 11
1.44329055808771
 21
0.2265451087357246
 72
     1
 10
1.443290558087712
 20
0.2265451087357244
 11
1.441145025325778
 21
0.2269182448682345
 72
     1
 10
1.441145025325776
 20
0.2269182448682345
 11
1.438906208530714
 21
0.2271980969676173
 72
     1
 10
1.438906208530714
 20
0.2271980969676173
 11
1.436387539636271
 21
0.2273846650338724
 72
     1
 10
1.436387539636271
 20
0.2273846650338724
 11
1.433495734609316
 21
0.2275712331001274
 72
     1
 10
1.433495734609317
 20
0.2275712331001274
 11
1.430044225383597
 21
0.2276645171332552
 72
     1
 10
1.430044225383597
 20
0.2276645171332549
 11
1.42612629599224
 21
0.2277578011663822
 72
     1
 10
1.42612629599224
 20
0.2277578011663825
 11
1.426033011959112
 21
0.2277578011663825
 72
     1
 10
1.426033011959111
 20
0.2277578011663825
 11
1.33489451159349
 21
0.2277578011663825
 72
     1
 10
1.334894511593491
 20
0.2277578011663825
 11
1.334894511593491
 21
0.0926825211976832
 72
     1
 10
1.334894511593491
 20
0.0926825211976832
 11
1.358588656007891
 21
0.0926825211976832
 72
     1
 10
1.358588656007891
 20
0.0926825211976832
 11
1.358588656007891
 21
0.0947347699264896
 72
     1
 10
1.358588656007891
 20
0.0947347699264896
 11
1.358588656007891
 21
0.1001452438478876
 72
     1
 10
1.358588656007891
 20
0.1001452438478875
 11
1.358588656007891
 21
0.1079811026306024
 72
     1
 10
1.358588656007891
 20
0.1079811026306024
 11
1.358588656007891
 21
0.1170296538439752
 72
     1
 10
1.358588656007891
 20
0.1170296538439753
 11
1.358588656007891
 21
0.1262647731236032
 72
     1
 10
1.358588656007891
 20
0.1262647731236031
 11
1.358588656007891
 21
0.1347536201382103
 72
     1
 10
1.358588656007891
 20
0.1347536201382104
 11
1.358588656007891
 21
0.1412835024571394
 72
     1
 10
1.358588656007891
 20
0.1412835024571393
 11
1.358588656007891
 21
0.1448282957159864
 72
     1
 10
1.358588656007891
 20
0.1448282957159865
 11
1.362320017332992
 21
0.1448282957159865
 72
     1
 10
1.362320017332992
 20
0.1448282957159865
 11
1.369409603850688
 21
0.1448282957159865
 72
     1
 10
1.369409603850688
 20
0.1448282957159865
 11
1.378738007163443
 21
0.1448282957159865
 72
     1
 10
1.378738007163443
 20
0.1448282957159865
 11
1.388999250807475
 21
0.1448282957159865
 72
     1
 10
1.388999250807473
 20
0.1448282957159865
 11
1.399260494451505
 21
0.1448282957159865
 72
     1
 10
1.399260494451506
 20
0.1448282957159865
 11
1.408215761631749
 21
0.1448282957159865
 72
     1
 10
1.408215761631748
 20
0.1448282957159865
 11
1.414745643950677
 21
0.1448282957159865
 72
     1
 10
1.414745643950678
 20
0.1448282957159865
 11
1.41773073301076
 21
0.1448282957159865
 72
     1
 10
1.417730733010761
 20
0.1448282957159865
 11
1.420062833838949
 21
0.1420297747221594
 72
     1
 10
1.420062833838949
 20
0.1420297747221597
 11
1.425193455660966
 21
0.1359663125688683
 72
     1
 10
1.425193455660965
 20
0.1359663125688683
 11
1.432283042178659
 21
0.1275707495873888
 72
     1
 10
1.432283042178659
 20
0.1275707495873886
 11
1.440305469027628
 21
0.1180557782083779
 72
     1
 10
1.440305469027629
 20
0.1180557782083781
 11
1.448234611843471
 21
0.1087273748956225
 72
     1
 10
1.448234611843471
 20
0.1087273748956225
 11
1.455044346261782
 21
0.1006116640135252
 72
     1
 10
1.455044346261782
 20
0.1006116640135252
 11
1.459895115984414
 21
0.0948280539596167
 72
     1
 10
1.459895115984414
 20
0.0948280539596169
 11
1.461760796646965
 21
0.0926825211976832
 72
     1
 10
1.461760796646967
 20
0.0926825211976832
 11
1.49254452757906
 21
0.0926825211976832
 72
     1
 10
1.492544527579059
 20
0.0926825211976832
 11
1.490678846916508
 21
0.0948280539596169
 72
     1
 10
1.490678846916508
 20
0.0948280539596169
 11
1.48564150912762
 21
0.100518379980398
 72
     1
 10
1.48564150912762
 20
0.1005183799803981
 11
1.478458638576797
 21
0.1088206589287502
 72
     1
 10
1.478458638576798
 20
0.1088206589287502
 11
1.470063075595318
 21
0.1183356303077609
 72
     1
 10
1.470063075595317
 20
0.118335630307761
 11
1.461480944547582
 21
0.1282237378192818
 72
     1
 10
1.461480944547582
 20
0.1282237378192818
 11
1.453551801731739
 21
0.1372722890326546
 72
     1
 10
1.45355180173174
 20
0.1372722890326546
 11
1.447395055545323
 21
0.1444551595834761
 72
     1
 10
1.447395055545323
 20
0.1444551595834759
 11
1.443756978253349
 21
0.1485596570410882
 97
        0
 75
     0
 76
     1
 98
        1
 10
-0.3743130907707726
 20
-0.2500502867693841
1001
ACAD
1010
0.0
1020
0.0
1030
0.0
  0
HATCH
  5
FE19
330
FE14
100
AcDbEntity
  8
Kawneer Logo-English
100
AcDbHatch
 10
0.0
 20
0.0
 30
0.0
210
0.0
220
0.0
230
1.0
  2
SOLID
 70
     1
 71
     0
 91
        1
 92
        1
 93
       87
 72
     1
 10
1.205602841678699
 20
0.1525708704655737
 11
1.207468522341251
 21
0.1525708704655737
 72
     1
 10
1.207468522341252
 20
0.1525708704655737
 11
1.211199883666355
 21
0.1525708704655737
 72
     1
 10
1.211199883666355
 20
0.1525708704655737
 11
1.216517073554626
 21
0.1525708704655737
 72
     1
 10
1.216517073554626
 20
0.1525708704655737
 11
1.223046955873555
 21
0.1525708704655737
 72
     1
 10
1.223046955873553
 20
0.1525708704655737
 11
1.230602962556885
 21
0.1525708704655737
 72
     1
 10
1.230602962556885
 20
0.1525708704655737
 11
1.238998525538365
 21
0.1525708704655737
 72
     1
 10
1.238998525538365
 20
0.1525708704655737
 11
1.247767224652354
 21
0.1525708704655737
 72
     1
 10
1.247767224652355
 20
0.1525708704655737
 11
1.256815775865728
 21
0.1525708704655737
 72
     1
 10
1.256815775865729
 20
0.1525708704655737
 11
1.265771043045974
 21
0.1525708704655737
 72
     1
 10
1.265771043045973
 20
0.1525708704655737
 11
1.274446458126836
 21
0.1525708704655737
 72
     1
 10
1.274446458126837
 20
0.1525708704655737
 11
1.282562169008935
 21
0.1525708704655737
 72
     1
 10
1.282562169008935
 20
0.1525708704655737
 11
1.289745039559756
 21
0.1525708704655737
 72
     1
 10
1.289745039559755
 20
0.1525708704655737
 11
1.295808501713046
 21
0.1525708704655737
 72
     1
 10
1.295808501713046
 20
0.1525708704655737
 11
1.300472703369423
 21
0.1525708704655737
 72
     1
 10
1.300472703369423
 20
0.1525708704655737
 11
1.303457792429505
 21
0.1525708704655737
 72
     1
 10
1.303457792429505
 20
0.1525708704655737
 11
1.304483916793908
 21
0.1525708704655737
 72
     1
 10
1.304483916793908
 20
0.1525708704655737
 11
1.304483916793908
 21
0.1730000737205081
 72
     1
 10
1.304483916793908
 20
0.1730000737205078
 11
1.303457792429505
 21
0.1730000737205078
 72
     1
 10
1.303457792429505
 20
0.1730000737205078
 11
1.300472703369423
 21
0.1730000737205078
 72
     1
 10
1.300472703369423
 20
0.1730000737205078
 11
1.295808501713045
 21
0.1730000737205078
 72
     1
 10
1.295808501713046
 20
0.1730000737205078
 11
1.289745039559754
 21
0.1730000737205078
 72
     1
 10
1.289745039559755
 20
0.1730000737205078
 11
1.282562169008934
 21
0.1730000737205078
 72
     1
 10
1.282562169008935
 20
0.1730000737205078
 11
1.274446458126837
 21
0.1730000737205078
 72
     1
 10
1.274446458126837
 20
0.1730000737205078
 11
1.265771043045975
 21
0.1730000737205078
 72
     1
 10
1.265771043045973
 20
0.1730000737205078
 11
1.256815775865728
 21
0.1730000737205078
 72
     1
 10
1.256815775865729
 20
0.1730000737205078
 11
1.247767224652355
 21
0.1730000737205078
 72
     1
 10
1.247767224652355
 20
0.1730000737205078
 11
1.238998525538365
 21
0.1730000737205078
 72
     1
 10
1.238998525538365
 20
0.1730000737205078
 11
1.230602962556885
 21
0.1730000737205078
 72
     1
 10
1.230602962556885
 20
0.1730000737205078
 11
1.223046955873553
 21
0.1730000737205078
 72
     1
 10
1.223046955873553
 20
0.1730000737205078
 11
1.216517073554625
 21
0.1730000737205078
 72
     1
 10
1.216517073554626
 20
0.1730000737205078
 11
1.211199883666355
 21
0.1730000737205078
 72
     1
 10
1.211199883666355
 20
0.1730000737205078
 11
1.207468522341252
 21
0.1730000737205078
 72
     1
 10
1.207468522341252
 20
0.1730000737205078
 11
1.205602841678701
 21
0.1730000737205078
 72
     1
 10
1.205602841678699
 20
0.1730000737205078
 11
1.205602841678699
 21
0.1754254585818243
 72
     1
 10
1.205602841678699
 20
0.1754254585818245
 11
1.205602841678699
 21
0.1794366720063095
 72
     1
 10
1.205602841678699
 20
0.1794366720063094
 11
1.205602841678699
 21
0.1843807257620694
 72
     1
 10
1.205602841678699
 20
0.1843807257620694
 11
1.205602841678699
 21
0.1898844837165951
 72
     1
 10
1.205602841678699
 20
0.1898844837165951
 11
1.205602841678699
 21
0.1952949576379935
 72
     1
 10
1.205602841678699
 20
0.1952949576379937
 11
1.205602841678699
 21
0.2003322954268815
 72
     1
 10
1.205602841678699
 20
0.2003322954268814
 11
1.205602841678699
 21
0.2042502248182386
 72
     1
 10
1.205602841678699
 20
0.2042502248182386
 11
1.205602841678699
 21
0.206675609679555
 72
     1
 10
1.205602841678699
 20
0.206675609679555
 11
1.207468522341251
 21
0.206675609679555
 72
     1
 10
1.207468522341252
 20
0.206675609679555
 11
1.211293167699483
 21
0.206675609679555
 72
     1
 10
1.211293167699483
 20
0.206675609679555
 11
1.21670364162088
 21
0.206675609679555
 72
     1
 10
1.216703641620879
 20
0.206675609679555
 11
1.223420092006063
 21
0.206675609679555
 72
     1
 10
1.223420092006064
 20
0.206675609679555
 11
1.231255950788778
 21
0.206675609679555
 72
     1
 10
1.231255950788778
 20
0.206675609679555
 11
1.239744797803386
 21
0.206675609679555
 72
     1
 10
1.239744797803385
 20
0.206675609679555
 11
1.248886633049885
 21
0.206675609679555
 72
     1
 10
1.248886633049885
 20
0.206675609679555
 11
1.258121752329513
 21
0.206675609679555
 72
     1
 10
1.258121752329514
 20
0.206675609679555
 11
1.267356871609143
 21
0.206675609679555
 72
     1
 10
1.267356871609142
 20
0.206675609679555
 11
1.276218854756259
 21
0.206675609679555
 72
     1
 10
1.276218854756259
 20
0.206675609679555
 11
1.284521133704611
 21
0.206675609679555
 72
     1
 10
1.284521133704611
 20
0.206675609679555
 11
1.291890572321688
 21
0.206675609679555
 72
     1
 10
1.291890572321688
 20
0.206675609679555
 11
1.298140602541234
 21
0.206675609679555
 72
     1
 10
1.298140602541234
 20
0.206675609679555
 11
1.30289808823074
 21
0.206675609679555
 72
     1
 10
1.30289808823074
 20
0.206675609679555
 11
1.305976461323949
 21
0.206675609679555
 72
     1
 10
1.305976461323949
 20
0.206675609679555
 11
1.30709586972148
 21
0.206675609679555
 72
     1
 10
1.307095869721479
 20
0.206675609679555
 11
1.307095869721479
 21
0.2277578011663822
 72
     1
 10
1.307095869721479
 20
0.2277578011663825
 11
1.304577200827036
 21
0.2277578011663825
 72
     1
 10
1.304577200827037
 20
0.2277578011663825
 11
1.182188549363684
 21
0.2277578011663825
 72
     1
 10
1.182188549363684
 20
0.2277578011663825
 11
1.182188549363684
 21
0.0926825211976832
 72
     1
 10
1.182188549363684
 20
0.0926825211976832
 11
1.311853355410986
 21
0.0926825211976832
 72
     1
 10
1.311853355410985
 20
0.0926825211976832
 11
1.311853355410985
 21
0.113671428651383
 72
     1
 10
1.311853355410985
 20
0.1136714286513832
 11
1.310733947013454
 21
0.1136714286513832
 72
     1
 10
1.310733947013455
 20
0.1136714286513832
 11
1.307469005853991
 21
0.1136714286513832
 72
     1
 10
1.307469005853991
 20
0.1136714286513832
 11
1.302431668065102
 21
0.1136714286513832
 72
     1
 10
1.302431668065103
 20
0.1136714286513832
 11
1.295901785746174
 21
0.1136714286513832
 72
     1
 10
1.295901785746174
 20
0.1136714286513832
 11
1.288159210996586
 21
0.1136714286513832
 72
     1
 10
1.288159210996587
 20
0.1136714286513832
 11
1.279483795915724
 21
0.1136714286513832
 72
     1
 10
1.279483795915723
 20
0.1136714286513832
 11
1.270155392602968
 21
0.1136714286513832
 72
     1
 10
1.270155392602969
 20
0.1136714286513832
 11
1.260547137190832
 21
0.1136714286513832
 72
     1
 10
1.260547137190831
 20
0.1136714286513832
 11
1.250752313712437
 21
0.1136714286513832
 72
     1
 10
1.250752313712437
 20
0.1136714286513832
 11
1.241330626366554
 21
0.1136714286513832
 72
     1
 10
1.241330626366555
 20
0.1136714286513832
 11
1.23237535918631
 21
0.1136714286513832
 72
     1
 10
1.232375359186308
 20
0.1136714286513832
 11
1.224166364271082
 21
0.1136714286513832
 72
     1
 10
1.224166364271083
 20
0.1136714286513832
 11
1.217170061786517
 21
0.1136714286513832
 72
     1
 10
1.217170061786517
 20
0.1136714286513832
 11
1.211479735765737
 21
0.1136714286513832
 72
     1
 10
1.211479735765737
 20
0.1136714286513832
 11
1.20756180637438
 21
0.1136714286513832
 72
     1
 10
1.207561806374379
 20
0.1136714286513832
 11
1.2056028416787
 21
0.1136714286513832
 72
     1
 10
1.205602841678699
 20
0.1136714286513832
 11
1.205602841678699
 21
0.1163766656120825
 72
     1
 10
1.205602841678699
 20
0.1163766656120823
 11
1.205602841678699
 21
0.1209475832353323
 72
     1
 10
1.205602841678699
 20
0.1209475832353325
 11
1.205602841678699
 21
0.1267311932892411
 72
     1
 10
1.205602841678699
 20
0.1267311932892408
 11
1.205602841678699
 21
0.1330745075419143
 72
     1
 10
1.205602841678699
 20
0.1330745075419144
 11
1.205602841678699
 21
0.1395111058277156
 72
     1
 10
1.205602841678699
 20
0.1395111058277158
 11
1.205602841678699
 21
0.1452947158816239
 72
     1
 10
1.205602841678699
 20
0.145294715881624
 11
1.205602841678699
 21
0.1498656335048746
 72
     1
 10
1.205602841678699
 20
0.1498656335048745
 11
1.205602841678699
 21
0.1525708704655738
 97
        0
 75
     0
 76
     1
 98
        1
 10
-0.3743130907707726
 20
-0.2500502867693841
1001
ACAD
1010
0.0
1020
0.0
1030
0.0
  0
HATCH
  5
FE1A
330
FE14
100
AcDbEntity
  8
Kawneer Logo-English
100
AcDbHatch
 10
0.0
 20
0.0
 30
0.0
210
0.0
220
0.0
230
1.0
  2
SOLID
 70
     1
 71
     0
 91
        1
 92
        1
 93
       87
 72
     1
 10
1.049352086190046
 20
0.1525708704655737
 11
1.051217766852597
 21
0.1525708704655737
 72
     1
 10
1.051217766852596
 20
0.1525708704655737
 11
1.054949128177699
 21
0.1525708704655737
 72
     1
 10
1.0549491281777
 20
0.1525708704655737
 11
1.060173034032843
 21
0.1525708704655737
 72
     1
 10
1.060173034032843
 20
0.1525708704655737
 11
1.0667962003849
 21
0.1525708704655737
 72
     1
 10
1.0667962003849
 20
0.1525708704655737
 11
1.074352207068231
 21
0.1525708704655737
 72
     1
 10
1.074352207068232
 20
0.1525708704655737
 11
1.082747770049711
 21
0.1525708704655737
 72
     1
 10
1.082747770049711
 20
0.1525708704655737
 11
1.0915164691637
 21
0.1525708704655737
 72
     1
 10
1.091516469163701
 20
0.1525708704655737
 11
1.100565020377075
 21
0.1525708704655737
 72
     1
 10
1.100565020377073
 20
0.1525708704655737
 11
1.109520287557319
 21
0.1525708704655737
 72
     1
 10
1.10952028755732
 20
0.1525708704655737
 11
1.118195702638183
 21
0.1525708704655737
 72
     1
 10
1.118195702638182
 20
0.1525708704655737
 11
1.126218129487151
 21
0.1525708704655737
 72
     1
 10
1.126218129487152
 20
0.1525708704655737
 11
1.133401000037974
 21
0.1525708704655737
 72
     1
 10
1.133401000037974
 20
0.1525708704655737
 11
1.139557746224391
 21
0.1525708704655737
 72
     1
 10
1.139557746224392
 20
0.1525708704655737
 11
1.14422194788077
 21
0.1525708704655737
 72
     1
 10
1.144221947880769
 20
0.1525708704655737
 11
1.147207036940851
 21
0.1525708704655737
 72
     1
 10
1.147207036940852
 20
0.1525708704655737
 11
1.148233161305255
 21
0.1525708704655737
 72
     1
 10
1.148233161305255
 20
0.1525708704655737
 11
1.148233161305255
 21
0.1730000737205081
 72
     1
 10
1.148233161305255
 20
0.1730000737205078
 11
1.147207036940852
 21
0.1730000737205078
 72
     1
 10
1.147207036940852
 20
0.1730000737205078
 11
1.14422194788077
 21
0.1730000737205078
 72
     1
 10
1.144221947880769
 20
0.1730000737205078
 11
1.139557746224391
 21
0.1730000737205078
 72
     1
 10
1.139557746224392
 20
0.1730000737205078
 11
1.133494284071101
 21
0.1730000737205078
 72
     1
 10
1.133494284071101
 20
0.1730000737205078
 11
1.126218129487152
 21
0.1730000737205078
 72
     1
 10
1.126218129487152
 20
0.1730000737205078
 11
1.118195702638183
 21
0.1730000737205078
 72
     1
 10
1.118195702638182
 20
0.1730000737205078
 11
1.10952028755732
 21
0.1730000737205078
 72
     1
 10
1.10952028755732
 20
0.1730000737205078
 11
1.100565020377074
 21
0.1730000737205078
 72
     1
 10
1.100565020377073
 20
0.1730000737205078
 11
1.0915164691637
 21
0.1730000737205078
 72
     1
 10
1.091516469163701
 20
0.1730000737205078
 11
1.082747770049712
 21
0.1730000737205078
 72
     1
 10
1.082747770049711
 20
0.1730000737205078
 11
1.074352207068231
 21
0.1730000737205078
 72
     1
 10
1.074352207068232
 20
0.1730000737205078
 11
1.0667962003849
 21
0.1730000737205078
 72
     1
 10
1.0667962003849
 20
0.1730000737205078
 11
1.060173034032843
 21
0.1730000737205078
 72
     1
 10
1.060173034032843
 20
0.1730000737205078
 11
1.054949128177701
 21
0.1730000737205078
 72
     1
 10
1.0549491281777
 20
0.1730000737205078
 11
1.051217766852597
 21
0.1730000737205078
 72
     1
 10
1.051217766852596
 20
0.1730000737205078
 11
1.049352086190045
 21
0.1730000737205078
 72
     1
 10
1.049352086190046
 20
0.1730000737205078
 11
1.049352086190046
 21
0.1754254585818243
 72
     1
 10
1.049352086190046
 20
0.1754254585818245
 11
1.049352086190046
 21
0.1794366720063095
 72
     1
 10
1.049352086190046
 20
0.1794366720063094
 11
1.049352086190046
 21
0.1843807257620694
 72
     1
 10
1.049352086190046
 20
0.1843807257620694
 11
1.049352086190046
 21
0.1898844837165951
 72
     1
 10
1.049352086190046
 20
0.1898844837165951
 11
1.049352086190046
 21
0.1952949576379935
 72
     1
 10
1.049352086190046
 20
0.1952949576379937
 11
1.049352086190046
 21
0.2003322954268815
 72
     1
 10
1.049352086190046
 20
0.2003322954268814
 11
1.049352086190046
 21
0.2042502248182386
 72
     1
 10
1.049352086190046
 20
0.2042502248182386
 11
1.049352086190046
 21
0.206675609679555
 72
     1
 10
1.049352086190046
 20
0.206675609679555
 11
1.051217766852597
 21
0.206675609679555
 72
     1
 10
1.051217766852596
 20
0.206675609679555
 11
1.055042412210825
 21
0.206675609679555
 72
     1
 10
1.055042412210827
 20
0.206675609679555
 11
1.060452886132226
 21
0.206675609679555
 72
     1
 10
1.060452886132225
 20
0.206675609679555
 11
1.067169336517409
 21
0.206675609679555
 72
     1
 10
1.06716933651741
 20
0.206675609679555
 11
1.075005195300124
 21
0.206675609679555
 72
     1
 10
1.075005195300123
 20
0.206675609679555
 11
1.083494042314731
 21
0.206675609679555
 72
     1
 10
1.083494042314732
 20
0.206675609679555
 11
1.092542593528105
 21
0.206675609679555
 72
     1
 10
1.092542593528106
 20
0.206675609679555
 11
1.10187099684086
 21
0.206675609679555
 72
     1
 10
1.101870996840861
 20
0.206675609679555
 11
1.111106116120489
 21
0.206675609679555
 72
     1
 10
1.111106116120488
 20
0.206675609679555
 11
1.119968099267605
 21
0.206675609679555
 72
     1
 10
1.119968099267605
 20
0.206675609679555
 11
1.128270378215957
 21
0.206675609679555
 72
     1
 10
1.128270378215957
 20
0.206675609679555
 11
1.135639816833034
 21
0.206675609679555
 72
     1
 10
1.135639816833034
 20
0.206675609679555
 11
1.14188984705258
 21
0.206675609679555
 72
     1
 10
1.141889847052581
 20
0.206675609679555
 11
1.146647332742086
 21
0.206675609679555
 72
     1
 10
1.146647332742086
 20
0.206675609679555
 11
1.149725705835295
 21
0.206675609679555
 72
     1
 10
1.149725705835296
 20
0.206675609679555
 11
1.150845114232827
 21
0.206675609679555
 72
     1
 10
1.150845114232826
 20
0.206675609679555
 11
1.150845114232826
 21
0.2277578011663822
 72
     1
 10
1.150845114232826
 20
0.2277578011663825
 11
1.148326445338383
 21
0.2277578011663825
 72
     1
 10
1.148326445338383
 20
0.2277578011663825
 11
1.025937793875031
 21
0.2277578011663825
 72
     1
 10
1.025937793875032
 20
0.2277578011663825
 11
1.025937793875032
 21
0.0926825211976832
 72
     1
 10
1.025937793875032
 20
0.0926825211976832
 11
1.155602599922332
 21
0.0926825211976832
 72
     1
 10
1.155602599922332
 20
0.0926825211976832
 11
1.155602599922332
 21
0.113671428651383
 72
     1
 10
1.155602599922332
 20
0.1136714286513832
 11
1.154483191524801
 21
0.1136714286513832
 72
     1
 10
1.154483191524799
 20
0.1136714286513832
 11
1.151218250365336
 21
0.1136714286513832
 72
     1
 10
1.151218250365338
 20
0.1136714286513832
 11
1.146180912576449
 21
0.1136714286513832
 72
     1
 10
1.146180912576449
 20
0.1136714286513832
 11
1.13965103025752
 21
0.1136714286513832
 72
     1
 10
1.13965103025752
 20
0.1136714286513832
 11
1.131908455507932
 21
0.1136714286513832
 72
     1
 10
1.131908455507931
 20
0.1136714286513832
 11
1.12323304042707
 21
0.1136714286513832
 72
     1
 10
1.123233040427071
 20
0.1136714286513832
 11
1.113904637114314
 21
0.1136714286513832
 72
     1
 10
1.113904637114314
 20
0.1136714286513832
 11
1.104296381702177
 21
0.1136714286513832
 72
     1
 10
1.104296381702177
 20
0.1136714286513832
 11
1.094501558223783
 21
0.1136714286513832
 72
     1
 10
1.094501558223784
 20
0.1136714286513832
 11
1.085079870877901
 21
0.1136714286513832
 72
     1
 10
1.085079870877899
 20
0.1136714286513832
 11
1.076124603697654
 21
0.1136714286513832
 72
     1
 10
1.076124603697655
 20
0.1136714286513832
 11
1.067915608782429
 21
0.1136714286513832
 72
     1
 10
1.067915608782429
 20
0.1136714286513832
 11
1.060919306297863
 21
0.1136714286513832
 72
     1
 10
1.060919306297863
 20
0.1136714286513832
 11
1.055228980277083
 21
0.1136714286513832
 72
     1
 10
1.055228980277082
 20
0.1136714286513832
 11
1.051311050885725
 21
0.1136714286513832
 72
     1
 10
1.051311050885726
 20
0.1136714286513832
 11
1.049352086190046
 21
0.1136714286513832
 72
     1
 10
1.049352086190046
 20
0.1136714286513832
 11
1.049352086190046
 21
0.1163766656120825
 72
     1
 10
1.049352086190046
 20
0.1163766656120823
 11
1.049352086190046
 21
0.1209475832353323
 72
     1
 10
1.049352086190046
 20
0.1209475832353325
 11
1.049352086190046
 21
0.1267311932892411
 72
     1
 10
1.049352086190046
 20
0.1267311932892408
 11
1.049352086190046
 21
0.1330745075419143
 72
     1
 10
1.049352086190046
 20
0.1330745075419144
 11
1.049352086190046
 21
0.1395111058277156
 72
     1
 10
1.049352086190046
 20
0.1395111058277158
 11
1.049352086190046
 21
0.1452947158816239
 72
     1
 10
1.049352086190046
 20
0.145294715881624
 11
1.049352086190046
 21
0.1498656335048746
 72
     1
 10
1.049352086190046
 20
0.1498656335048745
 11
1.049352086190046
 21
0.1525708704655738
 97
        0
 75
     0
 76
     1
 98
        1
 10
-0.3743130907707726
 20
-0.2500502867693841
1001
ACAD
1010
0.0
1020
0.0
1030
0.0
  0
HATCH
  5
FE1B
330
FE14
100
AcDbEntity
  8
Kawneer Logo-English
100
AcDbHatch
 10
0.0
 20
0.0
 30
0.0
210
0.0
220
0.0
230
1.0
  2
SOLID
 70
     1
 71
     0
 91
        1
 92
        1
 93
       42
 72
     1
 10
0.9725793269260698
 20
0.2277578011663825
 11
0.9725793269260698
 21
0.1354998924032311
 72
     1
 10
0.9725793269260698
 20
0.1354998924032311
 11
0.9729524630585808
 21
0.1264513411898582
 72
     1
 10
0.9729524630585796
 20
0.1264513411898583
 11
0.9729524630585796
 21
0.1255185008585825
 72
     1
 10
0.9729524630585796
 20
0.1255185008585824
 11
0.9731390311248343
 21
0.1238393882622866
 72
     1
 10
0.9731390311248349
 20
0.1238393882622866
 11
0.9717397706279211
 21
0.1254252168254551
 72
     1
 10
0.97173977062792
 20
0.1254252168254551
 11
0.9710867823960281
 21
0.1262647731236031
 72
     1
 10
0.9710867823960294
 20
0.1262647731236031
 11
0.9641837639445897
 21
0.1339140638400625
 72
     1
 10
0.9641837639445899
 20
0.1339140638400624
 11
0.8755639324734129
 21
0.2277578011663823
 72
     1
 10
0.8755639324734115
 20
0.2277578011663825
 11
0.8529891964565429
 21
0.2277578011663825
 72
     1
 10
0.8529891964565434
 20
0.2277578011663825
 11
0.8529891964565434
 21
0.0926825211976832
 72
     1
 10
0.8529891964565434
 20
0.0926825211976832
 11
0.8756572165065401
 21
0.0926825211976832
 72
     1
 10
0.875657216506541
 20
0.0926825211976832
 11
0.875657216506541
 21
0.1927762887435495
 72
     1
 10
0.875657216506541
 20
0.1927762887435495
 11
0.875657216506541
 21
0.1931494248760597
 72
     1
 10
0.875657216506541
 20
0.1931494248760596
 11
0.8755639324734129
 21
0.193988981174208
 72
     1
 10
0.8755639324734115
 20
0.1939889811742079
 11
0.8754706484402849
 21
0.1952949576379935
 72
     1
 10
0.8754706484402859
 20
0.1952949576379937
 11
0.8753773644071577
 21
0.1967875021680344
 72
     1
 10
0.875377364407158
 20
0.1967875021680343
 11
0.8755639324734126
 21
0.1965076500686515
 72
     1
 10
0.8755639324734115
 20
0.1965076500686517
 11
0.8756572165065396
 21
0.1963210820023967
 72
     1
 10
0.875657216506541
 20
0.1963210820023967
 11
0.8764967728046894
 21
0.1954815257042487
 72
     1
 10
0.8764967728046887
 20
0.1954815257042488
 11
0.8781758854009835
 21
0.1936158450416976
 72
     1
 10
0.8781758854009842
 20
0.1936158450416973
 11
0.8797617139641527
 21
0.1917501643791464
 72
     1
 10
0.879761713964152
 20
0.1917501643791466
 11
0.8805079862291723
 21
0.1909106080809982
 72
     1
 10
0.8805079862291727
 20
0.190910608080998
 11
0.8816273946267036
 21
0.1897911996834678
 72
     1
 10
0.8816273946267028
 20
0.1897911996834681
 11
0.884519199653657
 21
0.1867128265902584
 72
     1
 10
0.8845191996536581
 20
0.1867128265902582
 11
0.8891834013100353
 21
0.1818620568676254
 72
     1
 10
0.889183401310035
 20
0.1818620568676252
 11
0.8951535794301982
 21
0.1756120266480794
 72
     1
 10
0.8951535794301985
 20
0.1756120266480794
 11
0.9021498819147662
 21
0.1681493039978751
 72
     1
 10
0.9021498819147669
 20
0.1681493039978752
 11
0.9099857406974814
 21
0.1598470250495227
 72
     1
 10
0.9099857406974813
 20
0.1598470250495225
 11
0.9183813036789613
 21
0.1509850419024051
 72
     1
 10
0.9183813036789612
 20
0.1509850419024052
 11
0.9271500027929521
 21
0.1418432066559046
 72
     1
 10
0.9271500027929509
 20
0.1418432066559046
 11
0.9358254178738118
 21
0.1326080873762767
 72
     1
 10
0.9358254178738132
 20
0.1326080873762767
 11
0.9442209808552931
 21
0.1237461042291589
 72
     1
 10
0.9442209808552931
 20
0.1237461042291589
 11
0.9520568396380092
 21
0.1154438252808068
 72
     1
 10
0.9520568396380092
 20
0.1154438252808068
 11
0.9590531421225751
 21
0.1079811026306025
 72
     1
 10
0.959053142122574
 20
0.1079811026306024
 11
0.9650233202427372
 21
0.101731072411056
 72
     1
 10
0.9650233202427376
 20
0.101731072411056
 11
0.9695942378659868
 21
0.0968803026884232
 72
     1
 10
0.9695942378659871
 20
0.096880302688423
 11
0.9725793269260696
 21
0.0938019295952138
 72
     1
 10
0.9725793269260698
 20
0.093801929595214
 11
0.9736054512904727
 21
0.0926825211976834
 72
     1
 10
0.9736054512904726
 20
0.0926825211976832
 11
0.9952473469760661
 21
0.0926825211976832
 72
     1
 10
0.9952473469760651
 20
0.0926825211976832
 11
0.9952473469760651
 21
0.2277578011663825
 72
     1
 10
0.9952473469760651
 20
0.2277578011663825
 11
0.9927286780816201
 21
0.2277578011663825
 72
     1
 10
0.9927286780816203
 20
0.2277578011663825
 11
0.9725793269260686
 21
0.2277578011663825
 97
        0
 75
     0
 76
     1
 98
        1
 10
-0.3743130907707726
 20
-0.2500502867693841
1001
ACAD
1010
0.0
1020
0.0
1030
0.0
  0
HATCH
  5
FE1C
330
FE14
100
AcDbEntity
  8
Kawneer Logo-English
100
AcDbHatch
 10
0.0
 20
0.0
 30
0.0
210
0.0
220
0.0
230
1.0
  2
SOLID
 70
     1
 71
     0
 91
        2
 92
       16
 93
       32
 72
     1
 10
0.5269615006757409
 20
0.144641727649731
 11
0.5290137494045469
 21
0.148652941074216
 72
     1
 10
0.5290137494045464
 20
0.1486529410742159
 11
0.5322786905640116
 21
0.1551828233931449
 72
     1
 10
0.532278690564012
 20
0.1551828233931452
 11
0.5364764720547521
 21
0.1633918183083696
 72
     1
 10
0.5364764720547526
 20
0.1633918183083696
 11
0.5409541056448736
 21
0.1722538014554874
 72
     1
 10
0.5409541056448726
 20
0.1722538014554873
 11
0.545338455201869
 21
0.1808359325032223
 72
     1
 10
0.5453384552018701
 20
0.1808359325032223
 11
0.5490698165269726
 21
0.1882053711202994
 72
     1
 10
0.549069816526973
 20
0.1882053711202996
 11
0.5515884854214162
 21
0.1932427089091875
 72
     1
 10
0.5515884854214148
 20
0.1932427089091872
 11
0.5526146097858177
 21
0.1952016736048658
 72
     1
 10
0.5526146097858194
 20
0.1952016736048658
 11
0.552801177852074
 21
0.195761377803631
 72
     1
 10
0.5528011778520723
 20
0.1957613778036309
 11
0.5533608820508379
 21
0.1970673542674166
 72
     1
 10
0.5533608820508378
 20
0.1970673542674169
 11
0.5542004383489863
 21
0.1990263189630955
 72
     1
 10
0.5542004383489872
 20
0.1990263189630952
 11
0.5550399946471356
 21
0.2012651357581567
 72
     1
 10
0.5550399946471352
 20
0.2012651357581567
 11
0.5555064148127727
 21
0.2001457273606265
 72
     1
 10
0.5555064148127729
 20
0.2001457273606264
 11
0.5560661190115385
 21
0.198933034929968
 72
     1
 10
0.5560661190115379
 20
0.198933034929968
 11
0.5567191072434298
 21
0.197533774433055
 72
     1
 10
0.5567191072434304
 20
0.197533774433055
 11
0.5574653795084506
 21
0.1959479458698865
 72
     1
 10
0.557465379508451
 20
0.1959479458698865
 11
0.5583049358065995
 21
0.1942688332735902
 72
     1
 10
0.5583049358065986
 20
0.1942688332735903
 11
0.5606370366347874
 21
0.1896046316172126
 72
     1
 10
0.5606370366347871
 20
0.1896046316172126
 11
0.5639952618273804
 21
0.1828881812320289
 72
     1
 10
0.5639952618273814
 20
0.1828881812320287
 11
0.5680064752518651
 21
0.1748657543830587
 72
     1
 10
0.5680064752518637
 20
0.1748657543830589
 11
0.57239082480886
 21
0.1661903393021966
 72
     1
 10
0.5723908248088612
 20
0.1661903393021967
 11
0.5765886062996012
 21
0.1577947763207168
 72
     1
 10
0.5765886062996
 20
0.1577947763207165
 11
0.5803199676247008
 21
0.1503320536705122
 72
     1
 10
0.5803199676247015
 20
0.1503320536705122
 11
0.5831184886185295
 21
0.144641727649731
 72
     1
 10
0.5831184886185295
 20
0.144641727649731
 11
0.5791072751940441
 21
0.144641727649731
 72
     1
 10
0.5791072751940436
 20
0.144641727649731
 11
0.5724841088419869
 21
0.144641727649731
 72
     1
 10
0.5724841088419872
 20
0.144641727649731
 11
0.5641818298936356
 21
0.144641727649731
 72
     1
 10
0.5641818298936352
 20
0.144641727649731
 11
0.5550399946471351
 21
0.144641727649731
 72
     1
 10
0.5550399946471352
 20
0.144641727649731
 11
0.5458981594006351
 21
0.144641727649731
 72
     1
 10
0.5458981594006352
 20
0.144641727649731
 11
0.5375958804522815
 21
0.144641727649731
 72
     1
 10
0.5375958804522814
 20
0.144641727649731
 11
0.5310659981333528
 21
0.144641727649731
 72
     1
 10
0.5310659981333524
 20
0.144641727649731
 11
0.5269615006757405
 21
0.144641727649731
 97
        0
 92
        1
 93
      141
 72
     1
 10
0.5656743744236757
 20
0.2277578011663825
 11
0.544405614870593
 21
0.2277578011663825
 72
     1
 10
0.544405614870593
 20
0.2277578011663825
 11
0.4748157261574382
 21
0.0934287934627039
 72
     1
 10
0.4748157261574378
 20
0.0934287934627039
 11
0.4729500454948865
 21
0.0955743262246376
 72
     1
 10
0.4729500454948874
 20
0.0955743262246376
 11
0.4699649564348049
 21
0.0991191194834847
 72
     1
 10
0.4699649564348043
 20
0.0991191194834847
 11
0.4661403110765752
 21
0.1036900371067346
 72
     1
 10
0.4661403110765754
 20
0.1036900371067347
 11
0.4615693934533244
 21
0.1091005110281331
 72
     1
 10
0.461569393453325
 20
0.109100511028133
 11
0.456345487598182
 21
0.1152572572145517
 72
     1
 10
0.4563454875981812
 20
0.1152572572145516
 11
0.4506551615774008
 21
0.1219737075997353
 72
     1
 10
0.4506551615774015
 20
0.1219737075997354
 11
0.4447782674903648
 21
0.1290632941174296
 72
     1
 10
0.4447782674903636
 20
0.1290632941174296
 11
0.4387148053370722
 21
0.1362461646682511
 72
     1
 10
0.4387148053370727
 20
0.1362461646682512
 11
0.4326513431837832
 21
0.1433357511859454
 72
     1
 10
0.4326513431837844
 20
0.1433357511859453
 11
0.4268677331298759
 21
0.1502387696373844
 72
     1
 10
0.4268677331298756
 20
0.1502387696373844
 11
0.4214572592084763
 21
0.1566753679231857
 72
     1
 10
0.4214572592084754
 20
0.1566753679231858
 11
0.4165132054527153
 21
0.1625522620102216
 72
     1
 10
0.4165132054527163
 20
0.1625522620102216
 11
0.4123154239619763
 21
0.1674963157659821
 72
     1
 10
0.4123154239619753
 20
0.1674963157659822
 11
0.4088639147362555
 21
0.1715075291904667
 72
     1
 10
0.4088639147362568
 20
0.1715075291904669
 11
0.4065318139080681
 21
0.1743993342174211
 72
     1
 10
0.4065318139080665
 20
0.1743993342174211
 11
0.405319121477409
 21
0.1757985947143345
 72
     1
 10
0.4053191214774104
 20
0.1757985947143345
 11
0.4067183819743243
 21
0.1769180031118651
 72
     1
 10
0.4067183819743235
 20
0.1769180031118651
 11
0.4094236189350213
 21
0.1788769678075437
 72
     1
 10
0.4094236189350218
 20
0.1788769678075437
 11
0.4132482642932526
 21
0.1816754888013702
 72
     1
 10
0.4132482642932525
 20
0.1816754888013703
 11
0.4179124659496298
 21
0.1852202820602174
 72
     1
 10
0.417912465949629
 20
0.1852202820602174
 11
0.4232296558379
 21
0.189138211451575
 72
     1
 10
0.4232296558379001
 20
0.1891382114515751
 11
0.4291065499249351
 21
0.1935225610085696
 72
     1
 10
0.4291065499249367
 20
0.1935225610085698
 11
0.4352632961113562
 21
0.1981867626649482
 72
     1
 10
0.4352632961113554
 20
0.1981867626649479
 11
0.4416066103640296
 21
0.2028509643213252
 72
     1
 10
0.4416066103640293
 20
0.2028509643213252
 11
0.4479499246167016
 21
0.2076084500108307
 72
     1
 10
0.4479499246167018
 20
0.2076084500108307
 11
0.4540133867699932
 21
0.2120860836009535
 72
     1
 10
0.4540133867699927
 20
0.2120860836009535
 11
0.4596104287576467
 21
0.2162838650916932
 72
     1
 10
0.4596104287576468
 20
0.216283865091693
 11
0.4646477665465351
 21
0.2200152264167952
 72
     1
 10
0.464647766546535
 20
0.2200152264167951
 11
0.4689388320704013
 21
0.223186883543132
 72
     1
 10
0.4689388320704016
 20
0.2231868835431323
 11
0.4721104891967386
 21
0.2256122684044488
 72
     1
 10
0.4721104891967376
 20
0.2256122684044488
 11
0.4742560219586717
 21
0.2271980969676172
 72
     1
 10
0.4742560219586727
 20
0.2271980969676173
 11
0.475002294223693
 21
0.2277578011663825
 72
     1
 10
0.4750022942236929
 20
0.2277578011663825
 11
0.4674462875403612
 21
0.2277578011663825
 72
     1
 10
0.4674462875403611
 20
0.2277578011663825
 11
0.4395543616352215
 21
0.2277578011663825
 72
     1
 10
0.439554361635222
 20
0.2277578011663825
 11
0.4386215213039473
 21
0.2270115289013622
 72
     1
 10
0.4386215213039466
 20
0.2270115289013622
 11
0.4359162843432469
 21
0.2250525642056836
 72
     1
 10
0.4359162843432465
 20
0.2250525642056836
 11
0.4318117868856346
 21
0.2220674751456017
 72
     1
 10
0.4318117868856351
 20
0.2220674751456017
 11
0.4264013129642376
 21
0.2180562617211167
 72
     1
 10
0.4264013129642379
 20
0.2180562617211168
 11
0.4200579987115638
 21
0.2132987760316117
 72
     1
 10
0.4200579987115641
 20
0.2132987760316114
 11
0.4128751281607416
 21
0.2079815861433408
 72
     1
 10
0.4128751281607408
 20
0.2079815861433408
 11
0.4051325534111546
 21
0.20229126012256
 72
     1
 10
0.4051325534111552
 20
0.20229126012256
 11
0.397016842529058
 21
0.1963210820023964
 72
     1
 10
0.3970168425290583
 20
0.1963210820023967
 11
0.3889011316469611
 21
0.1903509038822331
 72
     1
 10
0.3889011316469611
 20
0.190350903882233
 11
0.3808787047979902
 21
0.1844740097951972
 72
     1
 10
0.3808787047979898
 20
0.1844740097951974
 11
0.3733226981146581
 21
0.1787836837744166
 72
     1
 10
0.373322698114658
 20
0.1787836837744166
 11
0.3663263956300919
 21
0.173653061952401
 72
     1
 10
0.3663263956300931
 20
0.173653061952401
 11
0.3601696494436735
 21
0.169082144329151
 72
     1
 10
0.3601696494436726
 20
0.1690821443291508
 11
0.3550390276216579
 21
0.1653507830040483
 72
     1
 10
0.3550390276216584
 20
0.1653507830040482
 11
0.3513076662965558
 21
0.1625522620102218
 72
     1
 10
0.3513076662965551
 20
0.1625522620102216
 11
0.3490688495014928
 21
0.1609664334470531
 72
     1
 10
0.3490688495014926
 20
0.1609664334470531
 11
0.3490688495014926
 21
0.1631119662089868
 72
     1
 10
0.3490688495014926
 20
0.1631119662089868
 11
0.3490688495014926
 21
0.1662836233353237
 72
     1
 10
0.3490688495014926
 20
0.1662836233353238
 11
0.3490688495014926
 21
0.1702948367598088
 72
     1
 10
0.3490688495014926
 20
0.1702948367598088
 11
0.3490688495014926
 21
0.1749590384161865
 72
     1
 10
0.3490688495014926
 20
0.1749590384161865
 11
0.3490688495014926
 21
0.1801829442713294
 72
     1
 10
0.3490688495014926
 20
0.1801829442713296
 11
0.3490688495014926
 21
0.185779986258983
 72
     1
 10
0.3490688495014926
 20
0.1857799862589829
 11
0.3490688495014926
 21
0.1916568803460187
 72
     1
 10
0.3490688495014926
 20
0.1916568803460186
 11
0.3490688495014926
 21
0.1975337744330549
 72
     1
 10
0.3490688495014926
 20
0.197533774433055
 11
0.3490688495014926
 21
0.2033173844869632
 72
     1
 10
0.3490688495014926
 20
0.2033173844869631
 11
0.3490688495014926
 21
0.2088211424414888
 72
     1
 10
0.3490688495014926
 20
0.2088211424414888
 11
0.3490688495014926
 21
0.2139517642635044
 72
     1
 10
0.3490688495014926
 20
0.2139517642635044
 11
0.3490688495014926
 21
0.2185226818867544
 72
     1
 10
0.3490688495014926
 20
0.2185226818867545
 11
0.3490688495014926
 21
0.2222540432118567
 72
     1
 10
0.3490688495014926
 20
0.2222540432118567
 11
0.3490688495014926
 21
0.2252391322719387
 72
     1
 10
0.3490688495014926
 20
0.2252391322719387
 11
0.3490688495014926
 21
0.2271048129344895
 72
     1
 10
0.3490688495014926
 20
0.2271048129344895
 11
0.3490688495014926
 21
0.2277578011663825
 72
     1
 10
0.3490688495014926
 20
0.2277578011663825
 11
0.3258411252527322
 21
0.2277578011663825
 72
     1
 10
0.3258411252527336
 20
0.2277578011663825
 11
0.3258411252527336
 21
0.0926825211976832
 72
     1
 10
0.3258411252527336
 20
0.0926825211976832
 11
0.3486957133689848
 21
0.0926825211976832
 72
     1
 10
0.3486957133689845
 20
0.0926825211976832
 11
0.3486957133689845
 21
0.0943616337939795
 72
     1
 10
0.3486957133689845
 20
0.0943616337939795
 11
0.3486957133689845
 21
0.0988392673841017
 72
     1
 10
0.3486957133689845
 20
0.0988392673841017
 11
0.3486957133689845
 21
0.1051825816367752
 72
     1
 10
0.3486957133689845
 20
0.1051825816367753
 11
0.3486957133689845
 21
0.1125520202538523
 72
     1
 10
0.3486957133689845
 20
0.1125520202538524
 11
0.3486957133689845
 21
0.1200147429040567
 72
     1
 10
0.3486957133689845
 20
0.1200147429040567
 11
0.3486957133689845
 21
0.1267311932892408
 72
     1
 10
0.3486957133689845
 20
0.1267311932892408
 11
0.3486957133689845
 21
0.1317685310781287
 72
     1
 10
0.3486957133689845
 20
0.1317685310781289
 11
0.3486957133689845
 21
0.1342871999725727
 72
     1
 10
0.3486957133689845
 20
0.1342871999725725
 11
0.3507479620977905
 21
0.1356864604694859
 72
     1
 10
0.35074796209779
 20
0.1356864604694859
 11
0.3548524595554018
 21
0.1387648335626952
 72
     1
 10
0.3548524595554015
 20
0.1387648335626952
 11
0.3605427855761835
 21
0.1428693310203079
 72
     1
 10
0.3605427855761842
 20
0.1428693310203079
 11
0.3668860998288565
 21
0.1476268167098129
 72
     1
 10
0.3668860998288568
 20
0.1476268167098129
 11
0.373322698114659
 21
0.1522910183661906
 72
     1
 10
0.373322698114658
 20
0.1522910183661908
 11
0.3791995922016947
 21
0.1565820838900582
 72
     1
 10
0.3791995922016946
 20
0.1565820838900582
 11
0.3836772257918156
 21
0.1599403090826502
 72
     1
 10
0.3836772257918159
 20
0.1599403090826503
 11
0.386195894686261
 21
0.1618059897452011
 72
     1
 10
0.3861958946862609
 20
0.1618059897452011
 11
0.3873153030837921
 21
0.1604067292482882
 72
     1
 10
0.3873153030837915
 20
0.1604067292482878
 11
0.3894608358457238
 21
0.1577947763207163
 72
     1
 10
0.3894608358457248
 20
0.1577947763207165
 11
0.3925392089389353
 21
0.1541566990287417
 72
     1
 10
0.3925392089389348
 20
0.1541566990287417
 11
0.396457138330292
 21
0.149492497372364
 72
     1
 10
0.3964571383302933
 20
0.149492497372364
 11
0.4009347719204161
 21
0.1442685915172211
 72
     1
 10
0.4009347719204146
 20
0.1442685915172209
 11
0.4057855416430466
 21
0.138391697430185
 72
     1
 10
0.4057855416430463
 20
0.1383916974301853
 11
0.4109161634650628
 21
0.1322349512437666
 72
     1
 10
0.410916163465064
 20
0.1322349512437666
 11
0.4162333533533335
 21
0.1259849210242201
 72
     1
 10
0.4162333533533334
 20
0.1259849210242201
 11
0.4215505432416044
 21
0.1196416067715466
 72
     1
 10
0.4215505432416045
 20
0.1196416067715466
 11
0.4265878810304927
 21
0.113671428651383
 72
     1
 10
0.4265878810304931
 20
0.1136714286513832
 11
0.4312520826868704
 21
0.1079811026306024
 72
     1
 10
0.4312520826868696
 20
0.1079811026306024
 11
0.4355431482107378
 21
0.1029437648417141
 72
     1
 10
0.435543148210738
 20
0.1029437648417139
 11
0.4390879414695842
 21
0.0987459833509739
 72
     1
 10
0.4390879414695843
 20
0.0987459833509741
 11
0.4417931784302841
 21
0.0954810421915098
 72
     1
 10
0.4417931784302845
 20
0.0954810421915096
 11
0.4435655750597076
 21
0.0934287934627037
 72
     1
 10
0.4435655750597074
 20
0.0934287934627039
 11
0.4442185632915993
 21
0.0926825211976832
 72
     1
 10
0.4442185632915985
 20
0.0926825211976832
 11
0.4743493059918004
 21
0.0926825211976832
 72
     1
 10
0.4743493059918001
 20
0.0926825211976832
 11
0.4753754303562029
 21
0.0926825211976832
 72
     1
 10
0.4753754303562033
 20
0.0926825211976832
 11
0.5008419714000258
 21
0.0926825211976832
 72
     1
 10
0.5008419714000265
 20
0.0926825211976832
 11
0.5014949596319184
 21
0.0939884976614689
 72
     1
 10
0.501494959631919
 20
0.0939884976614688
 11
0.5031740722282155
 21
0.0973467228540609
 72
     1
 10
0.503174072228215
 20
0.0973467228540612
 11
0.5055061730564038
 21
0.1021042085435666
 72
     1
 10
0.505506173056403
 20
0.1021042085435665
 11
0.5083046940502291
 21
0.1077012505312196
 72
     1
 10
0.5083046940502292
 20
0.1077012505312194
 11
0.5111032150440553
 21
0.1134848605851279
 72
     1
 10
0.5111032150440549
 20
0.1134848605851281
 11
0.5137151679716264
 21
0.1186154824071433
 72
     1
 10
0.5137151679716277
 20
0.1186154824071433
 11
0.5156741326673071
 21
0.1226266958316283
 72
     1
 10
0.5156741326673076
 20
0.122626695831628
 11
0.5167002570317104
 21
0.1247722285935621
 72
     1
 10
0.5167002570317103
 20
0.1247722285935622
 11
0.5180062334954961
 21
0.1247722285935622
 72
     1
 10
0.5180062334954961
 20
0.1247722285935622
 11
0.5207114704561957
 21
0.1247722285935622
 72
     1
 10
0.5207114704561944
 20
0.1247722285935622
 11
0.5246293998475517
 21
0.1247722285935622
 72
     1
 10
0.5246293998475525
 20
0.1247722285935622
 11
0.5295734536033125
 21
0.1247722285935622
 72
     1
 10
0.5295734536033115
 20
0.1247722285935622
 11
0.5352637796240919
 21
0.1247722285935622
 72
     1
 10
0.5352637796240929
 20
0.1247722285935622
 11
0.5415138098436386
 21
0.1247722285935622
 72
     1
 10
0.5415138098436394
 20
0.1247722285935622
 11
0.5482302602288245
 21
0.1247722285935622
 72
     1
 10
0.5482302602288236
 20
0.1247722285935622
 11
0.5551332786802616
 21
0.1247722285935622
 72
     1
 10
0.5551332786802608
 20
0.1247722285935622
 11
0.5620362971317004
 21
0.1247722285935622
 72
     1
 10
0.5620362971317015
 20
0.1247722285935622
 11
0.5687527475168847
 21
0.1247722285935622
 72
     1
 10
0.5687527475168839
 20
0.1247722285935622
 11
0.5750027777364317
 21
0.1247722285935622
 72
     1
 10
0.5750027777364322
 20
0.1247722285935622
 11
0.5806931037572126
 21
0.1247722285935622
 72
     1
 10
0.5806931037572119
 20
0.1247722285935622
 11
0.585637157512972
 21
0.1247722285935622
 72
     1
 10
0.5856371575129727
 20
0.1247722285935622
 11
0.5895550869043299
 21
0.1247722285935622
 72
     1
 10
0.5895550869043289
 20
0.1247722285935622
 11
0.5922603238650286
 21
0.1247722285935622
 72
     1
 10
0.5922603238650291
 20
0.1247722285935622
 11
0.5935663003288148
 21
0.1247722285935622
 72
     1
 10
0.5935663003288148
 20
0.1247722285935622
 11
0.5945924246932176
 21
0.1226266958316281
 72
     1
 10
0.5945924246932175
 20
0.122626695831628
 11
0.5965513893888953
 21
0.1186154824071431
 72
     1
 10
0.5965513893888957
 20
0.1186154824071433
 11
0.5991633423164672
 21
0.1134848605851281
 72
     1
 10
0.5991633423164667
 20
0.1134848605851281
 11
0.6019618633102946
 21
0.1077012505312196
 72
     1
 10
0.6019618633102959
 20
0.1077012505312194
 11
0.604760384304122
 21
0.1021042085435664
 72
     1
 10
0.6047603843041221
 20
0.1021042085435665
 11
0.6070924851323109
 21
0.0973467228540611
 72
     1
 10
0.6070924851323101
 20
0.0973467228540612
 11
0.6087715977286067
 21
0.0939884976614691
 72
     1
 10
0.6087715977286062
 20
0.0939884976614688
 11
0.609424585960498
 21
0.0926825211976832
 72
     1
 10
0.6094245859604986
 20
0.0926825211976832
 11
0.6363836715343633
 21
0.0926825211976832
 72
     1
 10
0.6363836715343641
 20
0.0926825211976832
 11
0.5671669189537184
 21
0.2277578011663825
 72
     1
 10
0.5671669189537179
 20
0.2277578011663825
 11
0.5656743744236758
 21
0.2277578011663825
 97
        0
 75
     0
 76
     1
 98
        1
 10
-0.3743130907707726
 20
-0.2500502867693841
1001
ACAD
1010
0.0
1020
0.0
1030
0.0
  0
HATCH
  5
FE1D
330
FE14
100
AcDbEntity
  8
Kawneer Logo-English
100
AcDbHatch
 10
0.0
 20
0.0
 30
0.0
210
0.0
220
0.0
230
1.0
  2
SOLID
 70
     1
 71
     0
 91
        1
 92
        1
 93
       69
 72
     1
 10
0.8092389849197205
 20
0.2277578011663825
 11
0.778921674153266
 21
0.1309289747799811
 72
     1
 10
0.778921674153267
 20
0.1309289747799809
 11
0.7781754018882468
 21
0.1287834420180468
 72
     1
 10
0.7781754018882468
 20
0.1287834420180467
 11
0.7776156976894812
 21
0.1270110453886236
 72
     1
 10
0.7776156976894813
 20
0.1270110453886237
 11
0.7771492775238438
 21
0.1253319327923275
 72
     1
 10
0.7771492775238436
 20
0.1253319327923274
 11
0.7766828573582045
 21
0.1238393882622867
 72
     1
 10
0.7766828573582046
 20
0.1238393882622866
 11
0.7764030052588217
 21
0.1248655126266895
 72
     1
 10
0.776403005258822
 20
0.1248655126266896
 11
0.7761231531594392
 21
0.1259849210242202
 72
     1
 10
0.7761231531594391
 20
0.1259849210242201
 11
0.7759365850931844
 21
0.1268244773223681
 72
     1
 10
0.7759365850931843
 20
0.1268244773223682
 11
0.7758433010600562
 21
0.1271976134548783
 72
     1
 10
0.7758433010600552
 20
0.1271976134548783
 11
0.7755634489606744
 21
0.1280371697530267
 72
     1
 10
0.775563448960674
 20
0.1280371697530267
 11
0.7750970287950349
 21
0.1291565781505569
 72
     1
 10
0.7750970287950363
 20
0.1291565781505568
 11
0.773977620397507
 21
0.1323282352768938
 72
     1
 10
0.7739776203975062
 20
0.1323282352768939
 11
0.7721119397349549
 21
0.1372722890326544
 72
     1
 10
0.7721119397349554
 20
0.1372722890326546
 11
0.7697798389067666
 21
0.1436156032853281
 72
     1
 10
0.769779838906767
 20
0.1436156032853281
 11
0.7670746019460673
 21
0.1511716099686602
 72
     1
 10
0.7670746019460668
 20
0.15117160996866
 11
0.7639962288528581
 21
0.1595671729501399
 72
     1
 10
0.7639962288528582
 20
0.15956717295014
 11
0.7606380036602665
 21
0.1686157241635125
 72
     1
 10
0.7606380036602652
 20
0.1686157241635125
 11
0.7572797784676718
 21
0.1778508434431408
 72
     1
 10
0.7572797784676726
 20
0.1778508434431408
 11
0.753921553275081
 21
0.187179246755896
 72
     1
 10
0.7539215532750814
 20
0.1871792467558961
 11
0.7505633280824898
 21
0.1962277979692689
 72
     1
 10
0.7505633280824902
 20
0.1962277979692689
 11
0.7474849549892814
 21
0.2046233609507488
 72
     1
 10
0.7474849549892797
 20
0.2046233609507488
 11
0.74477971802858
 21
0.2121793676340809
 72
     1
 10
0.7447797180285814
 20
0.2121793676340809
 11
0.7424476172003926
 21
0.2185226818867544
 72
     1
 10
0.7424476172003929
 20
0.2185226818867545
 11
0.7405819365378416
 21
0.2234667356425151
 72
     1
 10
0.7405819365378408
 20
0.2234667356425151
 11
0.7394625281403098
 21
0.2266383927688516
 72
     1
 10
0.7394625281403103
 20
0.2266383927688516
 11
0.7390893920078009
 21
0.2277578011663822
 72
     1
 10
0.7390893920078004
 20
0.2277578011663825
 11
0.7191266089185034
 21
0.2277578011663825
 72
     1
 10
0.7191266089185029
 20
0.2277578011663825
 11
0.6843316645619254
 21
0.1336342117406798
 72
     1
 10
0.6843316645619267
 20
0.1336342117406795
 11
0.6832122561643957
 21
0.130649122680598
 72
     1
 10
0.6832122561643961
 20
0.1306491226805981
 11
0.6823726998662476
 21
0.1282237378192816
 72
     1
 10
0.6823726998662468
 20
0.1282237378192818
 11
0.6817197116343549
 21
0.1260782050573481
 72
     1
 10
0.6817197116343552
 20
0.1260782050573481
 11
0.6811600074355896
 21
0.1241192403616695
 72
     1
 10
0.6811600074355884
 20
0.1241192403616695
 11
0.6808801553362055
 21
0.1250520806929446
 72
     1
 10
0.6808801553362059
 20
0.1250520806929445
 11
0.6805070192036949
 21
0.1261714890904751
 72
     1
 10
0.680507019203696
 20
0.1261714890904752
 11
0.6802271671043131
 21
0.1272908974880058
 72
     1
 10
0.680227167104313
 20
0.1272908974880061
 11
0.6798540309718037
 21
0.1286901579849195
 72
     1
 10
0.6798540309718031
 20
0.1286901579849194
 11
0.6794808948392922
 21
0.12980956638245
 72
     1
 10
0.6794808948392932
 20
0.1298095663824503
 11
0.6784547704748904
 21
0.1328879394756595
 72
     1
 10
0.67845477047489
 20
0.1328879394756595
 11
0.6769622259448497
 21
0.1378319932314196
 72
     1
 10
0.6769622259448496
 20
0.1378319932314196
 11
0.6750032612491701
 21
0.1441753074840938
 72
     1
 10
0.6750032612491697
 20
0.1441753074840937
 11
0.6725778763878547
 21
0.1516380301342981
 72
     1
 10
0.6725778763878556
 20
0.1516380301342981
 11
0.6699659234602841
 21
0.160033593115778
 72
     1
 10
0.6699659234602829
 20
0.160033593115778
 11
0.6671674024664549
 21
0.168988860296023
 72
     1
 10
0.6671674024664554
 20
0.168988860296023
 11
0.6642755974395012
 21
0.1782239795756509
 72
     1
 10
0.6642755974395019
 20
0.178223979575651
 11
0.6613837924125477
 21
0.1874590988552789
 72
     1
 10
0.6613837924125466
 20
0.1874590988552789
 11
0.6585852714187205
 21
0.1964143660355239
 72
     1
 10
0.6585852714187204
 20
0.1964143660355237
 11
0.6559733184911489
 21
0.2047166449838762
 72
     1
 10
0.6559733184911494
 20
0.2047166449838765
 11
0.6536412176629606
 21
0.2122726516672082
 72
     1
 10
0.6536412176629614
 20
0.2122726516672082
 11
0.6515889689341538
 21
0.2186159659198823
 72
     1
 10
0.6515889689341537
 20
0.2186159659198821
 11
0.6500964244041133
 21
0.2234667356425149
 72
     1
 10
0.6500964244041132
 20
0.2234667356425151
 11
0.6490703000397104
 21
0.2266383927688516
 72
     1
 10
0.6490703000397105
 20
0.2266383927688516
 11
0.6487904479403276
 21
0.2277578011663822
 72
     1
 10
0.648790447940328
 20
0.2277578011663825
 11
0.6237903270621445
 21
0.2277578011663825
 72
     1
 10
0.6237903270621437
 20
0.2277578011663825
 11
0.6676338226320932
 21
0.0926825211976832
 72
     1
 10
0.6676338226320926
 20
0.0926825211976832
 11
0.6922608073777669
 21
0.0926825211976832
 72
     1
 10
0.6922608073777666
 20
0.0926825211976832
 11
0.726029627369941
 21
0.1855001341596003
 72
     1
 10
0.7260296273699423
 20
0.1855001341596003
 11
0.7269624677012189
 21
0.1882986551534267
 72
     1
 10
0.7269624677012177
 20
0.1882986551534266
 11
0.7278020239993661
 21
0.1906307559816158
 72
     1
 10
0.727802023999367
 20
0.1906307559816159
 11
0.7284550122312589
 21
0.1927762887435496
 72
     1
 10
0.7284550122312581
 20
0.1927762887435495
 11
0.7290147164300237
 21
0.1947352534392281
 72
     1
 10
0.7290147164300232
 20
0.1947352534392282
 11
0.7298542727281716
 21
0.192216584544784
 72
     1
 10
0.729854272728173
 20
0.1922165845447839
 11
0.7306938290263214
 21
0.1894180635509575
 72
     1
 10
0.7306938290263206
 20
0.1894180635509575
 11
0.7318132374238499
 21
0.1863396904577483
 72
     1
 10
0.7318132374238511
 20
0.1863396904577481
 11
0.7331192138876387
 21
0.1827016131657736
 72
     1
 10
0.7331192138876382
 20
0.1827016131657737
 11
0.7654887733828987
 21
0.0926825211976834
 72
     1
 10
0.7654887733828986
 20
0.0926825211976832
 11
0.7895560539298075
 21
0.0926825211976832
 72
     1
 10
0.7895560539298075
 20
0.0926825211976832
 11
0.8341458217647785
 21
0.2277578011663825
 72
     1
 10
0.8341458217647783
 20
0.2277578011663825
 11
0.830601028505932
 21
0.2277578011663825
 72
     1
 10
0.8306010285059324
 20
0.2277578011663825
 11
0.8092389849197216
 21
0.2277578011663825
 97
        0
 75
     0
 76
     1
 98
        1
 10
-0.3743130907707726
 20
-0.2500502867693841
1001
ACAD
1010
0.0
1020
0.0
1030
0.0
  0
ENDBLK
  5
FE21
330
FE14
100
AcDbEntity
  8
0
100
AcDbBlockEnd
  0
ENDSEC
  0
SECTION
  2
ENTITIES
  0
LINE
  5
20CE
330
17
100
AcDbEntity
  8
0
100
AcDbLine
 10
0.0
 20
0.0
 30
0.0
 11
0.0
 21
48.97780244374283
 31
0.0
  0
LINE
  5
20CF
330
17
100
AcDbEntity
  8
0
100
AcDbLine
 10
0.0
 20
0.0
 30
0.0
 11
76.07433584118723
 21
0.0
 31
0.0
  0
LINE
  5
F07D
330
17
100
AcDbEntity
  8
R-SWTS-DET3
100
AcDbLine
 10
51.80290111478844
 20
20.6883110379515
 30
0.0
 11
51.0425763630036
 21
19.92798628616666
 31
0.0
  0
LINE
  5
F07E
330
17
100
AcDbEntity
  8
R-SWTS-DET3
100
AcDbLine
 10
51.80290111478846
 20
32.65108395658091
 30
0.0
 11
51.04257636300363
 21
33.41140870836576
 31
0.0
  0
LINE
  5
F083
330
17
100
AcDbEntity
  8
0
 62
     1
100
AcDbLine
 10
51.42552703304907
 20
28.91633984132057
 30
0.0
 11
53.066112991546
 21
28.91633984132057
 31
0.0
  0
LINE
  5
F084
330
17
100
AcDbEntity
  8
0
 62
     1
100
AcDbLine
 10
51.42552703304907
 20
24.42396597061187
 30
0.0
 11
53.066112991546
 21
24.42396597061187
 31
0.0
  0
LINE
  5
F085
330
17
100
AcDbEntity
  8
0
 62
     1
100
AcDbLine
 10
51.96800376379916
 20
21.21528113269162
 30
0.0
 11
47.1665576543971
 21
21.21528113269162
 31
0.0
  0
LINE
  5
F086
330
17
100
AcDbEntity
  8
0
 62
     5
100
AcDbLine
 10
47.16545536903467
 20
20.6883110379515
 30
0.0
 11
59.02566863345433
 21
20.6883110379515
 31
0.0
  0
LINE
  5
F087
330
17
100
AcDbEntity
  8
0
100
AcDbLine
 10
52.28300376379917
 20
20.96528113269162
 30
0.0
 11
49.02800376379918
 21
20.96528113269163
 31
0.0
  0
LINE
  5
F088
330
17
100
AcDbEntity
  8
0
100
AcDbLine
 10
49.02800376379918
 20
20.71528113269162
 30
0.0
 11
57.40800376379915
 21
20.71528113269162
 31
0.0
  0
LINE
  5
F090
330
17
100
AcDbEntity
  8
0
 62
     1
100
AcDbLine
 10
51.96800376379916
 20
23.71528113269162
 30
0.0
 11
47.1665576543971
 21
23.71528113269162
 31
0.0
  0
LINE
  5
F091
330
17
100
AcDbEntity
  8
0
100
AcDbLine
 10
49.02800376379918
 20
32.62502467924082
 30
0.0
 11
57.40800376379915
 21
32.62502467924082
 31
0.0
  0
LINE
  5
F092
330
17
100
AcDbEntity
  8
0
100
AcDbLine
 10
52.28300376379917
 20
32.37502467924082
 30
0.0
 11
49.02800376379918
 21
32.3750246792408
 31
0.0
  0
TEXT
  5
F093
330
17
100
AcDbEntity
  8
0
  6
Continuous
 62
     7
100
AcDbText
 10
48.87761777374877
 20
17.6104104991258
 30
0.0
 40
0.375
  1
EXTERIOR VIEW AT HEAD & SILL
 72
     1
 11
53.0258953999425
 21
17.6104104991258
 31
0.0
100
AcDbText
  0
TEXT
  5
F094
330
17
100
AcDbEntity
  8
0
  6
Continuous
 62
     2
100
AcDbText
 10
50.48234904683641
 20
18.41372926950556
 30
0.0
 40
0.375
  1
"T-ANCHOR" DETAIL
 72
     1
 11
53.04045784629071
 21
18.41372926950556
 31
0.0
100
AcDbText
  0
LINE
  5
F095
330
17
100
AcDbEntity
  8
0
 62
     5
100
AcDbLine
 10
47.16545536903467
 20
32.65199477398094
 30
0.0
 11
59.02566863345433
 21
32.65199477398094
 31
0.0
  0
LINE
  5
F096
330
17
100
AcDbEntity
  8
0
 62
     1
100
AcDbLine
 10
51.96800376379916
 20
29.62502467924082
 30
0.0
 11
47.1665576543971
 21
29.62502467924082
 31
0.0
  0
LINE
  5
F097
330
17
100
AcDbEntity
  8
0
 62
     1
100
AcDbLine
 10
51.96800376379916
 20
32.12502467924082
 30
0.0
 11
47.1665576543971
 21
32.12502467924082
 31
0.0
  0
LINE
  5
F09F
330
17
100
AcDbEntity
  8
PART_NUMBERS
100
AcDbLine
 10
21.27970439302826
 20
24.03928175510405
 30
0.0
 11
21.81617306718583
 21
24.85488347354002
 31
0.0
  0
TEXT
  5
F0A1
330
17
100
AcDbEntity
  8
R-ANNO-DIMS
  6
ByBlock
100
AcDbText
 10
13.41976025293394
 20
24.7800787523952
 30
0.0
 40
0.25
  1
OPENING DIMENSION
 50
90.0
 72
     1
 11
13.29476025293394
 21
26.62353032129015
 31
0.0
100
AcDbText
 73
     2
  0
TEXT
  5
F0A9
330
17
100
AcDbEntity
  8
0
  6
Continuous
 62
     2
100
AcDbText
 10
13.11795523822475
 20
17.73557258767705
 30
0.0
 40
0.375
  1
SECTION THRU "F" and "T" ANCHOR
 72
     1
 11
17.6376516911579
 21
17.73557258767705
 31
0.0
100
AcDbText
  0
SOLID
  5
F221
330
17
100
AcDbEntity
  8
PART_NUMBERS
100
AcDbTrace
 10
21.25359597188658
 20
24.05645478178805
 30
0.0
 11
21.30581281416991
 21
24.02210872842005
 31
0.0
 12
21.17666623292425
 22
23.88263122825405
 32
0.0
 13
21.17666623292425
 23
23.88263122825405
 33
0.0
  0
LINE
  5
F22A
330
17
100
AcDbEntity
  8
R-SWTS-DET3
100
AcDbLine
 10
51.05290111478844
 20
20.6883110379515
 30
0.0
 11
50.29257636300361
 21
19.92798628616666
 31
0.0
  0
LINE
  5
F22B
330
17
100
AcDbEntity
  8
R-SWTS-DET3
100
AcDbLine
 10
49.55290111478844
 20
20.6883110379515
 30
0.0
 11
48.7925763630036
 21
19.92798628616666
 31
0.0
  0
LINE
  5
F22C
330
17
100
AcDbEntity
  8
R-SWTS-DET3
100
AcDbLine
 10
48.05290111478844
 20
20.6883110379515
 30
0.0
 11
47.2925763630036
 21
19.92798628616666
 31
0.0
  0
LINE
  5
F22D
330
17
100
AcDbEntity
  8
R-SWTS-DET3
100
AcDbLine
 10
48.80290111478844
 20
20.6883110379515
 30
0.0
 11
48.0425763630036
 21
19.92798628616666
 31
0.0
  0
LINE
  5
F22E
330
17
100
AcDbEntity
  8
R-SWTS-DET3
100
AcDbLine
 10
50.30290111478844
 20
20.6883110379515
 30
0.0
 11
49.5425763630036
 21
19.92798628616666
 31
0.0
  0
LINE
  5
F22F
330
17
100
AcDbEntity
  8
0
 62
     1
100
AcDbLine
 10
47.16545536903467
 20
22.30101014653623
 30
0.0
 11
47.16545536903467
 21
19.54986879739268
 31
0.0
  0
LINE
  5
F230
330
17
100
AcDbEntity
  8
0
 62
     1
100
AcDbLine
 10
47.13434140591715
 20
24.20220719766433
 30
0.0
 11
47.13434140591715
 21
22.5616212391674
 31
0.0
  0
LINE
  5
F231
330
17
100
AcDbEntity
  8
0
 62
     1
100
AcDbLine
 10
46.68178584172858
 20
22.41270070820669
 30
0.0
 11
47.57471429313111
 21
22.33824044272634
 31
0.0
  0
LINE
  5
F232
330
17
100
AcDbEntity
  8
0
 62
     1
100
AcDbLine
 10
47.13434140591715
 20
22.5616212391674
 30
0.0
 11
46.68178584172858
 21
22.41270070820669
 31
0.0
  0
LINE
  5
F233
330
17
100
AcDbEntity
  8
0
 62
     1
100
AcDbLine
 10
47.57471429313111
 20
22.33824044272634
 30
0.0
 11
47.16545536903467
 21
22.30101014653623
 31
0.0
  0
LINE
  5
F235
330
17
100
AcDbEntity
  8
0
100
AcDbLine
 10
48.96800376379918
 20
20.90528113269163
 30
0.0
 11
48.96800376379918
 21
20.77528113269162
 31
0.0
  0
ARC
  5
F236
330
17
100
AcDbEntity
  8
0
100
AcDbCircle
 10
49.02800376379918
 20
20.90528113269163
 30
0.0
 40
0.0600000000000023
100
AcDbArc
 50
90.0
 51
180.0
  0
ARC
  5
F237
330
17
100
AcDbEntity
  8
0
100
AcDbCircle
 10
49.02800376379918
 20
20.77528113269162
 30
0.0
 40
0.0600000000000023
100
AcDbArc
 50
180.0
 51
270.0
  0
TEXT
  5
F242
330
17
100
AcDbEntity
  8
PART_NUMBERS
100
AcDbText
 10
22.57485497521562
 20
28.35099589785553
 30
0.0
 40
0.25
  1
162327 "F" ANCHOR or
100
AcDbText
  0
LINE
  5
F267
330
17
100
AcDbEntity
  8
PART_NUMBERS
100
AcDbLine
 10
21.81617306718584
 20
24.85488347354002
 30
0.0
 11
22.38593450559847
 21
24.85488347354002
 31
0.0
  0
LINE
  5
F268
330
17
100
AcDbEntity
  8
PART_NUMBERS
100
AcDbLine
 10
21.27970439302827
 20
29.26768250849394
 30
0.0
 11
21.81617306718583
 21
28.45208079005797
 31
0.0
  0
LINE
  5
F269
330
17
100
AcDbEntity
  8
PART_NUMBERS
100
AcDbLine
 10
21.81617306718584
 20
28.45208079005797
 30
0.0
 11
22.38593450559847
 21
28.45208079005797
 31
0.0
  0
SOLID
  5
F26A
330
17
100
AcDbEntity
  8
PART_NUMBERS
100
AcDbTrace
 10
21.2535959718866
 20
29.25050948180994
 30
0.0
 11
21.30581281416993
 21
29.28485553517794
 31
0.0
 12
21.17666623292426
 22
29.42433303534394
 32
0.0
 13
21.17666623292426
 23
29.42433303534394
 33
0.0
  0
LINE
  5
F2D1
330
17
100
AcDbEntity
  8
0
 62
     1
100
AcDbLine
 10
47.13434140591715
 20
29.13809861426811
 30
0.0
 11
47.13434140591715
 21
30.77868457276504
 31
0.0
  0
LINE
  5
F2D3
330
17
100
AcDbEntity
  8
R-SWTS-DET3
100
AcDbLine
 10
48.05290111478846
 20
32.65108395658091
 30
0.0
 11
47.29257636300363
 21
33.41140870836576
 31
0.0
  0
LINE
  5
F2D4
330
17
100
AcDbEntity
  8
0
 62
     1
100
AcDbLine
 10
47.16545536903467
 20
31.0392956653962
 30
0.0
 11
47.16545536903467
 21
33.79043701453976
 31
0.0
  0
LINE
  5
F2D5
330
17
100
AcDbEntity
  8
0
 62
     1
100
AcDbLine
 10
46.68178584172858
 20
30.92760510372575
 30
0.0
 11
47.57471429313111
 21
31.0020653692061
 31
0.0
  0
LINE
  5
F2D6
330
17
100
AcDbEntity
  8
0
 62
     1
100
AcDbLine
 10
47.13434140591715
 20
30.77868457276504
 30
0.0
 11
46.68178584172858
 21
30.92760510372575
 31
0.0
  0
LINE
  5
F2D7
330
17
100
AcDbEntity
  8
0
 62
     1
100
AcDbLine
 10
47.57471429313111
 20
31.0020653692061
 30
0.0
 11
47.16545536903467
 21
31.0392956653962
 31
0.0
  0
LINE
  5
F2DF
330
17
100
AcDbEntity
  8
R-SWTS-DET3
100
AcDbLine
 10
50.30290111478847
 20
32.65108395658091
 30
0.0
 11
49.54257636300363
 21
33.41140870836576
 31
0.0
  0
LINE
  5
F2E0
330
17
100
AcDbEntity
  8
R-SWTS-DET3
100
AcDbLine
 10
49.55290111478847
 20
32.65108395658091
 30
0.0
 11
48.79257636300363
 21
33.41140870836576
 31
0.0
  0
LINE
  5
F2E1
330
17
100
AcDbEntity
  8
R-SWTS-DET3
100
AcDbLine
 10
48.80290111478847
 20
32.65108395658091
 30
0.0
 11
48.04257636300363
 21
33.41140870836576
 31
0.0
  0
ARC
  5
F2E2
330
17
100
AcDbEntity
  8
0
100
AcDbCircle
 10
49.02800376379918
 20
32.56502467924081
 30
0.0
 40
0.0600000000000023
100
AcDbArc
 50
90.0
 51
180.0
  0
LINE
  5
F2E3
330
17
100
AcDbEntity
  8
0
100
AcDbLine
 10
48.96800376379918
 20
32.43502467924081
 30
0.0
 11
48.96800376379918
 21
32.56502467924081
 31
0.0
  0
ARC
  5
F2E4
330
17
100
AcDbEntity
  8
0
100
AcDbCircle
 10
49.02800376379918
 20
32.43502467924081
 30
0.0
 40
0.0600000000000023
100
AcDbArc
 50
180.0
 51
270.0
  0
LINE
  5
F2E5
330
17
100
AcDbEntity
  8
R-SWTS-DET3
100
AcDbLine
 10
51.05290111478847
 20
32.65108395658091
 30
0.0
 11
50.29257636300363
 21
33.41140870836576
 31
0.0
  0
LINE
  5
F2E6
330
17
100
AcDbEntity
  8
R-SWTS-DET3
  6
CENTER
100
AcDbLine
 10
51.21800376379916
 20
34.20056121907685
 30
0.0
 11
51.21800376379917
 21
32.23227714762592
 31
0.0
  0
LINE
  5
F2E7
330
17
100
AcDbEntity
  8
R-SWTS-DET3
  6
CENTER
100
AcDbLine
 10
49.71800376379917
 20
34.20056121907685
 30
0.0
 11
49.71800376379916
 21
32.23227714762592
 31
0.0
  0
LINE
  5
F2E8
330
17
100
AcDbEntity
  8
0
 62
     1
100
AcDbLine
 10
32.22930745907858
 20
24.87652153480044
 30
0.0
 11
32.30376772455894
 21
23.98359308339792
 31
0.0
  0
LINE
  5
F2E9
330
17
100
AcDbEntity
  8
0
 62
     1
100
AcDbLine
 10
32.30376772455894
 20
23.98359308339792
 30
0.0
 11
32.34382845887589
 21
24.42396597061188
 31
0.0
  0
LINE
  5
F2EA
330
17
100
AcDbEntity
  8
0
 62
     1
100
AcDbLine
 10
53.28949378798707
 20
23.98359308339792
 30
0.0
 11
53.32955452230402
 21
24.42396597061188
 31
0.0
  0
LINE
  5
F2EB
330
17
100
AcDbEntity
  8
0
 62
     1
100
AcDbLine
 10
53.21503352250672
 20
24.87652153480044
 30
0.0
 11
53.28949378798707
 21
23.98359308339792
 31
0.0
  0
LINE
  5
F2EC
330
17
100
AcDbEntity
  8
0
 62
     1
100
AcDbLine
 10
33.48227770037103
 20
24.42396597061191
 30
0.0
 11
33.48227770037103
 21
21.21528113269164
 31
0.0
  0
LINE
  5
F2ED
330
17
100
AcDbEntity
  8
0
  6
HIDDEN
 62
     1
100
AcDbLine
 10
33.38227770037104
 20
24.4239659706119
 30
0.0
 11
33.38227770037104
 21
21.21528113269164
 31
0.0
  0
LINE
  5
F2EE
330
17
100
AcDbEntity
  8
0
 62
     1
100
AcDbLine
 10
30.98227770037103
 20
24.42396597061187
 30
0.0
 11
30.98227770037103
 21
21.21528113269164
 31
0.0
  0
LINE
  5
F2EF
330
17
100
AcDbEntity
  8
0
  6
HIDDEN
 62
     1
100
AcDbLine
 10
31.08227770037102
 20
24.42396597061187
 30
0.0
 11
31.08227770037102
 21
21.21528113269164
 31
0.0
  0
LINE
  5
F2F0
330
17
100
AcDbEntity
  8
0
  6
HIDDEN
 62
     1
100
AcDbLine
 10
54.36800376379917
 20
24.39285200749434
 30
0.0
 11
54.36800376379917
 21
21.21528113269162
 31
0.0
  0
LINE
  5
F2F1
330
17
100
AcDbEntity
  8
0
 62
     1
100
AcDbLine
 10
54.46800376379917
 20
24.39285200749434
 30
0.0
 11
54.46800376379917
 21
21.21528113269162
 31
0.0
  0
LINE
  5
F2F2
330
17
100
AcDbEntity
  8
0
  6
HIDDEN
 62
     1
100
AcDbLine
 10
52.06800376379916
 20
24.42396597061187
 30
0.0
 11
52.06800376379916
 21
21.21528113269162
 31
0.0
  0
LINE
  5
F2F3
330
17
100
AcDbEntity
  8
0
 62
     1
100
AcDbLine
 10
51.96800376379916
 20
24.42396597061187
 30
0.0
 11
51.96800376379916
 21
21.21528113269162
 31
0.0
  0
LINE
  5
F2F4
330
17
100
AcDbEntity
  8
R-SWTS-DET3
100
AcDbLine
 10
35.00413010951415
 20
20.6883110379515
 30
0.0
 11
34.24380535772931
 21
19.92798628616666
 31
0.0
  0
TEXT
  5
F2F7
330
17
100
AcDbEntity
  8
0
  6
Continuous
 62
     7
100
AcDbText
 10
31.61020727586914
 20
17.6104104991258
 30
0.0
 40
0.375
  1
EXTERIOR VIEW AT HEAD & SILL
 72
     1
 11
35.75848490206286
 21
17.6104104991258
 31
0.0
100
AcDbText
  0
LINE
  5
F2F8
330
17
100
AcDbEntity
  8
0
100
AcDbLine
 10
31.04227770037103
 20
20.71528113269162
 30
0.0
 11
38.92227770037104
 21
20.71528113269162
 31
0.0
  0
LINE
  5
F2F9
330
17
100
AcDbEntity
  8
0
100
AcDbLine
 10
38.92227770037104
 20
20.96528113269162
 30
0.0
 11
33.16727770037103
 21
20.96528113269162
 31
0.0
  0
LINE
  5
F301
330
17
100
AcDbEntity
  8
0
 62
     5
100
AcDbLine
 10
29.41541395560412
 20
20.6883110379515
 30
0.0
 11
41.27562722002378
 21
20.6883110379515
 31
0.0
  0
LINE
  5
F302
330
17
100
AcDbEntity
  8
0
 62
     1
100
AcDbLine
 10
33.48227770037103
 20
23.71528113269164
 30
0.0
 11
41.25385897268604
 21
23.71528113269164
 31
0.0
  0
LINE
  5
F303
330
17
100
AcDbEntity
  8
0
 62
     1
100
AcDbLine
 10
33.48227770037103
 20
21.21528113269164
 30
0.0
 11
41.28497293580358
 21
21.21528113269164
 31
0.0
  0
TEXT
  5
F304
330
17
100
AcDbEntity
  8
0
  6
Continuous
 62
     2
100
AcDbText
 10
32.87633198037875
 20
18.41372926950556
 30
0.0
 40
0.375
  1
"F-ANCHOR" DETAIL
 72
     1
 11
35.43444077983304
 21
18.41372926950556
 31
0.0
100
AcDbText
  0
LINE
  5
F305
330
17
100
AcDbEntity
  8
0
 62
     1
100
AcDbLine
 10
59.42509753882788
 20
22.33824044272634
 30
0.0
 11
59.01583861473145
 21
22.30101014653623
 31
0.0
  0
LINE
  5
F306
330
17
100
AcDbEntity
  8
0
 62
     1
100
AcDbLine
 10
58.53216908742536
 20
22.41270070820669
 30
0.0
 11
59.42509753882788
 21
22.33824044272634
 31
0.0
  0
LINE
  5
F307
330
17
100
AcDbEntity
  8
R-SWTS-DET3
100
AcDbLine
 10
58.55290111478844
 20
20.6883110379515
 30
0.0
 11
57.79257636300361
 21
19.92798628616666
 31
0.0
  0
LINE
  5
F308
330
17
100
AcDbEntity
  8
R-SWTS-DET3
100
AcDbLine
 10
57.05290111478844
 20
20.6883110379515
 30
0.0
 11
56.2925763630036
 21
19.92798628616666
 31
0.0
  0
LINE
  5
F309
330
17
100
AcDbEntity
  8
R-SWTS-DET3
100
AcDbLine
 10
56.30290111478844
 20
20.6883110379515
 30
0.0
 11
55.5425763630036
 21
19.92798628616666
 31
0.0
  0
LINE
  5
F30A
330
17
100
AcDbEntity
  8
R-SWTS-DET3
100
AcDbLine
 10
54.80290111478844
 20
20.6883110379515
 30
0.0
 11
54.04257636300361
 21
19.92798628616666
 31
0.0
  0
LINE
  5
F30B
330
17
100
AcDbEntity
  8
R-SWTS-DET3
100
AcDbLine
 10
55.55290111478844
 20
20.6883110379515
 30
0.0
 11
54.7925763630036
 21
19.92798628616666
 31
0.0
  0
LINE
  5
F30C
330
17
100
AcDbEntity
  8
R-SWTS-DET3
100
AcDbLine
 10
52.55290111478844
 20
20.6883110379515
 30
0.0
 11
51.7925763630036
 21
19.92798628616666
 31
0.0
  0
LINE
  5
F30D
330
17
100
AcDbEntity
  8
R-SWTS-DET3
100
AcDbLine
 10
53.30290111478844
 20
20.6883110379515
 30
0.0
 11
52.5425763630036
 21
19.92798628616666
 31
0.0
  0
LINE
  5
F30E
330
17
100
AcDbEntity
  8
R-SWTS-DET3
100
AcDbLine
 10
54.05290111478844
 20
20.6883110379515
 30
0.0
 11
53.2925763630036
 21
19.92798628616666
 31
0.0
  0
LINE
  5
F30F
330
17
100
AcDbEntity
  8
R-SWTS-DET3
100
AcDbLine
 10
57.80290111478844
 20
20.6883110379515
 30
0.0
 11
57.0425763630036
 21
19.92798628616666
 31
0.0
  0
LINE
  5
F310
330
17
100
AcDbEntity
  8
0
 62
     1
100
AcDbLine
 10
59.01583861473145
 20
22.30101014653623
 30
0.0
 11
59.01583861473145
 21
19.54986879739268
 31
0.0
  0
LINE
  5
F313
330
17
100
AcDbEntity
  8
0
 62
     1
100
AcDbLine
 10
54.46800376379917
 20
21.21528113269162
 30
0.0
 11
59.01694090009389
 21
21.21528113269162
 31
0.0
  0
LINE
  5
F314
330
17
100
AcDbEntity
  8
0
100
AcDbLine
 10
57.40800376379915
 20
20.96528113269162
 30
0.0
 11
54.15300376379916
 21
20.96528113269162
 31
0.0
  0
LINE
  5
F315
330
17
100
AcDbEntity
  8
0
 62
     1
100
AcDbLine
 10
54.46800376379917
 20
23.71528113269162
 30
0.0
 11
59.01694090009389
 21
23.71528113269162
 31
0.0
  0
LINE
  5
F31D
330
17
100
AcDbEntity
  8
0
  6
HIDDEN
100
AcDbLine
 10
54.09300376379917
 20
21.26385633310823
 30
0.0
 11
54.09300376379917
 21
23.46528113269162
 31
0.0
  0
LINE
  5
F31E
330
17
100
AcDbEntity
  8
0
  6
HIDDEN
100
AcDbLine
 10
53.96800376379918
 20
23.46528113269162
 30
0.0
 11
53.96800376379918
 21
21.27435811614599
 31
0.0
  0
LINE
  5
F31F
330
17
100
AcDbEntity
  8
0
  6
HIDDEN
100
AcDbLine
 10
52.34300376379917
 20
23.46528113269162
 30
0.0
 11
52.34300376379917
 21
21.26385633310823
 31
0.0
  0
LINE
  5
F320
330
17
100
AcDbEntity
  8
0
  6
HIDDEN
100
AcDbLine
 10
52.46800376379917
 20
21.27435811614599
 30
0.0
 11
52.46800376379917
 21
23.46528113269162
 31
0.0
  0
LINE
  5
F321
330
17
100
AcDbEntity
  8
0
 62
     1
100
AcDbLine
 10
54.46800376379917
 20
21.21528113269163
 30
0.0
 11
51.96800376379916
 21
21.21528113269162
 31
0.0
  0
LINE
  5
F322
330
17
100
AcDbEntity
  8
0
100
AcDbLine
 10
53.90800376379917
 20
20.96528113269162
 30
0.0
 11
52.52800376379916
 21
20.96528113269162
 31
0.0
  0
LINE
  5
F323
330
17
100
AcDbEntity
  8
0
100
AcDbLine
 10
52.46800376379917
 20
21.02528113269162
 30
0.0
 11
52.46800376379917
 21
21.21134782220744
 31
0.0
  0
LINE
  5
F324
330
17
100
AcDbEntity
  8
0
100
AcDbLine
 10
52.34300376379917
 20
21.22184960524517
 30
0.0
 11
52.34300376379917
 21
21.02528113269162
 31
0.0
  0
ARC
  5
F325
330
17
100
AcDbEntity
  8
0
100
AcDbCircle
 10
52.28300376379917
 20
21.02528113269162
 30
0.0
 40
0.0600000000000023
100
AcDbArc
 50
270.0
 51
0.0
  0
ARC
  5
F326
330
17
100
AcDbEntity
  8
0
100
AcDbCircle
 10
52.52800376379918
 20
21.02528113269162
 30
0.0
 40
0.0600000000000023
100
AcDbArc
 50
180.0
 51
269.9999999999965
  0
LINE
  5
F328
330
17
100
AcDbEntity
  8
0
100
AcDbLine
 10
53.96800376379918
 20
21.21134782220744
 30
0.0
 11
53.96800376379918
 21
21.02528113269162
 31
0.0
  0
LINE
  5
F329
330
17
100
AcDbEntity
  8
0
100
AcDbLine
 10
54.09300376379917
 20
21.02528113269162
 30
0.0
 11
54.09300376379917
 21
21.21134782220744
 31
0.0
  0
ARC
  5
F32A
330
17
100
AcDbEntity
  8
0
100
AcDbCircle
 10
54.15300376379917
 20
21.02528113269162
 30
0.0
 40
0.0600000000000023
100
AcDbArc
 50
180.0
 51
269.9999999999965
  0
ARC
  5
F32B
330
17
100
AcDbEntity
  8
0
100
AcDbCircle
 10
53.90800376379917
 20
21.02528113269162
 30
0.0
 40
0.0600000000000023
100
AcDbArc
 50
270.0
 51
0.0
  0
ARC
  5
F330
330
17
100
AcDbEntity
  8
0
  6
HIDDEN
100
AcDbCircle
 10
52.52052677421215
 20
23.90278113269163
 30
0.0
 40
0.0625000000000019
100
AcDbArc
 50
344.9999999999992
 51
164.9999999999992
  0
LINE
  5
F331
330
17
100
AcDbEntity
  8
0
  6
HIDDEN
100
AcDbLine
 10
52.46800376379917
 20
23.46528113269162
 30
0.0
 11
52.58089713835523
 21
23.88660494237272
 31
0.0
  0
ARC
  5
F332
330
17
100
AcDbEntity
  8
0
  6
HIDDEN
100
AcDbCircle
 10
52.46800376379917
 20
23.46528113269163
 30
0.0
 40
0.125000000000007
100
AcDbArc
 50
165.0000000000063
 51
180.0000000000065
  0
LINE
  5
F333
330
17
100
AcDbEntity
  8
0
  6
HIDDEN
100
AcDbLine
 10
52.46015641006909
 20
23.91895732301054
 30
0.0
 11
52.34726303551304
 21
23.49763351332944
 31
0.0
  0
LINE
  5
F338
330
17
100
AcDbEntity
  8
0
  6
HIDDEN
100
AcDbLine
 10
54.08874449208529
 20
23.49763351332944
 30
0.0
 11
53.97585111752924
 21
23.91895732301054
 31
0.0
  0
ARC
  5
F339
330
17
100
AcDbEntity
  8
0
  6
HIDDEN
100
AcDbCircle
 10
53.96800376379914
 20
23.46528113269161
 30
0.0
 40
0.1250000000000142
100
AcDbArc
 50
0.0000000000065138
 51
15.00000000000625
  0
LINE
  5
F33A
330
17
100
AcDbEntity
  8
0
  6
HIDDEN
100
AcDbLine
 10
53.85511038924311
 20
23.88660494237272
 30
0.0
 11
53.96800376379918
 21
23.46528113269162
 31
0.0
  0
ARC
  5
F33B
330
17
100
AcDbEntity
  8
0
  6
HIDDEN
100
AcDbCircle
 10
53.91548075338618
 20
23.90278113269163
 30
0.0
 40
0.0625000000000019
100
AcDbArc
 50
15.00000000000077
 51
195.0000000000008
  0
ARC
  5
F33D
330
17
100
AcDbEntity
  8
0
100
AcDbCircle
 10
57.40800376379915
 20
20.77528113269162
 30
0.0
 40
0.0600000000000023
100
AcDbArc
 50
270.0
 51
0.0
  0
ARC
  5
F33E
330
17
100
AcDbEntity
  8
0
100
AcDbCircle
 10
57.40800376379917
 20
20.90528113269163
 30
0.0
 40
0.0599999999999952
100
AcDbArc
 50
0.0000000000069209
 51
90.00000000000673
  0
LINE
  5
F340
330
17
100
AcDbEntity
  8
0
100
AcDbLine
 10
57.46800376379916
 20
20.77528113269162
 30
0.0
 11
57.46800376379916
 21
20.90528113269163
 31
0.0
  0
LINE
  5
F346
330
17
100
AcDbEntity
  8
0
 62
     1
100
AcDbLine
 10
58.98472465161393
 20
24.20220719766433
 30
0.0
 11
58.98472465161393
 21
22.5616212391674
 31
0.0
  0
LINE
  5
F347
330
17
100
AcDbEntity
  8
0
 62
     1
100
AcDbLine
 10
58.98472465161393
 20
22.5616212391674
 30
0.0
 11
58.53216908742536
 21
22.41270070820669
 31
0.0
  0
LINE
  5
F348
330
17
100
AcDbEntity
  8
R-SWTS-DET3
100
AcDbLine
 10
33.50413010951415
 20
20.6883110379515
 30
0.0
 11
32.74380535772932
 21
19.92798628616666
 31
0.0
  0
LINE
  5
F349
330
17
100
AcDbEntity
  8
R-SWTS-DET3
100
AcDbLine
 10
32.75413010951415
 20
20.6883110379515
 30
0.0
 11
31.99380535772931
 21
19.92798628616666
 31
0.0
  0
LINE
  5
F34A
330
17
100
AcDbEntity
  8
R-SWTS-DET3
100
AcDbLine
 10
34.25413010951415
 20
20.6883110379515
 30
0.0
 11
33.49380535772932
 21
19.92798628616666
 31
0.0
  0
LINE
  5
F34B
330
17
100
AcDbEntity
  8
R-SWTS-DET3
100
AcDbLine
 10
31.25413010951415
 20
20.6883110379515
 30
0.0
 11
30.49380535772931
 21
19.92798628616666
 31
0.0
  0
LINE
  5
F34C
330
17
100
AcDbEntity
  8
R-SWTS-DET3
100
AcDbLine
 10
30.50413010951415
 20
20.6883110379515
 30
0.0
 11
29.74380535772932
 21
19.92798628616666
 31
0.0
  0
LINE
  5
F34D
330
17
100
AcDbEntity
  8
R-SWTS-DET3
100
AcDbLine
 10
32.00413010951415
 20
20.6883110379515
 30
0.0
 11
31.24380535772932
 21
19.92798628616666
 31
0.0
  0
LINE
  5
F34E
330
17
100
AcDbEntity
  8
0
  6
HIDDEN
100
AcDbLine
 10
33.10727770037103
 20
21.24852957587648
 30
0.0
 11
33.10727770037103
 21
23.46528113269162
 31
0.0
  0
LINE
  5
F34F
330
17
100
AcDbEntity
  8
0
  6
HIDDEN
100
AcDbLine
 10
32.98227770037103
 20
23.46528113269162
 30
0.0
 11
32.98227770037103
 21
21.24852957587648
 31
0.0
  0
LINE
  5
F350
330
17
100
AcDbEntity
  8
0
  6
HIDDEN
100
AcDbLine
 10
31.35727770037104
 20
23.46528113269162
 30
0.0
 11
31.35727770037104
 21
21.24852957587648
 31
0.0
  0
LINE
  5
F351
330
17
100
AcDbEntity
  8
0
  6
HIDDEN
100
AcDbLine
 10
31.48227770037105
 20
21.25638206016745
 30
0.0
 11
31.48227770037105
 21
23.46528113269162
 31
0.0
  0
LINE
  5
F352
330
17
100
AcDbEntity
  8
0
100
AcDbLine
 10
32.92227770037104
 20
20.96528113269162
 30
0.0
 11
31.54227770037105
 21
20.96528113269162
 31
0.0
  0
LINE
  5
F353
330
17
100
AcDbEntity
  8
0
 62
     1
100
AcDbLine
 10
33.48227770037103
 20
21.21528113269164
 30
0.0
 11
30.98227770037103
 21
21.21528113269163
 31
0.0
  0
LINE
  5
F354
330
17
100
AcDbEntity
  8
0
100
AcDbLine
 10
31.48227770037105
 20
21.02528113269162
 30
0.0
 11
31.48227770037105
 21
21.2092663458458
 31
0.0
  0
LINE
  5
F355
330
17
100
AcDbEntity
  8
0
100
AcDbLine
 10
31.35727770037104
 20
21.21711903228074
 30
0.0
 11
31.35727770037104
 21
21.02528113269164
 31
0.0
  0
ARC
  5
F356
330
17
100
AcDbEntity
  8
0
100
AcDbCircle
 10
31.54227770037105
 20
21.02528113269162
 30
0.0
 40
0.0600000000000023
100
AcDbArc
 50
180.0
 51
270.0
  0
LINE
  5
F357
330
17
100
AcDbEntity
  8
0
100
AcDbLine
 10
31.29727770037104
 20
20.96528113269163
 30
0.0
 11
31.04227770037103
 21
20.96528113269162
 31
0.0
  0
ARC
  5
F358
330
17
100
AcDbEntity
  8
0
100
AcDbCircle
 10
31.04227770037103
 20
20.90528113269162
 30
0.0
 40
0.0600000000000023
100
AcDbArc
 50
90.0
 51
180.0
  0
LINE
  5
F359
330
17
100
AcDbEntity
  8
0
100
AcDbLine
 10
30.98227770037104
 20
20.90528113269162
 30
0.0
 11
30.98227770037103
 21
20.77528113269162
 31
0.0
  0
ARC
  5
F35A
330
17
100
AcDbEntity
  8
0
100
AcDbCircle
 10
31.04227770037103
 20
20.77528113269162
 30
0.0
 40
0.0600000000000023
100
AcDbArc
 50
180.0
 51
270.0
  0
ARC
  5
F35B
330
17
100
AcDbEntity
  8
0
100
AcDbCircle
 10
31.29727770037104
 20
21.02528113269164
 30
0.0
 40
0.0600000000000023
100
AcDbArc
 50
270.0
 51
0.0
  0
LINE
  5
F35D
330
17
100
AcDbEntity
  8
0
100
AcDbLine
 10
32.98227770037103
 20
21.2092663458458
 30
0.0
 11
32.98227770037103
 21
21.02528113269162
 31
0.0
  0
LINE
  5
F35E
330
17
100
AcDbEntity
  8
0
100
AcDbLine
 10
33.10727770037103
 20
21.02528113269162
 30
0.0
 11
33.10727770037103
 21
21.21711903228074
 31
0.0
  0
ARC
  5
F35F
330
17
100
AcDbEntity
  8
0
100
AcDbCircle
 10
32.92227770037104
 20
21.02528113269162
 30
0.0
 40
0.0599999999999952
100
AcDbArc
 50
270.0000000000067
 51
0.0000000000069209
  0
ARC
  5
F360
330
17
100
AcDbEntity
  8
0
100
AcDbCircle
 10
33.16727770037103
 20
21.02528113269162
 30
0.0
 40
0.0600000000000023
100
AcDbArc
 50
180.0
 51
270.0
  0
LINE
  5
F362
330
17
100
AcDbEntity
  8
0
  6
HIDDEN
 62
     4
100
AcDbLine
 10
30.85727770037103
 20
22.35728113269165
 30
0.0
 11
30.85727770037103
 21
22.25278113269165
 31
0.0
  0
LINE
  5
F363
330
17
100
AcDbEntity
  8
0
  6
HIDDEN
 62
     4
100
AcDbLine
 10
31.15227770037103
 20
22.35728113269165
 30
0.0
 11
30.85727770037103
 21
22.35728113269165
 31
0.0
  0
LINE
  5
F364
330
17
100
AcDbEntity
  8
0
  6
HIDDEN
 62
     4
100
AcDbLine
 10
31.29527770037103
 20
22.38928113269164
 30
0.0
 11
31.15227770037103
 21
22.35728113269165
 31
0.0
  0
LINE
  5
F365
330
17
100
AcDbEntity
  8
0
  6
HIDDEN
 62
     4
100
AcDbLine
 10
31.29527770037103
 20
22.54128113269164
 30
0.0
 11
31.29527770037103
 21
22.38928113269164
 31
0.0
  0
LINE
  5
F366
330
17
100
AcDbEntity
  8
0
  6
HIDDEN
 62
     4
100
AcDbLine
 10
31.15227770037103
 20
22.57328113269164
 30
0.0
 11
31.29527770037103
 21
22.54128113269164
 31
0.0
  0
LINE
  5
F367
330
17
100
AcDbEntity
  8
0
  6
HIDDEN
 62
     4
100
AcDbLine
 10
30.85727770037103
 20
22.57328113269164
 30
0.0
 11
31.15227770037103
 21
22.57328113269164
 31
0.0
  0
LINE
  5
F368
330
17
100
AcDbEntity
  8
0
  6
HIDDEN
 62
     4
100
AcDbLine
 10
30.85727770037103
 20
22.67778113269164
 30
0.0
 11
30.85727770037103
 21
22.57328113269164
 31
0.0
  0
LINE
  5
F369
330
17
100
AcDbEntity
  8
0
  6
HIDDEN
 62
     4
100
AcDbLine
 10
30.78177779088083
 20
22.67778113269164
 30
0.0
 11
30.85727770037103
 21
22.67778113269164
 31
0.0
  0
ARC
  5
F36A
330
17
100
AcDbEntity
  8
0
  6
HIDDEN
 62
     4
100
AcDbCircle
 10
31.04307540037102
 20
22.46528113269165
 30
0.0
 40
0.3367976999999988
100
AcDbArc
 50
140.8803034786186
 51
219.119696521382
  0
LINE
  5
F36B
330
17
100
AcDbEntity
  8
0
  6
HIDDEN
 62
     4
100
AcDbLine
 10
30.85727770037103
 20
22.25278113269165
 30
0.0
 11
30.78177779088083
 21
22.25278113269166
 31
0.0
  0
ARC
  5
F36C
330
17
100
AcDbEntity
  8
0
  6
HIDDEN
100
AcDbCircle
 10
31.53480071078403
 20
23.90278113269163
 30
0.0
 40
0.062499999999995
100
AcDbArc
 50
344.9999999999976
 51
164.9999999999992
  0
LINE
  5
F36D
330
17
100
AcDbEntity
  8
0
  6
HIDDEN
100
AcDbLine
 10
31.48227770037105
 20
23.46528113269162
 30
0.0
 11
31.59517107492709
 21
23.88660494237272
 31
0.0
  0
ARC
  5
F36E
330
17
100
AcDbEntity
  8
0
  6
HIDDEN
100
AcDbCircle
 10
31.48227770037105
 20
23.46528113269163
 30
0.0
 40
0.125000000000007
100
AcDbArc
 50
165.0000000000063
 51
180.0000000000065
  0
LINE
  5
F36F
330
17
100
AcDbEntity
  8
0
  6
HIDDEN
100
AcDbLine
 10
31.47443034664096
 20
23.91895732301054
 30
0.0
 11
31.36153697208491
 21
23.49763351332944
 31
0.0
  0
LINE
  5
F374
330
17
100
AcDbEntity
  8
0
  6
HIDDEN
100
AcDbLine
 10
32.86938432581498
 20
23.88660494237272
 30
0.0
 11
32.98227770037103
 21
23.46528113269162
 31
0.0
  0
ARC
  5
F375
330
17
100
AcDbEntity
  8
0
  6
HIDDEN
100
AcDbCircle
 10
32.92975468995805
 20
23.90278113269163
 30
0.0
 40
0.0625000000000019
100
AcDbArc
 50
15.00000000000077
 51
195.0000000000008
  0
LINE
  5
F376
330
17
100
AcDbEntity
  8
0
  6
HIDDEN
100
AcDbLine
 10
33.10301842865717
 20
23.49763351332944
 30
0.0
 11
32.99012505410111
 21
23.91895732301054
 31
0.0
  0
ARC
  5
F377
330
17
100
AcDbEntity
  8
0
  6
HIDDEN
100
AcDbCircle
 10
32.98227770037101
 20
23.46528113269163
 30
0.0
 40
0.1250000000000071
100
AcDbArc
 50
359.9999999999935
 51
14.99999999999361
  0
LINE
  5
F378
330
17
100
AcDbEntity
  8
R-SWTS-DET3
100
AcDbLine
 10
40.25413010951415
 20
20.6883110379515
 30
0.0
 11
39.49380535772931
 21
19.92798628616666
 31
0.0
  0
LINE
  5
F379
330
17
100
AcDbEntity
  8
R-SWTS-DET3
100
AcDbLine
 10
41.00413010951415
 20
20.6883110379515
 30
0.0
 11
40.24380535772931
 21
19.92798628616666
 31
0.0
  0
LINE
  5
F37A
330
17
100
AcDbEntity
  8
R-SWTS-DET3
100
AcDbLine
 10
38.00413010951415
 20
20.6883110379515
 30
0.0
 11
37.24380535772932
 21
19.92798628616666
 31
0.0
  0
LINE
  5
F37B
330
17
100
AcDbEntity
  8
R-SWTS-DET3
100
AcDbLine
 10
38.75413010951415
 20
20.6883110379515
 30
0.0
 11
37.99380535772931
 21
19.92798628616666
 31
0.0
  0
LINE
  5
F37C
330
17
100
AcDbEntity
  8
R-SWTS-DET3
100
AcDbLine
 10
36.50413010951415
 20
20.6883110379515
 30
0.0
 11
35.74380535772931
 21
19.92798628616666
 31
0.0
  0
LINE
  5
F37D
330
17
100
AcDbEntity
  8
R-SWTS-DET3
100
AcDbLine
 10
37.25413010951415
 20
20.6883110379515
 30
0.0
 11
36.49380535772932
 21
19.92798628616666
 31
0.0
  0
LINE
  5
F37E
330
17
100
AcDbEntity
  8
R-SWTS-DET3
100
AcDbLine
 10
35.75413010951415
 20
20.6883110379515
 30
0.0
 11
34.99380535772932
 21
19.92798628616666
 31
0.0
  0
LINE
  5
F37F
330
17
100
AcDbEntity
  8
R-SWTS-DET3
100
AcDbLine
 10
39.50413010951415
 20
20.6883110379515
 30
0.0
 11
38.74380535772932
 21
19.92798628616666
 31
0.0
  0
LINE
  5
F380
330
17
100
AcDbEntity
  8
0
 62
     1
100
AcDbLine
 10
41.28497293580358
 20
22.30101014653625
 30
0.0
 11
41.28497293580358
 21
19.54986879739269
 31
0.0
  0
ARC
  5
F388
330
17
100
AcDbEntity
  8
0
100
AcDbCircle
 10
38.92227770037104
 20
20.77528113269162
 30
0.0
 40
0.0600000000000023
100
AcDbArc
 50
270.0
 51
0.0
  0
LINE
  5
F389
330
17
100
AcDbEntity
  8
0
100
AcDbLine
 10
38.98227770037104
 20
20.77528113269162
 30
0.0
 11
38.98227770037104
 21
20.90528113269163
 31
0.0
  0
ARC
  5
F38A
330
17
100
AcDbEntity
  8
0
100
AcDbCircle
 10
38.92227770037104
 20
20.90528113269163
 30
0.0
 40
0.0599999999999952
100
AcDbArc
 50
0.0000000000069209
 51
90.00000000000673
  0
LINE
  5
F38B
330
17
100
AcDbEntity
  8
0
 62
     1
100
AcDbLine
 10
41.25385897268606
 20
24.20220719766434
 30
0.0
 11
41.25385897268606
 21
22.56162123916741
 31
0.0
  0
LINE
  5
F38C
330
17
100
AcDbEntity
  8
0
 62
     1
100
AcDbLine
 10
41.69423185990001
 20
22.33824044272635
 30
0.0
 11
41.28497293580358
 21
22.30101014653625
 31
0.0
  0
LINE
  5
F38D
330
17
100
AcDbEntity
  8
0
 62
     1
100
AcDbLine
 10
40.80130340849748
 20
22.41270070820671
 30
0.0
 11
41.69423185990001
 21
22.33824044272635
 31
0.0
  0
LINE
  5
F38E
330
17
100
AcDbEntity
  8
0
 62
     1
100
AcDbLine
 10
41.25385897268606
 20
22.56162123916741
 30
0.0
 11
40.80130340849748
 21
22.41270070820671
 31
0.0
  0
LINE
  5
F38F
330
17
100
AcDbEntity
  8
R-SWTS-DET3
100
AcDbLine
 10
35.00413010951409
 20
32.65108395658091
 30
0.0
 11
34.24380535772926
 21
33.41140870836576
 31
0.0
  0
LINE
  5
F392
330
17
100
AcDbEntity
  8
0
100
AcDbLine
 10
38.92227770037104
 20
32.37502467924082
 30
0.0
 11
33.16727770037103
 21
32.37502467924082
 31
0.0
  0
LINE
  5
F393
330
17
100
AcDbEntity
  8
0
100
AcDbLine
 10
31.04227770037103
 20
32.62502467924082
 30
0.0
 11
38.92227770037104
 21
32.62502467924082
 31
0.0
  0
LINE
  5
F394
330
17
100
AcDbEntity
  8
0
 62
     1
100
AcDbLine
 10
33.48227770037103
 20
29.6250246792408
 30
0.0
 11
41.25385897268604
 21
29.6250246792408
 31
0.0
  0
LINE
  5
F395
330
17
100
AcDbEntity
  8
0
 62
     1
100
AcDbLine
 10
33.48227770037103
 20
32.12502467924081
 30
0.0
 11
41.28497293580358
 21
32.12502467924081
 31
0.0
  0
LINE
  5
F396
330
17
100
AcDbEntity
  8
0
 62
     5
100
AcDbLine
 10
29.41541395560412
 20
32.65199477398094
 30
0.0
 11
41.27562722002378
 21
32.65199477398094
 31
0.0
  0
LINE
  5
F39E
330
17
100
AcDbEntity
  8
PART_NUMBERS
100
AcDbLine
 10
32.47274276541034
 20
32.71096127742391
 30
0.0
 11
33.57449311414622
 21
34.38596956961819
 31
0.0
  0
LINE
  5
F39F
330
17
100
AcDbEntity
  8
PART_NUMBERS
100
AcDbLine
 10
53.64623218270986
 20
32.71096127742391
 30
0.0
 11
54.74798253144573
 21
34.38596956961819
 31
0.0
  0
LINE
  5
F3A0
330
17
100
AcDbEntity
  8
0
 62
     1
100
AcDbLine
 10
59.42509753882788
 20
31.0020653692061
 30
0.0
 11
59.01583861473145
 21
31.0392956653962
 31
0.0
  0
LINE
  5
F3A1
330
17
100
AcDbEntity
  8
0
 62
     1
100
AcDbLine
 10
58.53216908742536
 20
30.92760510372575
 30
0.0
 11
59.42509753882788
 21
31.0020653692061
 31
0.0
  0
LINE
  5
F3A2
330
17
100
AcDbEntity
  8
0
  6
HIDDEN
100
AcDbLine
 10
54.09300376379917
 20
32.07644947882421
 30
0.0
 11
54.09300376379917
 21
29.87502467924082
 31
0.0
  0
LINE
  5
F3A3
330
17
100
AcDbEntity
  8
0
  6
HIDDEN
100
AcDbLine
 10
52.46800376379917
 20
32.06594769578645
 30
0.0
 11
52.46800376379917
 21
29.87502467924082
 31
0.0
  0
LINE
  5
F3A4
330
17
100
AcDbEntity
  8
0
  6
HIDDEN
100
AcDbLine
 10
53.96800376379918
 20
29.87502467924082
 30
0.0
 11
53.96800376379918
 21
32.06594769578645
 31
0.0
  0
LINE
  5
F3A5
330
17
100
AcDbEntity
  8
0
  6
HIDDEN
100
AcDbLine
 10
52.34300376379917
 20
29.87502467924082
 30
0.0
 11
52.34300376379917
 21
32.07644947882421
 31
0.0
  0
LINE
  5
F3A6
330
17
100
AcDbEntity
  8
0
 62
     1
100
AcDbLine
 10
58.98472465161393
 20
29.13809861426811
 30
0.0
 11
58.98472465161393
 21
30.77868457276504
 31
0.0
  0
LINE
  5
F3A8
330
17
100
AcDbEntity
  8
0
 62
     1
100
AcDbLine
 10
54.46800376379916
 20
28.91633984132054
 30
0.0
 11
54.46800376379917
 21
32.12502467924082
 31
0.0
  0
LINE
  5
F3A9
330
17
100
AcDbEntity
  8
0
  6
HIDDEN
 62
     1
100
AcDbLine
 10
54.36800376379917
 20
28.91633984132054
 30
0.0
 11
54.36800376379917
 21
32.12502467924082
 31
0.0
  0
LINE
  5
F3AA
330
17
100
AcDbEntity
  8
0
 62
     1
100
AcDbLine
 10
51.96800376379916
 20
28.91633984132057
 30
0.0
 11
51.96800376379916
 21
32.12502467924082
 31
0.0
  0
LINE
  5
F3AB
330
17
100
AcDbEntity
  8
0
  6
HIDDEN
 62
     1
100
AcDbLine
 10
52.06800376379916
 20
28.91633984132057
 30
0.0
 11
52.06800376379916
 21
32.12502467924082
 31
0.0
  0
LINE
  5
F3AC
330
17
100
AcDbEntity
  8
0
 62
     1
100
AcDbLine
 10
54.46800376379917
 20
29.62502467924082
 30
0.0
 11
59.01694090009389
 21
29.62502467924082
 31
0.0
  0
LINE
  5
F3AE
330
17
100
AcDbEntity
  8
0
 62
     1
100
AcDbLine
 10
53.32955452230402
 20
24.42396597061188
 30
0.0
 11
55.05046102665097
 21
24.42396597061187
 31
0.0
  0
LINE
  5
F3AF
330
17
100
AcDbEntity
  8
0
 62
     1
100
AcDbLine
 10
53.066112991546
 20
24.42396597061187
 30
0.0
 11
53.21503352250672
 21
24.87652153480044
 31
0.0
  0
LINE
  5
F3B0
330
17
100
AcDbEntity
  8
0
 62
     1
100
AcDbLine
 10
53.32955452230402
 20
28.91633984132058
 30
0.0
 11
55.05046102665097
 21
28.91633984132057
 31
0.0
  0
LINE
  5
F3B1
330
17
100
AcDbEntity
  8
0
 62
     1
100
AcDbLine
 10
53.21503352250672
 20
29.36889540550915
 30
0.0
 11
53.28949378798707
 21
28.47596695410662
 31
0.0
  0
LINE
  5
F3B2
330
17
100
AcDbEntity
  8
0
 62
     1
100
AcDbLine
 10
53.28949378798707
 20
28.47596695410662
 30
0.0
 11
53.32955452230402
 21
28.91633984132058
 31
0.0
  0
ARC
  5
F3B3
330
17
100
AcDbEntity
  8
0
  6
HIDDEN
100
AcDbCircle
 10
52.52052677421215
 20
29.43752467924081
 30
0.0
 40
0.0625000000000019
100
AcDbArc
 50
195.0000000000008
 51
15.00000000000077
  0
LINE
  5
F3B4
330
17
100
AcDbEntity
  8
0
  6
HIDDEN
100
AcDbLine
 10
52.46800376379917
 20
29.87502467924082
 30
0.0
 11
52.58089713835523
 21
29.45370086955972
 31
0.0
  0
ARC
  5
F3B5
330
17
100
AcDbEntity
  8
0
  6
HIDDEN
100
AcDbCircle
 10
52.46800376379917
 20
29.8750246792408
 30
0.0
 40
0.125000000000007
100
AcDbArc
 50
179.9999999999935
 51
194.9999999999936
  0
LINE
  5
F3B6
330
17
100
AcDbEntity
  8
0
  6
HIDDEN
100
AcDbLine
 10
52.46015641006909
 20
29.4213484889219
 30
0.0
 11
52.34726303551304
 21
29.842672298603
 31
0.0
  0
LINE
  5
F3B7
330
17
100
AcDbEntity
  8
0
 62
     1
100
AcDbLine
 10
53.066112991546
 20
28.91633984132057
 30
0.0
 11
53.21503352250672
 21
29.36889540550915
 31
0.0
  0
LINE
  5
F3B8
330
17
100
AcDbEntity
  8
0
  6
HIDDEN
100
AcDbLine
 10
53.85511038924311
 20
29.45370086955972
 30
0.0
 11
53.96800376379918
 21
29.87502467924082
 31
0.0
  0
ARC
  5
F3B9
330
17
100
AcDbEntity
  8
0
  6
HIDDEN
100
AcDbCircle
 10
53.91548075338618
 20
29.43752467924081
 30
0.0
 40
0.0625000000000019
100
AcDbArc
 50
164.9999999999992
 51
344.9999999999992
  0
LINE
  5
F3BA
330
17
100
AcDbEntity
  8
0
  6
HIDDEN
100
AcDbLine
 10
54.08874449208529
 20
29.842672298603
 30
0.0
 11
53.97585111752924
 21
29.4213484889219
 31
0.0
  0
ARC
  5
F3BB
330
17
100
AcDbEntity
  8
0
  6
HIDDEN
100
AcDbCircle
 10
53.96800376379914
 20
29.87502467924083
 30
0.0
 40
0.1250000000000142
100
AcDbArc
 50
344.9999999999938
 51
359.9999999999935
  0
LINE
  5
F3BC
330
17
100
AcDbEntity
  8
R-SWTS-DET3
100
AcDbLine
 10
55.55290111478846
 20
32.65108395658091
 30
0.0
 11
54.79257636300363
 21
33.41140870836576
 31
0.0
  0
LINE
  5
F3BF
330
17
100
AcDbEntity
  8
0
100
AcDbLine
 10
57.40800376379915
 20
32.37502467924082
 30
0.0
 11
54.15300376379916
 21
32.37502467924082
 31
0.0
  0
LINE
  5
F3C0
330
17
100
AcDbEntity
  8
0
 62
     1
100
AcDbLine
 10
54.46800376379917
 20
32.12502467924082
 30
0.0
 11
59.01694090009389
 21
32.12502467924082
 31
0.0
  0
LINE
  5
F3CF
330
17
100
AcDbEntity
  8
R-SWTS-DET3
100
AcDbLine
 10
54.05290111478847
 20
32.65108395658091
 30
0.0
 11
53.29257636300363
 21
33.41140870836576
 31
0.0
  0
LINE
  5
F3D0
330
17
100
AcDbEntity
  8
0
100
AcDbLine
 10
53.90800376379917
 20
32.37502467924082
 30
0.0
 11
52.52800376379916
 21
32.37502467924082
 31
0.0
  0
LINE
  5
F3D1
330
17
100
AcDbEntity
  8
0
 62
     1
100
AcDbLine
 10
54.46800376379917
 20
32.12502467924081
 30
0.0
 11
51.96800376379916
 21
32.12502467924082
 31
0.0
  0
LINE
  5
F3D2
330
17
100
AcDbEntity
  8
R-SWTS-DET3
100
AcDbLine
 10
52.55290111478847
 20
32.65108395658091
 30
0.0
 11
51.79257636300363
 21
33.41140870836576
 31
0.0
  0
LINE
  5
F3D3
330
17
100
AcDbEntity
  8
R-SWTS-DET3
100
AcDbLine
 10
53.30290111478847
 20
32.65108395658091
 30
0.0
 11
52.54257636300363
 21
33.41140870836576
 31
0.0
  0
LINE
  5
F3D4
330
17
100
AcDbEntity
  8
0
100
AcDbLine
 10
52.34300376379917
 20
32.11845620668726
 30
0.0
 11
52.34300376379917
 21
32.31502467924082
 31
0.0
  0
LINE
  5
F3D5
330
17
100
AcDbEntity
  8
0
100
AcDbLine
 10
52.46800376379917
 20
32.31502467924082
 30
0.0
 11
52.46800376379917
 21
32.128957989725
 31
0.0
  0
ARC
  5
F3D6
330
17
100
AcDbEntity
  8
0
100
AcDbCircle
 10
52.52800376379918
 20
32.31502467924082
 30
0.0
 40
0.0600000000000023
100
AcDbArc
 50
90.00000000000346
 51
180.0
  0
ARC
  5
F3D7
330
17
100
AcDbEntity
  8
0
100
AcDbCircle
 10
52.28300376379917
 20
32.31502467924082
 30
0.0
 40
0.0600000000000023
100
AcDbArc
 50
0.0
 51
90.0
  0
LINE
  5
F3D8
330
17
100
AcDbEntity
  8
R-SWTS-DET3
100
AcDbLine
 10
54.80290111478847
 20
32.65108395658091
 30
0.0
 11
54.04257636300363
 21
33.41140870836576
 31
0.0
  0
LINE
  5
F3D9
330
17
100
AcDbEntity
  8
R-SWTS-DET3
  6
CENTER
100
AcDbLine
 10
55.21800376379915
 20
34.20056121907685
 30
0.0
 11
55.21800376379916
 21
32.23227714762592
 31
0.0
  0
SOLID
  5
F3DA
330
17
100
AcDbEntity
  8
PART_NUMBERS
100
AcDbTrace
 10
53.62012376156819
 20
32.72813430410791
 30
0.0
 11
53.67234060385152
 21
32.69378825073991
 31
0.0
 12
53.54319402260586
 22
32.55431075057391
 32
0.0
 13
53.54319402260586
 23
32.55431075057391
 33
0.0
  0
LINE
  5
F3DB
330
17
100
AcDbEntity
  8
0
100
AcDbLine
 10
53.96800376379918
 20
32.128957989725
 30
0.0
 11
53.96800376379918
 21
32.31502467924082
 31
0.0
  0
ARC
  5
F3DC
330
17
100
AcDbEntity
  8
0
100
AcDbCircle
 10
53.90800376379917
 20
32.31502467924082
 30
0.0
 40
0.0600000000000023
100
AcDbArc
 50
0.0
 51
90.0
  0
LINE
  5
F3DD
330
17
100
AcDbEntity
  8
0
100
AcDbLine
 10
54.09300376379917
 20
32.31502467924082
 30
0.0
 11
54.09300376379917
 21
32.128957989725
 31
0.0
  0
ARC
  5
F3DE
330
17
100
AcDbEntity
  8
0
100
AcDbCircle
 10
54.15300376379917
 20
32.31502467924082
 30
0.0
 40
0.0600000000000023
100
AcDbArc
 50
90.00000000000346
 51
180.0
  0
LINE
  5
F3DF
330
17
100
AcDbEntity
  8
0
 62
     1
100
AcDbLine
 10
59.01583861473145
 20
31.0392956653962
 30
0.0
 11
59.01583861473145
 21
33.79043701453976
 31
0.0
  0
LINE
  5
F3E5
330
17
100
AcDbEntity
  8
0
 62
     1
100
AcDbLine
 10
58.98472465161393
 20
30.77868457276504
 30
0.0
 11
58.53216908742536
 21
30.92760510372575
 31
0.0
  0
LINE
  5
F3E6
330
17
100
AcDbEntity
  8
R-SWTS-DET3
100
AcDbLine
 10
57.80290111478847
 20
32.65108395658091
 30
0.0
 11
57.04257636300363
 21
33.41140870836576
 31
0.0
  0
ARC
  5
F3E7
330
17
100
AcDbEntity
  8
0
100
AcDbCircle
 10
57.40800376379917
 20
32.43502467924081
 30
0.0
 40
0.0599999999999952
100
AcDbArc
 50
269.9999999999933
 51
359.9999999999931
  0
ARC
  5
F3E8
330
17
100
AcDbEntity
  8
0
100
AcDbCircle
 10
57.40800376379915
 20
32.56502467924081
 30
0.0
 40
0.0600000000000023
100
AcDbArc
 50
0.0
 51
90.0
  0
LINE
  5
F3E9
330
17
100
AcDbEntity
  8
R-SWTS-DET3
100
AcDbLine
 10
56.30290111478847
 20
32.65108395658091
 30
0.0
 11
55.54257636300363
 21
33.41140870836576
 31
0.0
  0
LINE
  5
F3EA
330
17
100
AcDbEntity
  8
R-SWTS-DET3
100
AcDbLine
 10
57.05290111478847
 20
32.65108395658091
 30
0.0
 11
56.29257636300363
 21
33.41140870836576
 31
0.0
  0
LINE
  5
F3EB
330
17
100
AcDbEntity
  8
R-SWTS-DET3
  6
CENTER
100
AcDbLine
 10
56.71800376379916
 20
34.20056121907685
 30
0.0
 11
56.71800376379916
 21
32.23227714762592
 31
0.0
  0
LINE
  5
F3EC
330
17
100
AcDbEntity
  8
R-SWTS-DET3
100
AcDbLine
 10
58.55290111478847
 20
32.65108395658091
 30
0.0
 11
57.79257636300363
 21
33.41140870836576
 31
0.0
  0
LINE
  5
F3ED
330
17
100
AcDbEntity
  8
0
100
AcDbLine
 10
57.46800376379916
 20
32.56502467924081
 30
0.0
 11
57.46800376379916
 21
32.43502467924081
 31
0.0
  0
LINE
  5
F3EE
330
17
100
AcDbEntity
  8
0
  6
HIDDEN
100
AcDbLine
 10
33.10727770037103
 20
32.09177623605596
 30
0.0
 11
33.10727770037103
 21
29.87502467924082
 31
0.0
  0
LINE
  5
F3EF
330
17
100
AcDbEntity
  8
0
  6
HIDDEN
100
AcDbLine
 10
31.48227770037105
 20
32.08392375176499
 30
0.0
 11
31.48227770037105
 21
29.87502467924082
 31
0.0
  0
LINE
  5
F3F0
330
17
100
AcDbEntity
  8
0
  6
HIDDEN
100
AcDbLine
 10
31.35727770037104
 20
29.87502467924082
 30
0.0
 11
31.35727770037104
 21
32.09177623605596
 31
0.0
  0
LINE
  5
F3F1
330
17
100
AcDbEntity
  8
0
  6
HIDDEN
100
AcDbLine
 10
32.98227770037103
 20
29.87502467924082
 30
0.0
 11
32.98227770037103
 21
32.09177623605596
 31
0.0
  0
LINE
  5
F3F2
330
17
100
AcDbEntity
  8
0
 62
     1
100
AcDbLine
 10
30.98227770037103
 20
28.91633984132057
 30
0.0
 11
30.98227770037103
 21
32.12502467924081
 31
0.0
  0
LINE
  5
F3F3
330
17
100
AcDbEntity
  8
0
  6
HIDDEN
 62
     1
100
AcDbLine
 10
31.08227770037102
 20
28.91633984132057
 30
0.0
 11
31.08227770037102
 21
32.12502467924081
 31
0.0
  0
LINE
  5
F3F4
330
17
100
AcDbEntity
  8
0
 62
     1
100
AcDbLine
 10
33.48227770037103
 20
28.91633984132053
 30
0.0
 11
33.48227770037103
 21
32.12502467924081
 31
0.0
  0
LINE
  5
F3F5
330
17
100
AcDbEntity
  8
0
  6
HIDDEN
 62
     1
100
AcDbLine
 10
33.38227770037104
 20
28.91633984132054
 30
0.0
 11
33.38227770037104
 21
32.12502467924081
 31
0.0
  0
LINE
  5
F3F6
330
17
100
AcDbEntity
  8
0
 62
     1
100
AcDbLine
 10
30.43980096962095
 20
24.42396597061187
 30
0.0
 11
32.08038692811788
 21
24.42396597061187
 31
0.0
  0
LINE
  5
F3F7
330
17
100
AcDbEntity
  8
0
 62
     1
100
AcDbLine
 10
30.43980096962095
 20
28.91633984132057
 30
0.0
 11
32.08038692811788
 21
28.91633984132057
 31
0.0
  0
LINE
  5
F3F8
330
17
100
AcDbEntity
  8
0
 62
     1
100
AcDbLine
 10
32.34382845887589
 20
24.42396597061188
 30
0.0
 11
34.06473496322285
 21
24.42396597061187
 31
0.0
  0
LINE
  5
F3F9
330
17
100
AcDbEntity
  8
0
 62
     1
100
AcDbLine
 10
32.08038692811788
 20
24.42396597061187
 30
0.0
 11
32.22930745907858
 21
24.87652153480044
 31
0.0
  0
LINE
  5
F3FA
330
17
100
AcDbEntity
  8
0
 62
     1
100
AcDbLine
 10
32.34382845887589
 20
28.91633984132058
 30
0.0
 11
34.06473496322285
 21
28.91633984132057
 31
0.0
  0
LINE
  5
F3FB
330
17
100
AcDbEntity
  8
0
 62
     1
100
AcDbLine
 10
32.30376772455894
 20
28.47596695410662
 30
0.0
 11
32.34382845887589
 21
28.91633984132058
 31
0.0
  0
LINE
  5
F3FC
330
17
100
AcDbEntity
  8
0
 62
     1
100
AcDbLine
 10
32.22930745907858
 20
29.36889540550915
 30
0.0
 11
32.30376772455894
 21
28.47596695410662
 31
0.0
  0
ARC
  5
F3FD
330
17
100
AcDbEntity
  8
0
  6
HIDDEN
100
AcDbCircle
 10
31.53480071078403
 20
29.43752467924081
 30
0.0
 40
0.062499999999995
100
AcDbArc
 50
195.0000000000008
 51
15.00000000000245
  0
LINE
  5
F3FE
330
17
100
AcDbEntity
  8
0
  6
HIDDEN
100
AcDbLine
 10
31.48227770037105
 20
29.87502467924082
 30
0.0
 11
31.59517107492709
 21
29.45370086955972
 31
0.0
  0
ARC
  5
F3FF
330
17
100
AcDbEntity
  8
0
  6
HIDDEN
100
AcDbCircle
 10
31.48227770037105
 20
29.8750246792408
 30
0.0
 40
0.125000000000007
100
AcDbArc
 50
179.9999999999935
 51
194.9999999999936
  0
LINE
  5
F400
330
17
100
AcDbEntity
  8
0
  6
HIDDEN
100
AcDbLine
 10
31.47443034664096
 20
29.4213484889219
 30
0.0
 11
31.36153697208491
 21
29.842672298603
 31
0.0
  0
LINE
  5
F401
330
17
100
AcDbEntity
  8
0
 62
     1
100
AcDbLine
 10
32.08038692811788
 20
28.91633984132057
 30
0.0
 11
32.22930745907858
 21
29.36889540550915
 31
0.0
  0
LINE
  5
F402
330
17
100
AcDbEntity
  8
0
  6
HIDDEN
100
AcDbLine
 10
32.86938432581498
 20
29.45370086955972
 30
0.0
 11
32.98227770037103
 21
29.87502467924082
 31
0.0
  0
ARC
  5
F403
330
17
100
AcDbEntity
  8
0
  6
HIDDEN
100
AcDbCircle
 10
32.92975468995805
 20
29.43752467924081
 30
0.0
 40
0.0625000000000019
100
AcDbArc
 50
164.9999999999992
 51
344.9999999999992
  0
LINE
  5
F404
330
17
100
AcDbEntity
  8
0
  6
HIDDEN
100
AcDbLine
 10
33.10301842865717
 20
29.842672298603
 30
0.0
 11
32.99012505410111
 21
29.4213484889219
 31
0.0
  0
ARC
  5
F405
330
17
100
AcDbEntity
  8
0
  6
HIDDEN
100
AcDbCircle
 10
32.98227770037101
 20
29.8750246792408
 30
0.0
 40
0.1250000000000071
100
AcDbArc
 50
345.0000000000064
 51
0.0000000000065138
  0
LINE
  5
F406
330
17
100
AcDbEntity
  8
R-SWTS-DET3
100
AcDbLine
 10
31.25413010951409
 20
32.65108395658091
 30
0.0
 11
30.49380535772926
 21
33.41140870836576
 31
0.0
  0
LINE
  5
F407
330
17
100
AcDbEntity
  8
R-SWTS-DET3
100
AcDbLine
 10
30.50413010951409
 20
32.65108395658091
 30
0.0
 11
29.74380535772926
 21
33.41140870836576
 31
0.0
  0
LINE
  5
F408
330
17
100
AcDbEntity
  8
0
  6
HIDDEN
 62
     4
100
AcDbLine
 10
31.29527770037103
 20
30.9510246792408
 30
0.0
 11
31.15227770037103
 21
30.98302467924079
 31
0.0
  0
ARC
  5
F409
330
17
100
AcDbEntity
  8
0
  6
HIDDEN
 62
     4
100
AcDbCircle
 10
31.04307540037102
 20
30.87502467924079
 30
0.0
 40
0.3367976999999988
100
AcDbArc
 50
140.8803034786175
 51
219.1196965213815
  0
LINE
  5
F40A
330
17
100
AcDbEntity
  8
0
  6
HIDDEN
 62
     4
100
AcDbLine
 10
31.29527770037103
 20
30.7990246792408
 30
0.0
 11
31.29527770037103
 21
30.9510246792408
 31
0.0
  0
LINE
  5
F40B
330
17
100
AcDbEntity
  8
0
  6
HIDDEN
 62
     4
100
AcDbLine
 10
31.15227770037103
 20
30.7670246792408
 30
0.0
 11
31.29527770037103
 21
30.7990246792408
 31
0.0
  0
LINE
  5
F40C
330
17
100
AcDbEntity
  8
0
  6
HIDDEN
 62
     4
100
AcDbLine
 10
30.85727770037103
 20
30.7670246792408
 30
0.0
 11
31.15227770037103
 21
30.7670246792408
 31
0.0
  0
LINE
  5
F40D
330
17
100
AcDbEntity
  8
0
  6
HIDDEN
 62
     4
100
AcDbLine
 10
30.85727770037103
 20
30.6625246792408
 30
0.0
 11
30.85727770037103
 21
30.7670246792408
 31
0.0
  0
LINE
  5
F40E
330
17
100
AcDbEntity
  8
0
  6
HIDDEN
 62
     4
100
AcDbLine
 10
30.78177779088083
 20
30.6625246792408
 30
0.0
 11
30.85727770037103
 21
30.6625246792408
 31
0.0
  0
LINE
  5
F40F
330
17
100
AcDbEntity
  8
0
  6
HIDDEN
 62
     4
100
AcDbLine
 10
30.85727770037103
 20
30.98302467924079
 30
0.0
 11
30.85727770037103
 21
31.08752467924079
 31
0.0
  0
LINE
  5
F410
330
17
100
AcDbEntity
  8
0
  6
HIDDEN
 62
     4
100
AcDbLine
 10
31.15227770037103
 20
30.98302467924079
 30
0.0
 11
30.85727770037103
 21
30.98302467924079
 31
0.0
  0
LINE
  5
F411
330
17
100
AcDbEntity
  8
0
  6
HIDDEN
 62
     4
100
AcDbLine
 10
30.85727770037103
 20
31.08752467924079
 30
0.0
 11
30.78177779088083
 21
31.08752467924078
 31
0.0
  0
LINE
  5
F417
330
17
100
AcDbEntity
  8
R-SWTS-DET3
100
AcDbLine
 10
32.75413010951409
 20
32.65108395658091
 30
0.0
 11
31.99380535772926
 21
33.41140870836576
 31
0.0
  0
LINE
  5
F418
330
17
100
AcDbEntity
  8
0
100
AcDbLine
 10
32.92227770037104
 20
32.37502467924082
 30
0.0
 11
31.54227770037105
 21
32.37502467924082
 31
0.0
  0
LINE
  5
F419
330
17
100
AcDbEntity
  8
0
 62
     1
100
AcDbLine
 10
33.48227770037103
 20
32.12502467924081
 30
0.0
 11
30.98227770037103
 21
32.12502467924081
 31
0.0
  0
LINE
  5
F41A
330
17
100
AcDbEntity
  8
R-SWTS-DET3
100
AcDbLine
 10
32.0041301095141
 20
32.65108395658091
 30
0.0
 11
31.24380535772926
 21
33.41140870836576
 31
0.0
  0
LINE
  5
F41B
330
17
100
AcDbEntity
  8
0
100
AcDbLine
 10
31.35727770037104
 20
32.1231867796517
 30
0.0
 11
31.35727770037104
 21
32.3150246792408
 31
0.0
  0
ARC
  5
F41C
330
17
100
AcDbEntity
  8
0
100
AcDbCircle
 10
31.04227770037103
 20
32.56502467924081
 30
0.0
 40
0.0600000000000023
100
AcDbArc
 50
90.0
 51
180.0
  0
LINE
  5
F41D
330
17
100
AcDbEntity
  8
0
100
AcDbLine
 10
30.98227770037104
 20
32.43502467924082
 30
0.0
 11
30.98227770037103
 21
32.56502467924081
 31
0.0
  0
ARC
  5
F41E
330
17
100
AcDbEntity
  8
0
100
AcDbCircle
 10
31.04227770037103
 20
32.43502467924082
 30
0.0
 40
0.0600000000000023
100
AcDbArc
 50
180.0
 51
270.0
  0
LINE
  5
F41F
330
17
100
AcDbEntity
  8
0
100
AcDbLine
 10
31.29727770037104
 20
32.3750246792408
 30
0.0
 11
31.04227770037103
 21
32.37502467924082
 31
0.0
  0
ARC
  5
F420
330
17
100
AcDbEntity
  8
0
100
AcDbCircle
 10
31.29727770037104
 20
32.3150246792408
 30
0.0
 40
0.0600000000000023
100
AcDbArc
 50
0.0
 51
90.0
  0
LINE
  5
F421
330
17
100
AcDbEntity
  8
0
100
AcDbLine
 10
31.48227770037105
 20
32.31502467924082
 30
0.0
 11
31.48227770037105
 21
32.13103946608664
 31
0.0
  0
ARC
  5
F422
330
17
100
AcDbEntity
  8
0
100
AcDbCircle
 10
31.54227770037105
 20
32.31502467924082
 30
0.0
 40
0.0600000000000023
100
AcDbArc
 50
90.0
 51
180.0
  0
SOLID
  5
F423
330
17
100
AcDbEntity
  8
PART_NUMBERS
100
AcDbTrace
 10
32.44663434426867
 20
32.72813430410791
 30
0.0
 11
32.498851186552
 21
32.69378825073991
 31
0.0
 12
32.36970460530634
 22
32.55431075057391
 32
0.0
 13
32.36970460530634
 23
32.55431075057391
 33
0.0
  0
LINE
  5
F424
330
17
100
AcDbEntity
  8
R-SWTS-DET3
100
AcDbLine
 10
33.5041301095141
 20
32.65108395658091
 30
0.0
 11
32.74380535772926
 21
33.41140870836576
 31
0.0
  0
LINE
  5
F425
330
17
100
AcDbEntity
  8
R-SWTS-DET3
100
AcDbLine
 10
34.25413010951409
 20
32.65108395658091
 30
0.0
 11
33.49380535772926
 21
33.41140870836576
 31
0.0
  0
LINE
  5
F426
330
17
100
AcDbEntity
  8
R-SWTS-DET3
  6
CENTER
100
AcDbLine
 10
34.23227770037103
 20
34.04201644697271
 30
0.0
 11
34.23227770037103
 21
32.23227714762592
 31
0.0
  0
LINE
  5
F427
330
17
100
AcDbEntity
  8
0
100
AcDbLine
 10
32.98227770037103
 20
32.13103946608664
 30
0.0
 11
32.98227770037103
 21
32.31502467924082
 31
0.0
  0
LINE
  5
F428
330
17
100
AcDbEntity
  8
0
100
AcDbLine
 10
33.10727770037103
 20
32.31502467924082
 30
0.0
 11
33.10727770037103
 21
32.1231867796517
 31
0.0
  0
ARC
  5
F429
330
17
100
AcDbEntity
  8
0
100
AcDbCircle
 10
33.16727770037103
 20
32.31502467924082
 30
0.0
 40
0.0600000000000023
100
AcDbArc
 50
90.0
 51
180.0
  0
ARC
  5
F42A
330
17
100
AcDbEntity
  8
0
100
AcDbCircle
 10
32.92227770037104
 20
32.31502467924082
 30
0.0
 40
0.0599999999999952
100
AcDbArc
 50
359.9999999999931
 51
89.99999999999328
  0
TEXT
  5
F42B
330
17
100
AcDbEntity
  8
PART_NUMBERS
100
AcDbText
 10
55.65155170457339
 20
34.27249875814677
 30
0.0
 40
0.25
  1
162328 "T" ANCHOR
100
AcDbText
  0
LINE
  5
F42C
330
17
100
AcDbEntity
  8
PART_NUMBERS
100
AcDbLine
 10
54.74798253144573
 20
34.38596956961819
 30
0.0
 11
55.55510989542298
 21
34.3859695696182
 31
0.0
  0
LINE
  5
F42D
330
17
100
AcDbEntity
  8
PART_NUMBERS
100
AcDbLine
 10
33.57449311414622
 20
34.38596956961819
 30
0.0
 11
34.38162047812347
 21
34.3859695696182
 31
0.0
  0
LINE
  5
F42E
330
17
100
AcDbEntity
  8
0
 62
     1
100
AcDbLine
 10
41.25385897268606
 20
29.13809861426809
 30
0.0
 11
41.25385897268606
 21
30.77868457276502
 31
0.0
  0
LINE
  5
F430
330
17
100
AcDbEntity
  8
R-SWTS-DET3
100
AcDbLine
 10
38.7541301095141
 20
32.65108395658091
 30
0.0
 11
37.99380535772926
 21
33.41140870836576
 31
0.0
  0
LINE
  5
F436
330
17
100
AcDbEntity
  8
R-SWTS-DET3
100
AcDbLine
 10
36.50413010951409
 20
32.65108395658091
 30
0.0
 11
35.74380535772926
 21
33.41140870836576
 31
0.0
  0
LINE
  5
F437
330
17
100
AcDbEntity
  8
R-SWTS-DET3
100
AcDbLine
 10
35.7541301095141
 20
32.65108395658091
 30
0.0
 11
34.99380535772926
 21
33.41140870836576
 31
0.0
  0
LINE
  5
F438
330
17
100
AcDbEntity
  8
R-SWTS-DET3
100
AcDbLine
 10
38.00413010951409
 20
32.65108395658091
 30
0.0
 11
37.24380535772926
 21
33.41140870836576
 31
0.0
  0
LINE
  5
F439
330
17
100
AcDbEntity
  8
R-SWTS-DET3
100
AcDbLine
 10
37.2541301095141
 20
32.65108395658091
 30
0.0
 11
36.49380535772926
 21
33.41140870836576
 31
0.0
  0
LINE
  5
F43A
330
17
100
AcDbEntity
  8
R-SWTS-DET3
  6
CENTER
100
AcDbLine
 10
38.23227770037104
 20
34.02778974230661
 30
0.0
 11
38.23227770037104
 21
32.23227714762592
 31
0.0
  0
LINE
  5
F43B
330
17
100
AcDbEntity
  8
0
 62
     1
100
AcDbLine
 10
41.28497293580358
 20
31.03929566539619
 30
0.0
 11
41.28497293580358
 21
33.79043701453974
 31
0.0
  0
LINE
  5
F43C
330
17
100
AcDbEntity
  8
0
 62
     1
100
AcDbLine
 10
40.80130340849748
 20
30.92760510372573
 30
0.0
 11
41.69423185990001
 21
31.00206536920609
 31
0.0
  0
LINE
  5
F43D
330
17
100
AcDbEntity
  8
0
 62
     1
100
AcDbLine
 10
41.25385897268606
 20
30.77868457276502
 30
0.0
 11
40.80130340849748
 21
30.92760510372573
 31
0.0
  0
LINE
  5
F43E
330
17
100
AcDbEntity
  8
0
 62
     1
100
AcDbLine
 10
41.69423185990001
 20
31.00206536920609
 30
0.0
 11
41.28497293580358
 21
31.03929566539619
 31
0.0
  0
LINE
  5
F43F
330
17
100
AcDbEntity
  8
R-SWTS-DET3
100
AcDbLine
 10
41.00413010951409
 20
32.65108395658091
 30
0.0
 11
40.24380535772926
 21
33.41140870836576
 31
0.0
  0
LINE
  5
F440
330
17
100
AcDbEntity
  8
R-SWTS-DET3
100
AcDbLine
 10
40.25413010951409
 20
32.65108395658091
 30
0.0
 11
39.49380535772926
 21
33.41140870836576
 31
0.0
  0
LINE
  5
F441
330
17
100
AcDbEntity
  8
R-SWTS-DET3
100
AcDbLine
 10
39.5041301095141
 20
32.65108395658091
 30
0.0
 11
38.74380535772926
 21
33.41140870836576
 31
0.0
  0
ARC
  5
F442
330
17
100
AcDbEntity
  8
0
100
AcDbCircle
 10
38.92227770037104
 20
32.43502467924081
 30
0.0
 40
0.0599999999999952
100
AcDbArc
 50
269.9999999999933
 51
359.9999999999931
  0
LINE
  5
F443
330
17
100
AcDbEntity
  8
0
100
AcDbLine
 10
38.98227770037104
 20
32.56502467924081
 30
0.0
 11
38.98227770037104
 21
32.43502467924081
 31
0.0
  0
ARC
  5
F444
330
17
100
AcDbEntity
  8
0
100
AcDbCircle
 10
38.92227770037104
 20
32.56502467924081
 30
0.0
 40
0.0600000000000023
100
AcDbArc
 50
0.0
 51
90.0
  0
TEXT
  5
F445
330
17
100
AcDbEntity
  8
PART_NUMBERS
100
AcDbText
 10
34.47806228727387
 20
34.27249875814677
 30
0.0
 40
0.25
  1
162327 "F" ANCHOR
100
AcDbText
  0
LINE
  5
F54C
330
17
100
AcDbEntity
  8
R-ANNO-DIMS
100
AcDbLine
 10
13.54476025293394
 20
32.40199477398095
 30
0.0
 11
13.54476025293394
 21
20.6883110379515
 31
0.0
  0
CIRCLE
  5
F54D
330
17
100
AcDbEntity
  8
R-SWTS-DET3
100
AcDbCircle
 10
17.05876025293393
 20
32.40199477398095
 30
0.0
 40
0.25
  0
ARC
  5
F54E
330
17
100
AcDbEntity
  8
R-SWTS-DET3
100
AcDbCircle
 10
16.37126025293393
 20
32.40199477398095
 30
0.0
 40
0.3125
100
AcDbArc
 50
306.8698976458441
 51
53.13010235415594
  0
LINE
  5
F54F
330
17
100
AcDbEntity
  8
R-ANNO-DIMS
100
AcDbLine
 10
16.29476025293394
 20
26.88679235626628
 30
0.0
 11
21.79476025293394
 21
26.88679235626628
 31
0.0
  0
LWPOLYLINE
  5
F550
330
17
100
AcDbEntity
  8
R-SWTS-DET2
100
AcDbPolyline
 90
       32
 70
     1
 43
0.0
 10
20.65476025293394
 20
31.3079947739809
 10
20.66976025293394
 20
31.3229947739809
 10
20.68476025293394
 20
31.3079947739809
 10
21.0433205439815
 20
31.3079947739809
 10
21.11476025293406
 20
31.43173197956466
 42
-3.732050807569199
 10
21.22476025293397
 20
31.43173197956476
 10
21.29619996188666
 20
31.3079947739809
 10
21.75976025293403
 20
31.3079947739809
 42
0.4142135623730951
 10
21.88476025293403
 20
31.4329947739809
 10
21.88476025293403
 20
31.7454947739809
 42
1.000000000000014
 10
21.75976025293403
 20
31.7454947739809
 10
21.75976025293404
 20
31.4579947739809
 10
21.42976025293386
 20
31.4579947739809
 10
21.42976025293386
 20
31.52699477398093
 42
1.0
 10
20.90976025293401
 20
31.52699477398093
 10
20.90976025293401
 20
31.4579947739809
 10
19.42976025293386
 20
31.4579947739809
 10
19.42976025293386
 20
31.52699477398093
 42
1.0
 10
18.90976025293401
 20
31.52699477398093
 10
18.90976025293401
 20
31.4579947739809
 10
16.98976025293384
 20
31.4579947739809
 10
16.98976025293384
 20
31.6754947739809
 42
1.000000000000014
 10
16.86476025293384
 20
31.6754947739809
 10
16.86476025293384
 20
31.4329947739809
 42
0.4142135623730951
 10
16.98976025293384
 20
31.3079947739809
 10
19.0433205439815
 20
31.3079947739809
 10
19.11476025293406
 20
31.43173197956466
 42
-3.732050807569199
 10
19.22476025293397
 20
31.43173197956476
 10
19.29619996188666
 20
31.3079947739809
 10
19.65476025293394
 20
31.3079947739809
 10
19.66976025293394
 20
31.3229947739809
 10
19.68476025293394
 20
31.3079947739809
  0
LWPOLYLINE
  5
F551
330
17
100
AcDbEntity
  8
R-SWTS-DET1
100
AcDbPolyline
 90
      115
 70
     1
 43
0.0
 10
21.91976025293394
 20
32.12199477398094
 10
21.91976025293394
 20
31.3679947739809
 42
-0.4142135623730953
 10
21.85976025293394
 20
31.3079947739809
 10
21.18476025293393
 20
31.3079947739809
 10
21.16976025293394
 20
31.29299477398088
 10
21.15476025293393
 20
31.3079947739809
 10
19.18476025293393
 20
31.3079947739809
 10
19.16976025293393
 20
31.29299477398088
 10
19.15476025293394
 20
31.3079947739809
 10
16.81976025293393
 20
31.3079947739809
 10
16.81976025293394
 20
31.74799477398094
 42
0.3961370976168942
 10
16.68376025293393
 20
31.89271519410194
 10
16.68376025293393
 20
31.99699477398099
 42
-0.4142135623730863
 10
16.71376025293394
 20
32.02699477398099
 10
16.83798947041354
 20
32.02699477398099
 42
0.2617284103142208
 10
16.94476025293392
 20
31.96699477398095
 10
17.28976025293393
 20
31.96699477398095
 42
0.4142135623730938
 10
17.38976025293393
 20
32.06699477398094
 10
17.38976025293393
 20
32.15199477398094
 10
17.31976025293393
 20
32.15199477398094
 10
17.31976025293393
 20
32.09199477398094
 10
16.94476025293392
 20
32.09199477398094
 10
16.94476025293392
 20
32.15199477398099
 10
16.58876025293396
 20
32.151994773981
 10
16.55876025293394
 20
32.06199477398094
 10
16.55876025293393
 20
31.9819947739809
 42
-0.8490904586570234
 10
16.46138937580466
 20
31.96599477398091
 10
16.35817258753
 20
31.90640253348564
 42
0.5773502691895778
 10
16.35817258753
 20
31.79758701447618
 10
16.46138937580465
 20
31.73799477398091
 42
-0.8490904586570334
 10
16.55876025293394
 20
31.72199477398091
 10
16.55876025293394
 20
31.66199477398091
 10
16.58876025293393
 20
31.66199477398091
 42
0.414213562373069
 10
16.60876025293393
 20
31.68199477398092
 10
16.60876025293394
 20
31.74799477398094
 42
-0.414213562373069
 10
16.62876025293394
 20
31.76799477398093
 10
16.67476025293393
 20
31.76799477398093
 42
-0.4142135623731081
 10
16.69476025293394
 20
31.74799477398094
 10
16.69476025293391
 20
30.05599477398089
 42
-0.4142135623730951
 10
16.67476025293392
 20
30.03599477398089
 10
16.62876025293394
 20
30.03599477398089
 42
-0.4142135623730432
 10
16.60876025293394
 20
30.05599477398089
 10
16.60876025293393
 20
30.12199477398092
 42
0.414213562373069
 10
16.58876025293393
 20
30.14199477398091
 10
16.55876025293393
 20
30.14199477398091
 10
16.55876025293394
 20
30.08199477398091
 42
-0.849090458657033
 10
16.46138937580465
 20
30.0659947739809
 10
16.35817258753
 20
30.00640253348564
 42
0.5773502691895816
 10
16.35817258753
 20
29.89758701447619
 10
16.46138937580466
 20
29.83799477398092
 42
-0.8490904586570232
 10
16.55876025293393
 20
29.82199477398091
 10
16.55876025293394
 20
29.74199477398089
 10
16.58876025293394
 20
29.65199477398088
 10
16.77476025293394
 20
29.65199477398089
 42
0.4142135623730951
 10
16.79476025293394
 20
29.67199477398089
 10
16.79476025293395
 20
29.75399477398088
 42
0.669376495068636
 10
16.76911859432452
 20
29.76456620255233
 42
-0.1997729274168773
 10
16.70526864266807
 20
29.7379947739809
 10
16.69476025293394
 20
29.73799477398089
 42
-0.4142135623730951
 10
16.64476025293394
 20
29.78799477398089
 10
16.64476025293394
 20
29.87599477398089
 42
-0.4142135623730951
 10
16.69476025293394
 20
29.92599477398089
 10
16.70526864266807
 20
29.92599477398089
 42
-0.199772927416874
 10
16.76911859432453
 20
29.89942334540946
 42
0.6693764950687081
 10
16.79476025293394
 20
29.9099947739809
 10
16.79476025293393
 20
30.40199477398089
 10
16.81976025293392
 20
30.93299477398089
 10
16.81976025293393
 20
31.12299477398089
 42
-0.4142135623730875
 10
16.87976025293393
 20
31.18299477398089
 10
18.29476025293392
 20
31.18299477398089
 10
18.29476025293392
 20
31.10051284722063
 42
0.2446984432290121
 10
18.32034566675286
 20
31.05136372456331
 10
18.52196754602445
 20
30.91018656482932
 42
-0.661885561195681
 10
18.51048452279522
 20
30.85616318799721
 10
18.40903598307262
 20
30.83644358948438
 42
0.9083360464535829
 10
18.41476025293392
 20
30.77699477398095
 10
18.5747602529339
 20
30.77699477398093
 42
0.4142135623730982
 10
18.6347602529339
 20
30.83699477398094
 10
18.6347602529339
 20
30.95257106175831
 42
0.2446984432290324
 10
18.60917483911497
 20
31.00172018441565
 10
18.41976025293392
 20
31.13434970550649
 10
18.41976025293392
 20
31.18299477398089
 10
18.97476025293389
 20
31.18299477398089
 10
18.97476025293389
 20
31.0269947739809
 42
0.2052577019546553
 10
19.03527749431322
 20
30.88578787742917
 42
1.000000000000025
 10
19.10424301155462
 20
30.95820167053262
 42
-2.499999999999964
 10
19.23527749431324
 20
30.95820167053262
 42
0.6411140465858911
 10
19.26476025293393
 20
30.87224540212559
 10
19.26476025293393
 20
30.82699477398096
 42
0.9999999999999998
 10
19.36476025293399
 20
30.82699477398096
 10
19.36476025293399
 20
31.18299477398089
 10
19.65476025293394
 20
31.18299477398089
 10
19.66976025293394
 20
31.19799477398088
 10
19.68476025293394
 20
31.18299477398089
 10
20.65476025293394
 20
31.18299477398089
 10
20.66976025293394
 20
31.19799477398088
 10
20.68476025293394
 20
31.18299477398089
 10
20.9747602529339
 20
31.18299477398089
 10
20.9747602529339
 20
30.82699477398096
 42
0.9999999999999998
 10
21.07476025293394
 20
30.82699477398096
 10
21.07476025293394
 20
30.87224540212556
 42
0.6411140465859118
 10
21.10424301155463
 20
30.95820167053262
 42
-2.499999999999964
 10
21.23527749431325
 20
30.95820167053262
 42
1.000000000000024
 10
21.30424301155465
 20
30.88578787742917
 42
0.2052577019546721
 10
21.36476025293399
 20
31.02699477398092
 10
21.36476025293399
 20
31.18299477398089
 10
21.85976025293394
 20
31.18299477398089
 42
-0.4142135623730951
 10
21.91976025293394
 20
31.12299477398089
 10
21.91976025293394
 20
30.88677828535548
 42
-0.359036686576936
 10
21.89548452279524
 20
30.85732946985205
 10
21.78803598307265
 20
30.83644358948438
 42
0.9083360464535829
 10
21.79376025293394
 20
30.77699477398095
 10
22.04476025293394
 20
30.77699477398095
 10
22.04476025293394
 20
32.15199477398094
 10
21.94976025293394
 20
32.15199477398094
 42
0.4142135623731125
  0
LWPOLYLINE
  5
F552
330
17
100
AcDbEntity
  8
R-SWTS-DET3
100
AcDbPolyline
 90
        4
 70
     0
 43
0.0
 10
18.04476025293395
 20
27.6519947739809
 10
18.04476025293395
 20
30.08949477398089
 10
17.04476025293395
 20
30.08949477398089
 10
17.04476025293395
 20
27.6519947739809
  0
LWPOLYLINE
  5
F553
330
17
100
AcDbEntity
  8
R-SWTS-DET1
100
AcDbPolyline
 90
        4
 70
     0
 43
0.0
 10
22.04476025293394
 20
27.6519947739809
 10
22.04476025293394
 20
32.15199477398094
 10
16.04476025293394
 20
32.15199477398094
 10
16.04476025293394
 20
27.6519947739809
  0
LWPOLYLINE
  5
F554
330
17
100
AcDbEntity
  8
R-SWTS-DET1
100
AcDbPolyline
 90
        6
 70
     0
 43
0.0
 10
15.79476025293394
 20
27.6519947739809
 10
18.95101025293394
 20
27.6519947739809
 10
19.00407883467044
 20
27.86420996696311
 10
19.11162992267161
 20
27.43979522597293
 10
19.16469850440811
 20
27.65201041895514
 10
22.32094850440811
 20
27.65201041895514
  0
LINE
  5
F555
330
17
100
AcDbEntity
  8
R-ANNO-DIMS
100
AcDbLine
 10
16.04476025293394
 20
27.27699477398092
 30
0.0
 11
16.04476025293394
 21
26.7573327313332
 31
0.0
  0
LINE
  5
F556
330
17
100
AcDbEntity
  8
R-SWTS-DET2
100
AcDbLine
 10
17.04500533091006
 20
30.13160914992049
 30
0.0
 11
17.04500533091006
 21
29.51507371684963
 31
0.0
  0
LWPOLYLINE
  5
F55A
330
17
100
AcDbEntity
  8
R-SWTS-DET2
100
AcDbPolyline
 90
        3
 70
     0
 43
0.0
 10
17.04500533091006
 20
29.51507371684963
 10
16.50500533091006
 20
29.59160914992049
 10
16.50500533091005
 20
29.65199477398091
  0
LINE
  5
F55B
330
17
100
AcDbEntity
  8
R-SWTS-DET2
100
AcDbLine
 10
16.50500533091006
 20
29.59160914992049
 30
0.0
 11
16.50500533091007
 21
27.6519947739809
 31
0.0
  0
SOLID
  5
F561
330
17
100
AcDbEntity
  8
R-ANNO-DIMS
100
AcDbTrace
 10
16.29476025293394
 20
26.92845902293295
 30
0.0
 11
16.29476025293394
 21
26.84512568959962
 31
0.0
 12
16.04476025293394
 22
26.88679235626628
 32
0.0
 13
16.04476025293394
 23
26.88679235626628
 33
0.0
  0
LINE
  5
F562
330
17
100
AcDbEntity
  8
R-ANNO-DIMS
100
AcDbLine
 10
15.66976025293394
 20
32.15199477398094
 30
0.0
 11
13.98976025293394
 21
32.15199477398094
 31
0.0
  0
SOLID
  5
F568
330
17
100
AcDbEntity
  8
R-ANNO-DIMS
100
AcDbTrace
 10
14.12809358626727
 20
31.90199477398095
 30
0.0
 11
14.2114269196006
 21
31.90199477398095
 31
0.0
 12
14.16976025293394
 22
32.15199477398094
 32
0.0
 13
14.16976025293394
 23
32.15199477398094
 33
0.0
  0
LINE
  5
F569
330
17
100
AcDbEntity
  8
R-ANNO-DIMS
100
AcDbLine
 10
14.16976025293394
 20
31.90199477398095
 30
0.0
 11
14.16976025293394
 21
31.65199477398095
 31
0.0
  0
SOLID
  5
F56A
330
17
100
AcDbEntity
  8
R-ANNO-DIMS
100
AcDbTrace
 10
14.12809358626727
 20
31.90199477398095
 30
0.0
 11
14.21142691960061
 21
31.90199477398095
 31
0.0
 12
14.16976025293394
 22
32.15199477398094
 32
0.0
 13
14.16976025293394
 23
32.15199477398094
 33
0.0
  0
LWPOLYLINE
  5
F56C
330
17
100
AcDbEntity
  8
R-SWTS-DET1
100
AcDbPolyline
 90
       16
 70
     1
 43
0.0
 10
16.10476025293394
 20
29.70199477398094
 10
16.10476025293394
 20
32.10199477398094
 10
16.39876025293393
 20
32.10199477398094
 10
16.39876025293393
 20
32.08199477398093
 42
1.0
 10
16.47876025293393
 20
32.08199477398093
 10
16.47876025293393
 20
32.10199477398094
 10
16.51376025293393
 20
32.10199477398094
 42
1.0
 10
16.51376025293393
 20
32.15199477398094
 10
16.04476025293394
 20
32.15199477398094
 10
16.04476025293394
 20
29.65199477398094
 10
16.51376025293393
 20
29.65199477398094
 42
1.0
 10
16.51376025293393
 20
29.70199477398094
 10
16.47876025293393
 20
29.70199477398095
 10
16.47876025293393
 20
29.72199477398097
 42
1.0
 10
16.39876025293393
 20
29.72199477398097
 10
16.39876025293393
 20
29.70199477398094
  0
LINE
  5
F56D
330
17
100
AcDbEntity
  8
R-SWTS-DET2
100
AcDbLine
 10
16.79500533091006
 20
30.13160914992049
 30
0.0
 11
17.04500533091006
 21
30.13160914992049
 31
0.0
  0
LWPOLYLINE
  5
F56E
330
17
100
AcDbEntity
  8
0
100
AcDbPolyline
 90
       37
 70
     1
 43
0.0
 10
16.34976025293395
 20
29.83285839696295
 42
0.577350269189641
 10
16.36476025293395
 20
29.84151865100078
 10
16.36476025293395
 20
29.86699477398083
 42
-0.5773502691896422
 10
16.37976025293394
 20
29.87565502801869
 10
16.41976025293395
 20
29.85256101725109
 42
-0.2679491924311216
 10
16.42476025293394
 20
29.84390076321325
 10
16.42476025293394
 20
29.84199477398084
 42
0.4142135623730387
 10
16.43476025293395
 20
29.83199477398084
 10
16.46876025293394
 20
29.83199477398085
 42
-1.0
 10
16.54876025293394
 20
29.83199477398085
 10
16.54876025293394
 20
29.74199477398086
 42
-0.4142135623730951
 10
16.51876025293393
 20
29.71199477398086
 10
16.48876025293394
 20
29.71199477398086
 42
0.8490904586570254
 10
16.39138937580466
 20
29.72799477398086
 10
16.25476025293394
 20
29.80687763484942
 42
-0.2679491924311085
 10
16.21476025293394
 20
29.87615966715218
 10
16.21476025293394
 20
30.02782988080954
 42
-0.2679491924311077
 10
16.25476025293394
 20
30.09711191311229
 10
16.39138937580466
 20
30.17599477398085
 42
0.8490904586570254
 10
16.48876025293394
 20
30.19199477398085
 10
16.51876025293393
 20
30.19199477398085
 42
-0.4142135623730951
 10
16.54876025293394
 20
30.16199477398085
 10
16.54876025293394
 20
30.07199477398085
 42
-1.0
 10
16.46876025293394
 20
30.07199477398085
 10
16.43476025293395
 20
30.07199477398085
 42
0.4142135623730353
 10
16.42476025293394
 20
30.06199477398086
 10
16.42476025293394
 20
30.06008878474844
 42
-0.2679491924311216
 10
16.41976025293395
 20
30.0514285307106
 10
16.37976025293394
 20
30.02833451994302
 42
-0.5773502691896422
 10
16.36476025293395
 20
30.03699477398085
 10
16.36476025293395
 20
30.06199477398086
 42
0.4142135623730888
 10
16.35476025293394
 20
30.07199477398086
 10
16.35125609181752
 20
30.07199477398086
 10
16.28976025293394
 20
30.03649013484737
 42
0.2679491924311086
 10
16.28476025293394
 20
30.02782988080954
 10
16.28476025293394
 20
29.87615966715218
 42
0.2679491924311096
 10
16.28976025293394
 20
29.86749941311432
  0
LWPOLYLINE
  5
F56F
330
17
100
AcDbEntity
  8
0
100
AcDbPolyline
 90
       37
 70
     1
 43
0.0
 10
16.34976025293395
 20
31.97113115099894
 42
-0.577350269189641
 10
16.36476025293395
 20
31.96247089696108
 10
16.36476025293395
 20
31.93699477398103
 42
0.5773502691896422
 10
16.37976025293394
 20
31.9283345199432
 10
16.41976025293395
 20
31.95142853071077
 42
0.2679491924311216
 10
16.42476025293394
 20
31.96008878474862
 10
16.42476025293394
 20
31.96199477398103
 42
-0.4142135623730387
 10
16.43476025293395
 20
31.97199477398103
 10
16.46876025293394
 20
31.97199477398103
 42
1.0
 10
16.54876025293394
 20
31.97199477398103
 10
16.54876025293394
 20
32.06199477398103
 42
0.4142135623730951
 10
16.51876025293393
 20
32.09199477398103
 10
16.48876025293394
 20
32.09199477398103
 42
-0.8490904586570254
 10
16.39138937580466
 20
32.07599477398102
 10
16.25476025293394
 20
31.99711191311247
 42
0.2679491924311085
 10
16.21476025293394
 20
31.92782988080971
 10
16.21476025293394
 20
31.77615966715236
 42
0.2679491924311077
 10
16.25476025293394
 20
31.70687763484959
 10
16.39138937580466
 20
31.62799477398103
 42
-0.8490904586570254
 10
16.48876025293394
 20
31.61199477398104
 10
16.51876025293393
 20
31.61199477398104
 42
0.4142135623730951
 10
16.54876025293394
 20
31.64199477398103
 10
16.54876025293394
 20
31.73199477398103
 42
1.0
 10
16.46876025293394
 20
31.73199477398103
 10
16.43476025293395
 20
31.73199477398102
 42
-0.4142135623730353
 10
16.42476025293394
 20
31.74199477398102
 10
16.42476025293394
 20
31.74390076321343
 42
0.2679491924311216
 10
16.41976025293395
 20
31.75256101725127
 10
16.37976025293394
 20
31.77565502801886
 42
0.5773502691896422
 10
16.36476025293395
 20
31.76699477398101
 10
16.36476025293395
 20
31.74199477398102
 42
-0.4142135623730888
 10
16.35476025293394
 20
31.73199477398102
 10
16.35125609181752
 20
31.73199477398102
 10
16.28976025293394
 20
31.76749941311449
 42
-0.2679491924311086
 10
16.28476025293394
 20
31.77615966715236
 10
16.28476025293394
 20
31.92782988080971
 42
-0.2679491924311096
 10
16.28976025293394
 20
31.93649013484755
  0
LINE
  5
F570
330
17
100
AcDbEntity
  8
R-ANNO-DIMS
100
AcDbLine
 10
22.04476025293394
 20
27.27699477398092
 30
0.0
 11
22.04476025293394
 21
26.7573327313332
 31
0.0
  0
LWPOLYLINE
  5
F572
330
17
100
AcDbEntity
  8
R-SWTS-DET1
100
AcDbPolyline
 90
       40
 70
     1
 43
0.0
 10
18.59476025293394
 20
29.74199477398091
 42
-0.4142135623730863
 10
18.53476025293394
 20
29.80199477398091
 10
18.53476025293394
 20
29.87599477398092
 42
0.4142135623730839
 10
18.39476025293394
 20
30.01599477398092
 10
18.38476025293394
 20
30.01599477398092
 10
18.38476025293394
 20
30.83099477398092
 42
-0.4142135623730951
 10
18.41476025293394
 20
30.86099477398092
 10
18.46876025293391
 20
30.86099477398092
 42
0.9999999999999998
 10
18.46876025293391
 20
30.9229947739809
 10
18.35476025293394
 20
30.9229947739809
 42
0.4142135623730951
 10
18.29476025293395
 20
30.86299477398092
 10
18.29476025293394
 20
29.90999477398091
 42
0.669376495068664
 10
18.32040191154335
 20
29.89942334540949
 42
-0.1997729274168811
 10
18.3842518631998
 20
29.92599477398092
 10
18.39476025293394
 20
29.92599477398092
 42
-0.4142135623730847
 10
18.44476025293394
 20
29.87599477398091
 10
18.44476025293394
 20
29.78799477398091
 42
-0.4142135623730847
 10
18.39476025293394
 20
29.73799477398092
 10
18.3842518631998
 20
29.73799477398092
 42
-0.1997729274168783
 10
18.32040191154336
 20
29.76456620255235
 42
0.669376495068719
 10
18.29476025293393
 20
29.75399477398092
 10
18.29476025293394
 20
29.67199477398092
 42
0.4142135623730432
 10
18.31476025293394
 20
29.65199477398092
 10
22.03476025293394
 20
29.65199477398092
 10
22.03476025293394
 20
30.76099477398087
 10
21.97276025293394
 20
30.76099477398087
 10
21.97276025293394
 20
30.74599477398086
 10
21.76276025293394
 20
30.74599477398086
 10
21.76276025293394
 20
30.82999477398086
 42
-0.4142135623730783
 10
21.79376025293394
 20
30.86099477398086
 10
21.84776025293394
 20
30.86099477398086
 42
0.9999999999999998
 10
21.84776025293394
 20
30.92299477398086
 10
21.76276025293394
 20
30.92299477398086
 42
0.4142135623730951
 10
21.67276025293394
 20
30.83299477398087
 10
21.67276025293394
 20
30.74599477398086
 42
0.4142135623730951
 10
21.76276025293394
 20
30.65599477398085
 10
21.88476025293395
 20
30.65599477398085
 42
-0.4142135623730863
 10
21.94476025293394
 20
30.59599477398086
 10
21.94476025293394
 20
29.80199477398091
 42
-0.4142135623731037
 10
21.88476025293394
 20
29.74199477398091
  0
LWPOLYLINE
  5
F573
330
17
100
AcDbEntity
  8
R-SWTS-DET2
100
AcDbPolyline
 90
        3
 70
     0
 43
0.0
 10
18.04451517495784
 20
29.51507371684963
 10
18.58451517495783
 20
29.59160914992049
 10
18.58451517495784
 20
29.65199477398091
  0
LINE
  5
F574
330
17
100
AcDbEntity
  8
R-SWTS-DET2
100
AcDbLine
 10
18.58451517495783
 20
29.59160914992049
 30
0.0
 11
18.58451517495781
 21
27.6519947739809
 31
0.0
  0
LWPOLYLINE
  5
F575
330
17
100
AcDbEntity
  8
R-SWTS-DET3
100
AcDbPolyline
 90
        2
 70
     0
 43
0.0
 10
17.79476025293394
 20
27.6519947739809
 10
17.79476025293394
 20
30.08949477398089
  0
LWPOLYLINE
  5
F576
330
17
100
AcDbEntity
  8
R-SWTS-DET3
100
AcDbPolyline
 90
        2
 70
     0
 43
0.0
 10
17.29476025293395
 20
27.6519947739809
 10
17.29476025293395
 20
30.08949477398089
  0
MTEXT
  5
F577
330
17
100
AcDbEntity
  8
R-ANNO-DIMS
100
AcDbMText
 10
19.04476025293394
 20
27.11179235626629
 30
0.0
 40
0.25
 41
0.0
 71
     5
 72
     1
  1
\A1;6"
 73
     1
 44
1.0
1001
ACAD
1000
MTEXTBEGIN
1070
    73
1070
     1
1070
    44
1040
1.0
1070
    74
1070
     0
1000
MTEXTEND
  0
ARC
  5
F578
330
17
100
AcDbEntity
  8
R-SWTS-DET2
100
AcDbCircle
 10
18.18251517495779
 20
30.1056091499205
 30
0.0
 40
0.0350000000000276
100
AcDbArc
 50
40.5689276194163
 51
139.9999999999608
  0
LINE
  5
F579
330
17
100
AcDbEntity
  8
R-SWTS-DET2
100
AcDbLine
 10
18.15570361944862
 20
30.12810671625957
 30
0.0
 11
18.04451517495783
 21
29.99559748808277
 31
0.0
  0
LINE
  5
F57A
330
17
100
AcDbEntity
  8
R-SWTS-DET2
100
AcDbLine
 10
18.29451517495783
 20
30.0286091499205
 30
0.0
 11
18.20910201917567
 21
30.12837183241918
 31
0.0
  0
LWPOLYLINE
  5
F57B
330
17
100
AcDbEntity
  8
R-SWTS-DET3
100
AcDbPolyline
 90
        2
 70
     0
 43
0.0
 10
17.79476025293394
 20
29.83949477398089
 10
17.29476025293395
 20
29.83949477398089
  0
ARC
  5
F57C
330
17
100
AcDbEntity
  8
R-SWTS-DET2
100
AcDbCircle
 10
19.08801033293394
 20
31.44524485398092
 30
0.0
 40
0.06474996
100
AcDbArc
 50
0.0
 51
89.9999099999999
  0
ARC
  5
F57D
330
17
100
AcDbEntity
  8
R-SWTS-DET2
100
AcDbCircle
 10
19.25151023293394
 20
31.44524485398092
 30
0.0
 40
0.06474996
100
AcDbArc
 50
89.99996999999984
 51
180.0
  0
ARC
  5
F57E
330
17
100
AcDbEntity
  8
R-SWTS-DET2
100
AcDbCircle
 10
19.25151023293394
 20
31.60874469398094
 30
0.0
 40
0.06474996
100
AcDbArc
 50
180.0
 51
270.0
  0
ARC
  5
F57F
330
17
100
AcDbEntity
  8
R-SWTS-DET2
100
AcDbCircle
 10
19.08801033293394
 20
31.60874469398094
 30
0.0
 40
0.06474996
100
AcDbArc
 50
270.0
 51
0.0
  0
CIRCLE
  5
F580
330
17
100
AcDbEntity
  8
R-SWTS-DET2
100
AcDbCircle
 10
19.16976025293394
 20
31.52699477398093
 30
0.0
 40
0.2125
  0
LINE
  5
F581
330
17
100
AcDbEntity
  8
R-SWTS-DET2
100
AcDbLine
 10
19.15276029293393
 20
31.39749477398094
 30
0.0
 11
19.18676027293393
 21
31.39749477398094
 31
0.0
  0
LINE
  5
F582
330
17
100
AcDbEntity
  8
R-SWTS-DET2
100
AcDbLine
 10
19.15276029293393
 20
31.65649477398093
 30
0.0
 11
19.18676027293393
 21
31.65649477398093
 31
0.0
  0
LINE
  5
F583
330
17
100
AcDbEntity
  8
R-SWTS-DET2
100
AcDbLine
 10
19.04026025293394
 20
31.54399477398093
 30
0.0
 11
19.04026025293394
 21
31.50999477398092
 31
0.0
  0
LINE
  5
F584
330
17
100
AcDbEntity
  8
R-SWTS-DET2
100
AcDbLine
 10
19.18676027293393
 20
31.44524485398092
 30
0.0
 11
19.18676027293393
 21
31.39749477398094
 31
0.0
  0
LINE
  5
F585
330
17
100
AcDbEntity
  8
R-SWTS-DET2
100
AcDbLine
 10
19.29926025293394
 20
31.54399477398093
 30
0.0
 11
19.29926025293394
 21
31.50999477398092
 31
0.0
  0
LINE
  5
F586
330
17
100
AcDbEntity
  8
R-SWTS-DET2
100
AcDbLine
 10
19.25151023293394
 20
31.50999477398092
 30
0.0
 11
19.29926025293394
 21
31.50999477398092
 31
0.0
  0
LINE
  5
F587
330
17
100
AcDbEntity
  8
R-SWTS-DET2
100
AcDbLine
 10
19.25151023293394
 20
31.54399477398093
 30
0.0
 11
19.29926025293394
 21
31.54399477398093
 31
0.0
  0
LINE
  5
F588
330
17
100
AcDbEntity
  8
R-SWTS-DET2
100
AcDbLine
 10
19.04026025293394
 20
31.50999477398092
 30
0.0
 11
19.08801033293394
 21
31.50999477398092
 31
0.0
  0
LINE
  5
F589
330
17
100
AcDbEntity
  8
R-SWTS-DET2
100
AcDbLine
 10
19.04026025293394
 20
31.54399477398093
 30
0.0
 11
19.08801033293394
 21
31.54399477398093
 31
0.0
  0
LINE
  5
F58A
330
17
100
AcDbEntity
  8
R-SWTS-DET2
100
AcDbLine
 10
19.18676027293393
 20
31.65649477398093
 30
0.0
 11
19.18676027293393
 21
31.60874469398094
 31
0.0
  0
LINE
  5
F58B
330
17
100
AcDbEntity
  8
R-SWTS-DET2
100
AcDbLine
 10
19.15276029293393
 20
31.65649477398093
 30
0.0
 11
19.15276029293393
 21
31.60874469398094
 31
0.0
  0
LINE
  5
F58C
330
17
100
AcDbEntity
  8
R-SWTS-DET2
100
AcDbLine
 10
19.15276029293393
 20
31.44524485398092
 30
0.0
 11
19.15276029293393
 21
31.39749477398094
 31
0.0
  0
ARC
  5
F58D
330
17
100
AcDbEntity
  8
R-SWTS-DET2
100
AcDbCircle
 10
20.66976025293394
 20
31.36879267398088
 30
0.0
 40
0.3367977
100
AcDbArc
 50
233.0332999999999
 51
306.9667000000001
  0
LINE
  5
F58E
330
17
100
AcDbEntity
  8
R-SWTS-DET2
100
AcDbLine
 10
20.66976035830104
 20
31.80799477398089
 30
0.0
 11
20.56176045293394
 21
31.69999477398089
 31
0.0
  0
LINE
  5
F58F
330
17
100
AcDbEntity
  8
R-SWTS-DET2
100
AcDbLine
 10
20.88226025293394
 20
31.18299477398089
 30
0.0
 11
20.45726025293394
 21
31.18299477398089
 31
0.0
  0
ARC
  5
F590
330
17
100
AcDbEntity
  8
R-SWTS-DET2
100
AcDbCircle
 10
19.66976025293394
 20
31.36879267398088
 30
0.0
 40
0.3367977
100
AcDbArc
 50
233.0332999999999
 51
306.9667000000001
  0
ARC
  5
F591
330
17
100
AcDbEntity
  8
R-SWTS-DET2
100
AcDbCircle
 10
19.48226035293394
 20
31.11967091398089
 30
0.0
 40
0.02500004
100
AcDbArc
 50
179.9997999999998
 51
233.0329999999996
  0
ARC
  5
F592
330
17
100
AcDbEntity
  8
R-SWTS-DET2
100
AcDbCircle
 10
19.85726015293394
 20
31.11967091398089
 30
0.0
 40
0.02500004
100
AcDbArc
 50
306.9669999999999
 51
0.0
  0
LINE
  5
F593
330
17
100
AcDbEntity
  8
R-SWTS-DET2
100
AcDbLine
 10
19.66976035830104
 20
31.80799477398089
 30
0.0
 11
19.56176045293394
 21
31.69999477398089
 31
0.0
  0
LINE
  5
F594
330
17
100
AcDbEntity
  8
R-SWTS-DET2
100
AcDbLine
 10
19.66976014756684
 20
31.80799477398089
 30
0.0
 11
19.77776005293394
 21
31.69999477398089
 31
0.0
  0
LINE
  5
F595
330
17
100
AcDbEntity
  8
R-SWTS-DET2
100
AcDbLine
 10
19.77776025293394
 20
31.18299477398089
 30
0.0
 11
19.77776025293394
 21
31.6999946739809
 31
0.0
  0
LINE
  5
F596
330
17
100
AcDbEntity
  8
R-SWTS-DET2
100
AcDbLine
 10
19.56176025293394
 20
31.18299477398089
 30
0.0
 11
19.56176025293394
 21
31.6999946739809
 31
0.0
  0
LINE
  5
F597
330
17
100
AcDbEntity
  8
R-SWTS-DET2
100
AcDbLine
 10
19.88226025293394
 20
31.11967091398089
 30
0.0
 11
19.88226025293394
 21
31.18299477398089
 31
0.0
  0
LINE
  5
F598
330
17
100
AcDbEntity
  8
R-SWTS-DET2
100
AcDbLine
 10
19.45726025293394
 20
31.11967091398089
 30
0.0
 11
19.45726025293394
 21
31.18299477398089
 31
0.0
  0
LINE
  5
F599
330
17
100
AcDbEntity
  8
R-SWTS-DET2
100
AcDbLine
 10
19.45726025293394
 20
31.18299477398089
 30
0.0
 11
19.88226025293394
 21
31.18299477398089
 31
0.0
  0
ARC
  5
F59A
330
17
100
AcDbEntity
  8
R-SWTS-DET2
100
AcDbCircle
 10
20.48226035293394
 20
31.11967091398089
 30
0.0
 40
0.02500004
100
AcDbArc
 50
180.0
 51
233.0329999999996
  0
LINE
  5
F59B
330
17
100
AcDbEntity
  8
R-SWTS-DET2
100
AcDbLine
 10
20.56176025293394
 20
31.18299477398089
 30
0.0
 11
20.56176025293394
 21
31.6999946739809
 31
0.0
  0
LINE
  5
F59C
330
17
100
AcDbEntity
  8
R-SWTS-DET2
100
AcDbLine
 10
20.45726025293394
 20
31.11967091398089
 30
0.0
 11
20.45726025293394
 21
31.18299477398089
 31
0.0
  0
ARC
  5
F5A0
330
17
100
AcDbEntity
  8
R-SWTS-DET2
100
AcDbCircle
 10
21.08801033293393
 20
31.44524485398092
 30
0.0
 40
0.06474996
100
AcDbArc
 50
0.0
 51
89.9999099999999
  0
ARC
  5
F5A1
330
17
100
AcDbEntity
  8
R-SWTS-DET2
100
AcDbCircle
 10
21.25151023293394
 20
31.44524485398092
 30
0.0
 40
0.06474996
100
AcDbArc
 50
89.99996999999984
 51
180.0
  0
ARC
  5
F5A2
330
17
100
AcDbEntity
  8
R-SWTS-DET2
100
AcDbCircle
 10
21.25151023293394
 20
31.60874469398094
 30
0.0
 40
0.06474996
100
AcDbArc
 50
180.0
 51
270.0
  0
ARC
  5
F5A3
330
17
100
AcDbEntity
  8
R-SWTS-DET2
100
AcDbCircle
 10
21.08801033293393
 20
31.60874469398094
 30
0.0
 40
0.06474996
100
AcDbArc
 50
270.0
 51
0.0
  0
CIRCLE
  5
F5A4
330
17
100
AcDbEntity
  8
R-SWTS-DET2
100
AcDbCircle
 10
21.16976025293393
 20
31.52699477398093
 30
0.0
 40
0.2125
  0
LINE
  5
F5A5
330
17
100
AcDbEntity
  8
R-SWTS-DET2
100
AcDbLine
 10
21.15276029293394
 20
31.39749477398094
 30
0.0
 11
21.18676027293393
 21
31.39749477398094
 31
0.0
  0
LINE
  5
F5A6
330
17
100
AcDbEntity
  8
R-SWTS-DET2
100
AcDbLine
 10
21.15276029293394
 20
31.65649477398093
 30
0.0
 11
21.18676027293393
 21
31.65649477398093
 31
0.0
  0
LINE
  5
F5A7
330
17
100
AcDbEntity
  8
R-SWTS-DET2
100
AcDbLine
 10
21.04026025293393
 20
31.54399477398093
 30
0.0
 11
21.04026025293393
 21
31.50999477398092
 31
0.0
  0
LINE
  5
F5A8
330
17
100
AcDbEntity
  8
R-SWTS-DET2
100
AcDbLine
 10
21.18676027293393
 20
31.44524485398092
 30
0.0
 11
21.18676027293393
 21
31.39749477398094
 31
0.0
  0
LINE
  5
F5A9
330
17
100
AcDbEntity
  8
R-SWTS-DET2
100
AcDbLine
 10
21.29926025293393
 20
31.54399477398093
 30
0.0
 11
21.29926025293393
 21
31.50999477398092
 31
0.0
  0
LINE
  5
F5AA
330
17
100
AcDbEntity
  8
R-SWTS-DET2
100
AcDbLine
 10
21.25151023293394
 20
31.50999477398092
 30
0.0
 11
21.29926025293393
 21
31.50999477398092
 31
0.0
  0
LINE
  5
F5AB
330
17
100
AcDbEntity
  8
R-SWTS-DET2
100
AcDbLine
 10
21.25151023293394
 20
31.54399477398093
 30
0.0
 11
21.29926025293393
 21
31.54399477398093
 31
0.0
  0
LINE
  5
F5AC
330
17
100
AcDbEntity
  8
R-SWTS-DET2
100
AcDbLine
 10
21.04026025293393
 20
31.50999477398092
 30
0.0
 11
21.08801033293393
 21
31.50999477398092
 31
0.0
  0
LINE
  5
F5AD
330
17
100
AcDbEntity
  8
R-SWTS-DET2
100
AcDbLine
 10
21.04026025293393
 20
31.54399477398093
 30
0.0
 11
21.08801033293393
 21
31.54399477398093
 31
0.0
  0
LINE
  5
F5AE
330
17
100
AcDbEntity
  8
R-SWTS-DET2
100
AcDbLine
 10
21.18676027293393
 20
31.65649477398093
 30
0.0
 11
21.18676027293393
 21
31.60874469398094
 31
0.0
  0
LINE
  5
F5AF
330
17
100
AcDbEntity
  8
R-SWTS-DET2
100
AcDbLine
 10
21.15276029293394
 20
31.65649477398093
 30
0.0
 11
21.15276029293394
 21
31.60874469398094
 31
0.0
  0
LINE
  5
F5B0
330
17
100
AcDbEntity
  8
R-SWTS-DET2
100
AcDbLine
 10
21.15276029293394
 20
31.44524485398092
 30
0.0
 11
21.15276029293394
 21
31.39749477398094
 31
0.0
  0
ARC
  5
F5B1
330
17
100
AcDbEntity
  8
R-SWTS-DET2
100
AcDbCircle
 10
20.85726015293394
 20
31.11967091398089
 30
0.0
 40
0.02500004
100
AcDbArc
 50
306.9669999999999
 51
0.0002000000001805
  0
LINE
  5
F5B2
330
17
100
AcDbEntity
  8
R-SWTS-DET2
100
AcDbLine
 10
20.66976014756684
 20
31.80799477398089
 30
0.0
 11
20.77776005293394
 21
31.69999477398089
 31
0.0
  0
LINE
  5
F5B3
330
17
100
AcDbEntity
  8
R-SWTS-DET2
100
AcDbLine
 10
20.77776025293394
 20
31.18299477398089
 30
0.0
 11
20.77776025293394
 21
31.6999946739809
 31
0.0
  0
LINE
  5
F5B4
330
17
100
AcDbEntity
  8
R-SWTS-DET2
100
AcDbLine
 10
20.88226025293394
 20
31.11967091398089
 30
0.0
 11
20.88226025293394
 21
31.18299477398089
 31
0.0
  0
SOLID
  5
F5B7
330
17
100
AcDbEntity
  8
R-ANNO-DIMS
100
AcDbTrace
 10
21.79476025293394
 20
26.92845902293295
 30
0.0
 11
21.79476025293394
 21
26.84512568959962
 31
0.0
 12
22.04476025293394
 22
26.88679235626628
 32
0.0
 13
22.04476025293394
 23
26.88679235626628
 33
0.0
  0
LINE
  5
F5B8
330
17
100
AcDbEntity
  8
R-SWTS-DET3
100
AcDbLine
 10
15.79476025293394
 20
32.65199477398095
 30
0.0
 11
22.32094850440811
 21
32.65199477398095
 31
0.0
  0
LINE
  5
F5B9
330
17
100
AcDbEntity
  8
R-ANNO-DIMS
100
AcDbLine
 10
15.41976025293394
 20
32.65199477398095
 30
0.0
 11
13.36476025293394
 21
32.65199477398095
 31
0.0
  0
MTEXT
  5
F5BA
330
17
100
AcDbEntity
  8
R-ANNO-DIMS
100
AcDbMText
 10
13.94476025293394
 20
33.6686614406476
 30
0.0
 40
0.25
 41
0.0
 71
     5
 72
     1
  1
\A1;1/2"
 11
0.0000000000000001
 21
1.0
 31
0.0
 73
     1
 44
1.0
1001
ACAD
1000
MTEXTBEGIN
1070
    73
1070
     1
1070
    44
1040
1.0
1070
    74
1070
     0
1000
MTEXTEND
  0
LINE
  5
F5BB
330
17
100
AcDbEntity
  8
R-ANNO-DIMS
100
AcDbLine
 10
14.16976025293394
 20
32.90199477398095
 30
0.0
 11
14.16976025293394
 21
34.18532810731428
 31
0.0
  0
SOLID
  5
F5BC
330
17
100
AcDbEntity
  8
R-ANNO-DIMS
100
AcDbTrace
 10
13.50309358626727
 20
32.40199477398095
 30
0.0
 11
13.58642691960061
 21
32.40199477398095
 31
0.0
 12
13.54476025293394
 22
32.65199477398095
 32
0.0
 13
13.54476025293394
 23
32.65199477398095
 33
0.0
  0
SOLID
  5
F5BD
330
17
100
AcDbEntity
  8
R-ANNO-DIMS
100
AcDbTrace
 10
14.12809358626727
 20
32.90199477398095
 30
0.0
 11
14.2114269196006
 21
32.90199477398095
 31
0.0
 12
14.16976025293394
 22
32.65199477398095
 32
0.0
 13
14.16976025293394
 23
32.65199477398095
 33
0.0
  0
LWPOLYLINE
  5
F5C7
330
17
100
AcDbEntity
  8
R-SWTS-DET2
100
AcDbPolyline
 90
       32
 70
     1
 43
0.0
 10
19.22476025293397
 20
21.90857383236787
 10
19.29619996188666
 20
22.03231103795172
 10
19.65476025293394
 20
22.03231103795172
 10
19.66976025293394
 20
22.01731103795172
 10
19.68476025293394
 20
22.03231103795172
 10
20.65476025293394
 20
22.03231103795172
 10
20.66976025293394
 20
22.01731103795172
 10
20.68476025293394
 20
22.03231103795172
 10
21.0433205439815
 20
22.03231103795172
 10
21.11476025293406
 20
21.90857383236795
 42
3.732050807569199
 10
21.22476025293398
 20
21.90857383236787
 10
21.29619996188666
 20
22.03231103795172
 10
21.64976025293404
 20
22.03231103795172
 42
-0.4142135623730951
 10
21.77476025293404
 20
21.90731103795171
 10
21.77476025293403
 20
21.61581103795171
 42
-1.000000000000014
 10
21.64976025293403
 20
21.61581103795171
 10
21.64976025293404
 20
21.88231103795171
 10
21.42976025293386
 20
21.88231103795172
 10
21.42976025293386
 20
21.81331103795168
 42
-1.0
 10
20.90976025293401
 20
21.81331103795168
 10
20.90976025293401
 20
21.88231103795172
 10
19.42976025293386
 20
21.88231103795172
 10
19.42976025293386
 20
21.81331103795168
 42
-1.0
 10
18.90976025293402
 20
21.81331103795168
 10
18.90976025293401
 20
21.88231103795172
 10
18.68976025293384
 20
21.88231103795171
 10
18.68976025293384
 20
21.61581103795171
 42
-1.000000000000014
 10
18.56476025293384
 20
21.61581103795171
 10
18.56476025293384
 20
21.90731103795171
 42
-0.4142135623730951
 10
18.68976025293384
 20
22.03231103795172
 10
19.0433205439815
 20
22.03231103795172
 10
19.11476025293406
 20
21.90857383236795
 42
3.732050807569199
  0
LWPOLYLINE
  5
F5C8
330
17
100
AcDbEntity
  8
R-SWTS-DET2
100
AcDbPolyline
 90
       20
 70
     1
 43
0.0
 10
18.10402112384184
 20
21.63331103795153
 42
1.0
 10
18.10402112384184
 20
21.75831103795153
 10
17.68902112384187
 20
21.75831103795153
 42
-0.4142135623730951
 10
17.58902112384187
 20
21.85831103795154
 10
17.58902112384187
 20
22.22581103795154
 42
1.0
 10
17.58902112384187
 20
22.34581103795154
 10
17.58902112384187
 20
22.71331103795154
 42
-0.4142135623730951
 10
17.68902112384187
 20
22.81331103795154
 10
18.10402112384186
 20
22.81331103795154
 42
1.0
 10
18.10402112384186
 20
22.93831103795154
 10
16.94902112384187
 20
22.93831103795154
 42
1.0
 10
16.94902112384187
 20
22.81331103795154
 10
17.36402112384187
 20
22.81331103795154
 42
-0.4142135623730951
 10
17.46402112384187
 20
22.71331103795154
 10
17.46402112384187
 20
22.34581103795154
 42
1.0
 10
17.46402112384187
 20
22.22581103795154
 10
17.46402112384187
 20
21.85831103795154
 42
-0.4142135623730951
 10
17.36402112384187
 20
21.75831103795153
 10
16.94902112384189
 20
21.75831103795153
 42
1.0
 10
16.94902112384189
 20
21.63331103795153
  0
LWPOLYLINE
  5
F5C9
330
17
100
AcDbEntity
  8
0
100
AcDbPolyline
 90
       37
 70
     1
 43
0.0
 10
16.34976025293395
 20
21.36917466093355
 42
0.577350269189641
 10
16.36476025293395
 20
21.3778349149714
 10
16.36476025293395
 20
21.40331103795146
 42
-0.5773502691896422
 10
16.37976025293394
 20
21.41197129198929
 10
16.41976025293395
 20
21.38887728122171
 42
-0.2679491924311216
 10
16.42476025293394
 20
21.38021702718386
 10
16.42476025293394
 20
21.37831103795145
 42
0.4142135623730387
 10
16.43476025293395
 20
21.36831103795146
 10
16.46876025293394
 20
21.36831103795146
 42
-1.0
 10
16.54876025293394
 20
21.36831103795146
 10
16.54876025293394
 20
21.27831103795146
 42
-0.4142135623730951
 10
16.51876025293393
 20
21.24831103795146
 10
16.48876025293394
 20
21.24831103795146
 42
0.8490904586570254
 10
16.39138937580466
 20
21.26431103795146
 10
16.25476025293394
 20
21.34319389882003
 42
-0.2679491924311085
 10
16.21476025293394
 20
21.41247593112278
 10
16.21476025293394
 20
21.56414614478014
 42
-0.2679491924311077
 10
16.25476025293394
 20
21.63342817708289
 10
16.39138937580466
 20
21.71231103795145
 42
0.8490904586570254
 10
16.48876025293394
 20
21.72831103795146
 10
16.51876025293393
 20
21.72831103795146
 42
-0.4142135623730951
 10
16.54876025293394
 20
21.69831103795146
 10
16.54876025293394
 20
21.60831103795146
 42
-1.0
 10
16.46876025293394
 20
21.60831103795146
 10
16.43476025293395
 20
21.60831103795147
 42
0.4142135623730353
 10
16.42476025293394
 20
21.59831103795147
 10
16.42476025293394
 20
21.59640504871905
 42
-0.2679491924311216
 10
16.41976025293395
 20
21.58774479468121
 10
16.37976025293394
 20
21.56465078391362
 42
-0.5773502691896422
 10
16.36476025293395
 20
21.57331103795147
 10
16.36476025293395
 20
21.59831103795147
 42
0.4142135623730888
 10
16.35476025293394
 20
21.60831103795147
 10
16.35125609181752
 20
21.60831103795147
 10
16.28976025293394
 20
21.57280639881799
 42
0.2679491924311086
 10
16.28476025293394
 20
21.56414614478014
 10
16.28476025293394
 20
21.41247593112278
 42
0.2679491924311096
 10
16.28976025293394
 20
21.40381567708494
  0
LWPOLYLINE
  5
F5CA
330
17
100
AcDbEntity
  8
R-SWTS-DET1
100
AcDbPolyline
 90
       16
 70
     1
 43
0.0
 10
16.10476025293394
 20
21.23831103795155
 10
16.10476025293394
 20
23.63831103795154
 10
16.39876025293393
 20
23.63831103795154
 10
16.39876025293393
 20
23.61831103795152
 42
1.0
 10
16.47876025293393
 20
23.61831103795152
 10
16.47876025293393
 20
23.63831103795154
 10
16.51376025293393
 20
23.63831103795154
 42
1.0
 10
16.51376025293393
 20
23.68831103795154
 10
16.04476025293394
 20
23.68831103795154
 10
16.04476025293394
 20
21.18831103795155
 10
16.51376025293393
 20
21.18831103795155
 42
1.0
 10
16.51376025293393
 20
21.23831103795155
 10
16.47876025293393
 20
21.23831103795155
 10
16.47876025293393
 20
21.25831103795157
 42
1.0
 10
16.39876025293393
 20
21.25831103795157
 10
16.39876025293393
 20
21.23831103795155
  0
LWPOLYLINE
  5
F5CB
330
17
100
AcDbEntity
  8
R-SWTS-DET1
100
AcDbPolyline
 90
      153
 70
     1
 43
0.0
 10
16.46138937580465
 20
21.37431103795147
 10
16.35817258752999
 20
21.43390327844675
 42
-0.5773502691895742
 10
16.35817258752999
 20
21.5427187974562
 10
16.46138937580464
 20
21.60231103795147
 42
0.8490904586570334
 10
16.55876025293393
 20
21.61831103795147
 10
16.55876025293393
 20
21.67231103795147
 10
16.58876025293392
 20
21.67231103795147
 42
-0.414213562373069
 10
16.60876025293392
 20
21.65231103795148
 10
16.60876025293393
 20
21.6123110379515
 42
0.414213562373069
 10
16.62876025293393
 20
21.5923110379515
 10
16.67476025293392
 20
21.5923110379515
 42
0.4142135623731015
 10
16.69476025293391
 20
21.6123110379515
 10
16.69476025293393
 20
23.30431103795149
 42
0.4142135623731015
 10
16.67476025293393
 20
23.32431103795149
 10
16.62876025293393
 20
23.32431103795149
 42
0.414213562373069
 10
16.60876025293393
 20
23.30431103795149
 10
16.60876025293392
 20
23.21831103795147
 42
-0.414213562373069
 10
16.58876025293392
 20
23.19831103795147
 10
16.55876025293393
 20
23.19831103795147
 10
16.55876025293393
 20
23.25831103795147
 42
0.8490904586570314
 10
16.46138937580464
 20
23.27431103795148
 10
16.35817258752999
 20
23.33390327844674
 42
-0.577350269189573
 10
16.35817258752999
 20
23.44271879745619
 10
16.46138937580465
 20
23.50231103795147
 42
0.8490904586570302
 10
16.55876025293393
 20
23.51831103795147
 10
16.55876025293393
 20
23.5983110379515
 10
16.58876025293393
 20
23.68831103795149
 10
16.77476025293394
 20
23.68831103795149
 42
-0.4142135623730951
 10
16.79476025293394
 20
23.66831103795149
 10
16.79476025293394
 20
23.5863110379515
 42
-0.6693764950686579
 10
16.76911859432452
 20
23.57573960938006
 42
0.1997729274168739
 10
16.70526864266807
 20
23.60231103795149
 10
16.69476025293394
 20
23.60231103795149
 42
0.4142135623731054
 10
16.64476025293393
 20
23.55231103795149
 10
16.64476025293394
 20
23.46431103795149
 42
0.4142135623730951
 10
16.69476025293394
 20
23.41431103795149
 10
16.70526864266807
 20
23.41431103795149
 42
0.1997729274168763
 10
16.76911859432453
 20
23.44088246652292
 42
-0.6693764950687103
 10
16.79476025293393
 20
23.43031103795149
 10
16.79476025293393
 20
22.93831103795149
 10
16.82476025293392
 20
21.9133110379515
 10
16.82476025293391
 20
21.6933110379515
 42
0.4142135623730993
 10
16.88476025293391
 20
21.6333110379515
 10
18.23476025293387
 20
21.6333110379515
 42
0.41421356237308
 10
18.29476025293388
 20
21.69331103795149
 10
18.29476025293391
 20
22.41331103795149
 10
18.22876025293392
 20
22.4133110379515
 42
-0.4142135623731484
 10
18.12876025293392
 20
22.5133110379515
 10
18.12876025293392
 20
22.5433110379515
 42
-0.4142135623730951
 10
18.14876025293392
 20
22.56331103795151
 10
18.20876025293392
 20
22.56331103795151
 42
-0.4142135623730951
 10
18.21876025293392
 20
22.5533110379515
 10
18.21876025293392
 20
22.5133110379515
 42
0.4142135623731471
 10
18.22876025293392
 20
22.5033110379515
 10
18.2847602529339
 20
22.50331103795149
 42
0.4142135623730951
 10
18.29476025293391
 20
22.5133110379515
 10
18.29476025293394
 20
23.43031103795152
 42
-0.6693764950686824
 10
18.32040191154335
 20
23.44088246652295
 42
0.199772927416878
 10
18.38425186319981
 20
23.41431103795152
 10
18.39476025293394
 20
23.41431103795152
 42
0.4142135623730744
 10
18.44476025293394
 20
23.46431103795152
 10
18.44476025293395
 20
23.55231103795153
 42
0.4142135623730744
 10
18.39476025293394
 20
23.60231103795152
 10
18.38425186319981
 20
23.60231103795152
 42
0.1997729274168749
 10
18.32040191154336
 20
23.57573960938009
 42
-0.6693764950687778
 10
18.29476025293394
 20
23.58631103795152
 10
18.29476025293394
 20
23.6683110379515
 42
-0.4142135623730887
 10
18.31476025293394
 20
23.68831103795149
 10
18.52476025293385
 20
23.68831103795149
 42
-0.4142135623731015
 10
18.54476025293385
 20
23.6683110379515
 10
18.54476025293385
 20
23.61831103795144
 10
18.62576025293389
 20
23.61831103795144
 42
-1.0
 10
18.62576025293389
 20
23.55831103795143
 10
18.54476025293394
 20
23.55831103795143
 10
18.54476025293394
 20
23.40431103795149
 42
-0.4142135623730887
 10
18.44476025293394
 20
23.30431103795149
 10
18.41976025293394
 20
23.30431103795149
 10
18.41976025293389
 20
22.15731103795207
 10
18.96676025293394
 20
22.15731103795169
 10
18.96676025293394
 20
22.3133110379519
 42
-0.202245309578678
 10
19.02806897776616
 20
22.45868153888427
 42
-0.9999999999999984
 10
19.10345152810173
 20
22.38134156794487
 42
2.458658802525793
 10
19.23606897776615
 20
22.38134156794487
 42
-0.9999999999999984
 10
19.31145152810172
 20
22.45868153888427
 42
-0.2022453095786804
 10
19.37276025293394
 20
22.31331103795189
 10
19.37276025293393
 20
22.15731103795198
 10
19.65476025293394
 20
22.15731103795172
 10
19.66976025293394
 20
22.14231103795172
 10
19.68476025293417
 20
22.15731103795196
 10
20.65476025293394
 20
22.15731103795172
 10
20.66976025293394
 20
22.14231103795172
 10
20.68476025293394
 20
22.15731103795171
 10
20.96676025293394
 20
22.15731103795169
 10
20.96676025293394
 20
22.3133110379519
 42
-0.202245309578678
 10
21.02806897776616
 20
22.45868153888427
 42
-0.9999999999999984
 10
21.10345152810173
 20
22.38134156794487
 42
2.458658802525796
 10
21.23606897776615
 20
22.38134156794487
 42
-0.9999999999999984
 10
21.31145152810172
 20
22.45868153888427
 42
-0.2022453095786801
 10
21.37276025293393
 20
22.31331103795189
 10
21.37276025293394
 20
22.15731103795166
 10
21.85976025293393
 20
22.15731103795162
 42
0.4142135623731226
 10
21.91976025293394
 20
22.21731103795161
 10
21.91976025293394
 20
23.35631103795151
 42
0.4142135623731341
 10
21.89976025293393
 20
23.37631103795151
 10
21.83776025293393
 20
23.3763110379515
 10
21.89392242964142
 20
23.53061535028274
 10
22.02768918512207
 20
23.66438210576339
 42
-0.6681786379192923
 10
22.04476025293394
 20
23.65731103795153
 10
22.04476025293394
 20
21.1883110379515
 10
21.79476025293394
 20
21.18831103795149
 10
21.79476025293394
 20
21.2483110379515
 10
21.51976025293394
 20
21.2483110379515
 10
21.51976025293394
 20
21.18831103795149
 10
21.44976025293394
 20
21.18831103795149
 10
21.44976025293394
 20
21.2483110379515
 42
-0.4142135623730894
 10
21.53976025293394
 20
21.3383110379515
 10
21.85976025293394
 20
21.3383110379515
 42
0.4142135623730971
 10
21.91976025293394
 20
21.3983110379515
 10
21.91976025293394
 20
21.97231103795161
 42
0.4142135623730664
 10
21.85976025293395
 20
22.03231103795161
 10
18.47976025293437
 20
22.03231103795206
 42
0.4142135623729048
 10
18.41976025293436
 20
21.97231103795211
 10
18.41976025293387
 20
21.31081103795143
 42
-1.000000000000373
 10
18.29476025293387
 20
21.31081103795152
 10
18.29476025293393
 20
21.3883110379515
 42
0.4142135623730826
 10
18.16976025293393
 20
21.5133110379515
 10
18.12976025293393
 20
21.5133110379515
 42
0.4142135623731079
 10
18.00476025293393
 20
21.38831103795149
 10
18.00476025293394
 20
21.2883110379515
 42
-0.4142135623731086
 10
17.90476025293394
 20
21.18831103795149
 10
17.83476025293395
 20
21.18831103795149
 42
-0.4142135623730778
 10
17.80476025293394
 20
21.2183110379515
 10
17.80476025293394
 20
21.2583110379515
 42
-0.414213562373108
 10
17.83476025293395
 20
21.2883110379515
 10
17.88476025293394
 20
21.2883110379515
 10
17.88476025293392
 20
21.45331103795151
 42
0.414213562373055
 10
17.82476025293392
 20
21.5133110379515
 10
17.47976025293392
 20
21.5133110379515
 42
0.4142135623730993
 10
17.41976025293392
 20
21.45331103795149
 10
17.41976025293392
 20
21.18831103795149
 10
17.30976025293393
 20
21.18831103795149
 10
17.30976025293392
 20
21.45331103795149
 42
0.414213562373093
 10
17.24976025293392
 20
21.5133110379515
 10
16.81876025293393
 20
21.5133110379515
 42
0.4142135623731063
 10
16.67876025293393
 20
21.37331103795149
 10
16.67876025293393
 20
21.33831103795144
 42
0.4142135623730778
 10
16.70876025293393
 20
21.30831103795145
 10
16.88476025293392
 20
21.30831103795145
 42
-0.4142135623730971
 10
16.94476025293392
 20
21.24831103795145
 10
16.94476025293392
 20
21.18831103795145
 10
16.58876025293393
 20
21.18831103795145
 10
16.55876025293393
 20
21.27831103795145
 10
16.55876025293393
 20
21.35831103795148
 42
0.8490904586570177
  0
LINE
  5
F5CC
330
17
100
AcDbEntity
  8
0
  6
HIDDEN2
100
AcDbLine
 10
16.26276025293394
 20
21.12581103795155
 30
0.0
 11
16.26276025293394
 21
21.7895610379515
 31
0.0
  0
LWPOLYLINE
  5
F5CD
330
17
100
AcDbEntity
  8
0
100
AcDbPolyline
 90
        5
 70
     0
 43
0.0
 10
16.82476025293392
 20
21.6333110379515
 10
16.69476025293392
 20
21.6333110379515
 10
16.82476025293392
 20
21.9458110379515
 10
16.69476025293392
 20
21.9458110379515
 10
16.82476025293392
 20
21.6333110379515
  0
CIRCLE
  5
F5CE
330
17
100
AcDbEntity
  8
R-SWTS-DET2
100
AcDbCircle
 10
19.16976025293394
 20
21.81331103795151
 30
0.0
 40
0.2125
  0
LINE
  5
F5CF
330
17
100
AcDbEntity
  8
R-SWTS-DET2
100
AcDbLine
 10
19.18676027293393
 20
21.68381103795152
 30
0.0
 11
19.18676027293393
 21
21.73156111795151
 31
0.0
  0
LINE
  5
F5D0
330
17
100
AcDbEntity
  8
R-SWTS-DET2
100
AcDbLine
 10
19.15276029293394
 20
21.68381103795152
 30
0.0
 11
19.15276029293394
 21
21.73156111795151
 31
0.0
  0
CIRCLE
  5
F5D1
330
17
100
AcDbEntity
  8
R-SWTS-DET2
100
AcDbCircle
 10
21.16976025293394
 20
21.81331103795151
 30
0.0
 40
0.2125
  0
LINE
  5
F5D2
330
17
100
AcDbEntity
  8
R-SWTS-DET2
100
AcDbLine
 10
21.18676027293394
 20
21.68381103795152
 30
0.0
 11
21.18676027293394
 21
21.73156111795151
 31
0.0
  0
LINE
  5
F5D3
330
17
100
AcDbEntity
  8
R-SWTS-DET2
100
AcDbLine
 10
21.15276029293394
 20
21.68381103795152
 30
0.0
 11
21.15276029293394
 21
21.73156111795151
 31
0.0
  0
LINE
  5
F5D4
330
17
100
AcDbEntity
  8
R-SWTS-DET2
100
AcDbLine
 10
19.77776025293394
 20
22.15731103795155
 30
0.0
 11
19.77776025293394
 21
21.64031113795156
 31
0.0
  0
LINE
  5
F5D5
330
17
100
AcDbEntity
  8
R-SWTS-DET2
100
AcDbLine
 10
19.56176025293394
 20
22.15731103795155
 30
0.0
 11
19.56176025293394
 21
21.64031113795156
 31
0.0
  0
LINE
  5
F5D6
330
17
100
AcDbEntity
  8
R-SWTS-DET2
100
AcDbLine
 10
20.56176025293394
 20
22.15731103795155
 30
0.0
 11
20.56176025293394
 21
21.64031113795156
 31
0.0
  0
LINE
  5
F5D7
330
17
100
AcDbEntity
  8
R-SWTS-DET2
100
AcDbLine
 10
20.77776025293394
 20
22.15731103795155
 30
0.0
 11
20.77776025293394
 21
21.64031113795156
 31
0.0
  0
LWPOLYLINE
  5
F5D8
330
17
100
AcDbEntity
  8
R-SWTS-DET1
100
AcDbPolyline
 90
        4
 70
     0
 43
0.0
 10
22.04476025293394
 20
25.68831103795155
 10
22.04476025293394
 20
21.1883110379515
 10
16.04476025293394
 20
21.1883110379515
 10
16.04476025293394
 20
25.68831103795155
  0
CIRCLE
  5
F5DA
330
17
100
AcDbEntity
  8
R-SWTS-DET3
100
AcDbCircle
 10
17.05876025293393
 20
20.9383110379515
 30
0.0
 40
0.25
  0
LINE
  5
F5DB
330
17
100
AcDbEntity
  8
R-SWTS-DET3
100
AcDbLine
 10
15.79476025293394
 20
20.6883110379515
 30
0.0
 11
22.32094850440812
 21
20.6883110379515
 31
0.0
  0
LINE
  5
F5DC
330
17
100
AcDbEntity
  8
R-ANNO-DIMS
100
AcDbLine
 10
15.66976025293394
 20
21.1883110379515
 30
0.0
 11
13.98976025293394
 21
21.1883110379515
 31
0.0
  0
LINE
  5
F5DD
330
17
100
AcDbEntity
  8
R-ANNO-DIMS
100
AcDbLine
 10
15.41976025293394
 20
20.6883110379515
 30
0.0
 11
13.36476025293394
 21
20.6883110379515
 31
0.0
  0
LINE
  5
F5DE
330
17
100
AcDbEntity
  8
R-ANNO-DIMS
100
AcDbLine
 10
14.16976025293394
 20
20.4383110379515
 30
0.0
 11
14.16976025293394
 21
19.15497770461816
 31
0.0
  0
MTEXT
  5
F5DF
330
17
100
AcDbEntity
  8
R-ANNO-DIMS
100
AcDbMText
 10
13.94476025293394
 20
19.67164437128483
 30
0.0
 40
0.25
 41
0.0
 71
     5
 72
     1
  1
\A1;1/2"
 11
0.0000000000000001
 21
1.0
 31
0.0
 73
     1
 44
1.0
1001
ACAD
1000
MTEXTBEGIN
1070
    73
1070
     1
1070
    44
1040
1.0
1070
    74
1070
     0
1000
MTEXTEND
  0
SOLID
  5
F5E0
330
17
100
AcDbEntity
  8
R-ANNO-DIMS
100
AcDbTrace
 10
13.50309358626727
 20
20.9383110379515
 30
0.0
 11
13.5864269196006
 21
20.9383110379515
 31
0.0
 12
13.54476025293394
 22
20.6883110379515
 32
0.0
 13
13.54476025293394
 23
20.6883110379515
 33
0.0
  0
SOLID
  5
F5E2
330
17
100
AcDbEntity
  8
R-ANNO-DIMS
100
AcDbTrace
 10
14.12809358626727
 20
20.4383110379515
 30
0.0
 11
14.2114269196006
 21
20.4383110379515
 31
0.0
 12
14.16976025293394
 22
20.6883110379515
 32
0.0
 13
14.16976025293394
 23
20.6883110379515
 33
0.0
  0
SOLID
  5
F5E3
330
17
100
AcDbEntity
  8
R-ANNO-DIMS
100
AcDbTrace
 10
14.12809358626727
 20
21.4383110379515
 30
0.0
 11
14.2114269196006
 21
21.4383110379515
 31
0.0
 12
14.16976025293394
 22
21.1883110379515
 32
0.0
 13
14.16976025293394
 23
21.1883110379515
 33
0.0
  0
LINE
  5
F5E4
330
17
100
AcDbEntity
  8
R-ANNO-DIMS
100
AcDbLine
 10
14.16976025293394
 20
21.4383110379515
 30
0.0
 11
14.16976025293394
 21
21.6883110379515
 31
0.0
  0
SOLID
  5
F5E5
330
17
100
AcDbEntity
  8
R-ANNO-DIMS
100
AcDbTrace
 10
14.12809358626727
 20
21.4383110379515
 30
0.0
 11
14.2114269196006
 21
21.4383110379515
 31
0.0
 12
14.16976025293394
 22
21.1883110379515
 32
0.0
 13
14.16976025293394
 23
21.1883110379515
 33
0.0
  0
SOLID
  5
F5E6
330
17
100
AcDbEntity
  8
0
100
AcDbTrace
 10
16.29401025293394
 20
21.12581103795155
 30
0.0
 11
16.23151025293394
 21
21.12581103795155
 31
0.0
 12
16.26276025293394
 22
20.93831103795155
 32
0.0
 13
16.26276025293394
 23
20.93831103795155
 33
0.0
  0
LWPOLYLINE
  5
F5E7
330
17
100
AcDbEntity
  8
0
100
AcDbPolyline
 90
        5
 70
     0
 43
0.0
 10
16.10651025293394
 20
21.18831103795155
 10
16.10651025293394
 20
21.23831103795155
 10
16.41901025293394
 20
21.18831103795155
 10
16.41901025293394
 20
21.23831103795155
 10
16.10651025293394
 20
21.18831103795155
  0
ARC
  5
F5E8
330
17
100
AcDbEntity
  8
R-SWTS-DET3
100
AcDbCircle
 10
16.37126025293393
 20
20.9383110379515
 30
0.0
 40
0.3125
100
AcDbArc
 50
306.8698976458439
 51
53.1301023541561
  0
LINE
  5
F5EC
330
17
100
AcDbEntity
  8
R-SWTS-DET2
100
AcDbLine
 10
19.15276029293394
 20
21.68381103795152
 30
0.0
 11
19.18676027293393
 21
21.68381103795152
 31
0.0
  0
LINE
  5
F5ED
330
17
100
AcDbEntity
  8
R-SWTS-DET2
100
AcDbLine
 10
20.66976035830104
 20
21.53231103795155
 30
0.0
 11
20.56176045293394
 21
21.64031103795155
 31
0.0
  0
LINE
  5
F5EE
330
17
100
AcDbEntity
  8
R-SWTS-DET2
100
AcDbLine
 10
19.66976035830104
 20
21.53231103795155
 30
0.0
 11
19.56176045293394
 21
21.64031103795155
 31
0.0
  0
LINE
  5
F5EF
330
17
100
AcDbEntity
  8
R-SWTS-DET2
100
AcDbLine
 10
19.66976014756684
 20
21.53231103795155
 30
0.0
 11
19.77776005293394
 21
21.64031103795155
 31
0.0
  0
LINE
  5
F5F0
330
17
100
AcDbEntity
  8
R-SWTS-DET2
100
AcDbLine
 10
21.15276029293394
 20
21.68381103795152
 30
0.0
 11
21.18676027293394
 21
21.68381103795152
 31
0.0
  0
LINE
  5
F5F1
330
17
100
AcDbEntity
  8
R-SWTS-DET2
100
AcDbLine
 10
20.66976014756684
 20
21.53231103795155
 30
0.0
 11
20.77776005293394
 21
21.64031103795155
 31
0.0
  0
LWPOLYLINE
  5
F5F2
330
17
100
AcDbEntity
  8
R-SWTS-DET2
100
AcDbPolyline
 90
       12
 70
     1
 43
0.0
 10
17.01976025293393
 20
22.93831103795155
 10
17.01976025293393
 20
23.04931103795155
 10
16.87976025293394
 20
23.04931103795154
 42
-1.0
 10
16.87976025293394
 20
23.13931103795154
 10
17.01976025293393
 20
23.13931103795154
 10
17.01976025293393
 20
23.25031103795155
 10
18.06976025293394
 20
23.25031103795155
 10
18.06976025293394
 20
23.13931103795154
 10
18.20976025293393
 20
23.13931103795154
 42
-1.0
 10
18.20976025293393
 20
23.04931103795154
 10
18.06976025293394
 20
23.04931103795155
 10
18.06976025293394
 20
22.93831103795155
  0
LINE
  5
F5F3
330
17
100
AcDbEntity
  8
0
  6
HIDDEN2
100
AcDbLine
 10
17.54476025293395
 20
21.7895610379515
 30
0.0
 11
16.26276025293394
 21
21.7895610379515
 31
0.0
  0
LWPOLYLINE
  5
F5F4
330
17
100
AcDbEntity
  8
R-SWTS-DET1
100
AcDbPolyline
 90
        6
 70
     0
 43
0.0
 10
15.79476025293394
 20
25.68831103795154
 10
18.95101025293394
 20
25.68831103795154
 10
19.00407883467044
 20
25.47609584496933
 10
19.11162992267161
 20
25.90051058595951
 10
19.16469850440811
 20
25.6882953929773
 10
22.32094850440811
 20
25.6882953929773
  0
LWPOLYLINE
  5
F5F5
330
17
100
AcDbEntity
  8
R-SWTS-DET3
100
AcDbPolyline
 90
        4
 70
     0
 43
0.0
 10
18.04476025293395
 20
25.68831103795154
 10
18.04476025293395
 20
23.25081103795155
 10
17.04476025293395
 20
23.25081103795155
 10
17.04476025293395
 20
25.68831103795154
  0
LINE
  5
F5F8
330
17
100
AcDbEntity
  8
R-SWTS-DET2
100
AcDbLine
 10
16.50500533091006
 20
23.74869666201194
 30
0.0
 11
16.50500533091007
 21
25.68831103795154
 31
0.0
  0
LINE
  5
F5FF
330
17
100
AcDbEntity
  8
R-SWTS-DET2
100
AcDbLine
 10
17.04500533091006
 20
23.82523209508281
 30
0.0
 11
17.04500533091006
 21
23.20869666201195
 31
0.0
  0
LINE
  5
F600
330
17
100
AcDbEntity
  8
R-SWTS-DET2
100
AcDbLine
 10
16.79500533091006
 20
23.20869666201195
 30
0.0
 11
17.04500533091006
 21
23.20869666201195
 31
0.0
  0
LWPOLYLINE
  5
F601
330
17
100
AcDbEntity
  8
0
100
AcDbPolyline
 90
       37
 70
     1
 43
0.0
 10
16.34976025293395
 20
23.50744741496954
 42
-0.577350269189641
 10
16.36476025293395
 20
23.49878716093169
 10
16.36476025293395
 20
23.47331103795164
 42
0.5773502691896422
 10
16.37976025293394
 20
23.4646507839138
 10
16.41976025293395
 20
23.48774479468138
 42
0.2679491924311216
 10
16.42476025293394
 20
23.49640504871922
 10
16.42476025293394
 20
23.49831103795164
 42
-0.4142135623730387
 10
16.43476025293395
 20
23.50831103795163
 10
16.46876025293394
 20
23.50831103795163
 42
1.0
 10
16.54876025293394
 20
23.50831103795163
 10
16.54876025293394
 20
23.59831103795163
 42
0.4142135623730951
 10
16.51876025293393
 20
23.62831103795163
 10
16.48876025293394
 20
23.62831103795163
 42
-0.8490904586570254
 10
16.39138937580466
 20
23.61231103795163
 10
16.25476025293394
 20
23.53342817708307
 42
0.2679491924311085
 10
16.21476025293394
 20
23.46414614478032
 10
16.21476025293394
 20
23.31247593112295
 42
0.2679491924311077
 10
16.25476025293394
 20
23.2431938988202
 10
16.39138937580466
 20
23.16431103795164
 42
-0.8490904586570254
 10
16.48876025293394
 20
23.14831103795163
 10
16.51876025293393
 20
23.14831103795163
 42
0.4142135623730951
 10
16.54876025293394
 20
23.17831103795163
 10
16.54876025293394
 20
23.26831103795163
 42
1.0
 10
16.46876025293394
 20
23.26831103795163
 10
16.43476025293395
 20
23.26831103795163
 42
-0.4142135623730353
 10
16.42476025293394
 20
23.27831103795162
 10
16.42476025293394
 20
23.28021702718404
 42
0.2679491924311216
 10
16.41976025293395
 20
23.28887728122188
 10
16.37976025293394
 20
23.31197129198947
 42
0.5773502691896422
 10
16.36476025293395
 20
23.30331103795162
 10
16.36476025293395
 20
23.27831103795162
 42
-0.4142135623730888
 10
16.35476025293394
 20
23.26831103795162
 10
16.35125609181752
 20
23.26831103795162
 10
16.28976025293394
 20
23.3038156770851
 42
-0.2679491924311086
 10
16.28476025293394
 20
23.31247593112295
 10
16.28476025293394
 20
23.46414614478032
 42
-0.2679491924311096
 10
16.28976025293394
 20
23.47280639881816
  0
LWPOLYLINE
  5
F602
330
17
100
AcDbEntity
  8
R-SWTS-DET2
100
AcDbPolyline
 90
        3
 70
     0
 43
0.0
 10
17.04500533091006
 20
23.82523209508281
 10
16.50500533091006
 20
23.74869666201194
 10
16.50500533091005
 20
23.68831103795153
  0
LINE
  5
F608
330
17
100
AcDbEntity
  8
R-SWTS-DET2
100
AcDbLine
 10
18.58451517495783
 20
23.74869666201194
 30
0.0
 11
18.58451517495782
 21
25.68831103795154
 31
0.0
  0
LWPOLYLINE
  5
F609
330
17
100
AcDbEntity
  8
R-SWTS-DET3
100
AcDbPolyline
 90
        2
 70
     0
 43
0.0
 10
17.79476025293394
 20
25.68831103795154
 10
17.79476025293394
 20
23.25081103795155
  0
LWPOLYLINE
  5
F60A
330
17
100
AcDbEntity
  8
R-SWTS-DET3
100
AcDbPolyline
 90
        2
 70
     0
 43
0.0
 10
17.29476025293395
 20
25.68831103795154
 10
17.29476025293395
 20
23.25081103795155
  0
ARC
  5
F60B
330
17
100
AcDbEntity
  8
R-SWTS-DET2
100
AcDbCircle
 10
19.08801033293394
 20
21.89506095795151
 30
0.0
 40
0.06474996
100
AcDbArc
 50
270.0000899999999
 51
0.0
  0
ARC
  5
F60C
330
17
100
AcDbEntity
  8
R-SWTS-DET2
100
AcDbCircle
 10
19.25151023293394
 20
21.89506095795151
 30
0.0
 40
0.06474996
100
AcDbArc
 50
180.0
 51
270.00003
  0
ARC
  5
F60D
330
17
100
AcDbEntity
  8
R-SWTS-DET2
100
AcDbCircle
 10
19.25151023293394
 20
21.73156111795151
 30
0.0
 40
0.06474996
100
AcDbArc
 50
90.0
 51
180.0
  0
ARC
  5
F60E
330
17
100
AcDbEntity
  8
R-SWTS-DET2
100
AcDbCircle
 10
19.08801033293394
 20
21.73156111795151
 30
0.0
 40
0.06474996
100
AcDbArc
 50
0.0
 51
90.0
  0
LINE
  5
F60F
330
17
100
AcDbEntity
  8
R-SWTS-DET2
100
AcDbLine
 10
19.15276029293394
 20
21.94281103795152
 30
0.0
 11
19.18676027293393
 21
21.94281103795152
 31
0.0
  0
LINE
  5
F610
330
17
100
AcDbEntity
  8
R-SWTS-DET2
100
AcDbLine
 10
19.04026025293394
 20
21.79631103795151
 30
0.0
 11
19.04026025293394
 21
21.83031103795151
 31
0.0
  0
LINE
  5
F611
330
17
100
AcDbEntity
  8
R-SWTS-DET2
100
AcDbLine
 10
19.18676027293393
 20
21.89506095795151
 30
0.0
 11
19.18676027293393
 21
21.94281103795152
 31
0.0
  0
LINE
  5
F612
330
17
100
AcDbEntity
  8
R-SWTS-DET2
100
AcDbLine
 10
19.29926025293394
 20
21.79631103795151
 30
0.0
 11
19.29926025293394
 21
21.83031103795151
 31
0.0
  0
LINE
  5
F613
330
17
100
AcDbEntity
  8
R-SWTS-DET2
100
AcDbLine
 10
19.25151023293394
 20
21.83031103795151
 30
0.0
 11
19.29926025293394
 21
21.83031103795151
 31
0.0
  0
LINE
  5
F614
330
17
100
AcDbEntity
  8
R-SWTS-DET2
100
AcDbLine
 10
19.25151023293394
 20
21.79631103795151
 30
0.0
 11
19.29926025293394
 21
21.79631103795151
 31
0.0
  0
LINE
  5
F615
330
17
100
AcDbEntity
  8
R-SWTS-DET2
100
AcDbLine
 10
19.04026025293394
 20
21.83031103795151
 30
0.0
 11
19.08801033293394
 21
21.83031103795151
 31
0.0
  0
LINE
  5
F616
330
17
100
AcDbEntity
  8
R-SWTS-DET2
100
AcDbLine
 10
19.04026025293394
 20
21.79631103795151
 30
0.0
 11
19.08801033293394
 21
21.79631103795151
 31
0.0
  0
LINE
  5
F617
330
17
100
AcDbEntity
  8
R-SWTS-DET2
100
AcDbLine
 10
19.15276029293394
 20
21.89506095795151
 30
0.0
 11
19.15276029293394
 21
21.94281103795152
 31
0.0
  0
LWPOLYLINE
  5
F618
330
17
100
AcDbEntity
  8
R-SWTS-DET2
100
AcDbPolyline
 90
        3
 70
     0
 43
0.0
 10
18.04451517495784
 20
23.82523209508281
 10
18.58451517495783
 20
23.74869666201194
 10
18.58451517495784
 20
23.68831103795153
  0
ARC
  5
F619
330
17
100
AcDbEntity
  8
R-SWTS-DET2
100
AcDbCircle
 10
18.18251517495779
 20
23.23469666201194
 30
0.0
 40
0.0350000000000276
100
AcDbArc
 50
220.0000000000391
 51
319.4310723805837
  0
LINE
  5
F61A
330
17
100
AcDbEntity
  8
R-SWTS-DET2
100
AcDbLine
 10
18.15570361944862
 20
23.21219909567287
 30
0.0
 11
18.04451517495783
 21
23.34470832384967
 31
0.0
  0
LINE
  5
F61B
330
17
100
AcDbEntity
  8
R-SWTS-DET2
100
AcDbLine
 10
18.29451517495783
 20
23.31169666201194
 30
0.0
 11
18.20910201917567
 21
23.21193397951326
 31
0.0
  0
LWPOLYLINE
  5
F61C
330
17
100
AcDbEntity
  8
R-SWTS-DET3
100
AcDbPolyline
 90
        2
 70
     0
 43
0.0
 10
17.79476025293394
 20
23.50081103795155
 10
17.29476025293395
 20
23.50081103795155
  0
ARC
  5
F61D
330
17
100
AcDbEntity
  8
R-SWTS-DET2
100
AcDbCircle
 10
20.66976025293394
 20
21.97151313795155
 30
0.0
 40
0.3367977
100
AcDbArc
 50
53.03330000000016
 51
126.9666999999998
  0
LINE
  5
F61E
330
17
100
AcDbEntity
  8
R-SWTS-DET2
100
AcDbLine
 10
20.88226025293394
 20
22.15731103795155
 30
0.0
 11
20.45726025293394
 21
22.15731103795156
 31
0.0
  0
ARC
  5
F622
330
17
100
AcDbEntity
  8
R-SWTS-DET2
100
AcDbCircle
 10
19.66976025293394
 20
21.97151313795155
 30
0.0
 40
0.3367977
100
AcDbArc
 50
53.03330000000016
 51
126.9666999999998
  0
ARC
  5
F623
330
17
100
AcDbEntity
  8
R-SWTS-DET2
100
AcDbCircle
 10
19.48226035293394
 20
22.22063489795155
 30
0.0
 40
0.02500004
100
AcDbArc
 50
126.967
 51
180.0001999999999
  0
ARC
  5
F624
330
17
100
AcDbEntity
  8
R-SWTS-DET2
100
AcDbCircle
 10
19.85726015293394
 20
22.22063489795155
 30
0.0
 40
0.02500004
100
AcDbArc
 50
0.0
 51
53.03299999999993
  0
LINE
  5
F625
330
17
100
AcDbEntity
  8
R-SWTS-DET2
100
AcDbLine
 10
19.88226025293394
 20
22.22063489795155
 30
0.0
 11
19.88226025293394
 21
22.15731103795155
 31
0.0
  0
LINE
  5
F626
330
17
100
AcDbEntity
  8
R-SWTS-DET2
100
AcDbLine
 10
19.45726025293394
 20
22.22063489795155
 30
0.0
 11
19.45726025293394
 21
22.15731103795156
 31
0.0
  0
LINE
  5
F627
330
17
100
AcDbEntity
  8
R-SWTS-DET2
100
AcDbLine
 10
19.45726025293394
 20
22.15731103795156
 30
0.0
 11
19.88226025293394
 21
22.15731103795155
 31
0.0
  0
ARC
  5
F628
330
17
100
AcDbEntity
  8
R-SWTS-DET2
100
AcDbCircle
 10
20.48226035293394
 20
22.22063489795155
 30
0.0
 40
0.02500004
100
AcDbArc
 50
126.967
 51
180.0
  0
LINE
  5
F629
330
17
100
AcDbEntity
  8
R-SWTS-DET2
100
AcDbLine
 10
20.45726025293394
 20
22.22063489795155
 30
0.0
 11
20.45726025293394
 21
22.15731103795156
 31
0.0
  0
ARC
  5
F62B
330
17
100
AcDbEntity
  8
R-SWTS-DET2
100
AcDbCircle
 10
21.08801033293394
 20
21.89506095795151
 30
0.0
 40
0.06474996
100
AcDbArc
 50
270.0000899999999
 51
0.0
  0
ARC
  5
F62C
330
17
100
AcDbEntity
  8
R-SWTS-DET2
100
AcDbCircle
 10
21.25151023293394
 20
21.89506095795151
 30
0.0
 40
0.06474996
100
AcDbArc
 50
180.0
 51
270.00003
  0
ARC
  5
F62D
330
17
100
AcDbEntity
  8
R-SWTS-DET2
100
AcDbCircle
 10
21.25151023293394
 20
21.73156111795151
 30
0.0
 40
0.06474996
100
AcDbArc
 50
90.0
 51
180.0
  0
ARC
  5
F62E
330
17
100
AcDbEntity
  8
R-SWTS-DET2
100
AcDbCircle
 10
21.08801033293394
 20
21.73156111795151
 30
0.0
 40
0.06474996
100
AcDbArc
 50
0.0
 51
90.0
  0
LINE
  5
F62F
330
17
100
AcDbEntity
  8
R-SWTS-DET2
100
AcDbLine
 10
21.15276029293394
 20
21.94281103795152
 30
0.0
 11
21.18676027293394
 21
21.94281103795152
 31
0.0
  0
LINE
  5
F630
330
17
100
AcDbEntity
  8
R-SWTS-DET2
100
AcDbLine
 10
21.04026025293394
 20
21.79631103795151
 30
0.0
 11
21.04026025293394
 21
21.83031103795151
 31
0.0
  0
LINE
  5
F631
330
17
100
AcDbEntity
  8
R-SWTS-DET2
100
AcDbLine
 10
21.18676027293394
 20
21.89506095795151
 30
0.0
 11
21.18676027293394
 21
21.94281103795152
 31
0.0
  0
LINE
  5
F632
330
17
100
AcDbEntity
  8
R-SWTS-DET2
100
AcDbLine
 10
21.29926025293394
 20
21.79631103795151
 30
0.0
 11
21.29926025293394
 21
21.83031103795151
 31
0.0
  0
LINE
  5
F633
330
17
100
AcDbEntity
  8
R-SWTS-DET2
100
AcDbLine
 10
21.25151023293394
 20
21.83031103795151
 30
0.0
 11
21.29926025293394
 21
21.83031103795151
 31
0.0
  0
LINE
  5
F634
330
17
100
AcDbEntity
  8
R-SWTS-DET2
100
AcDbLine
 10
21.25151023293394
 20
21.79631103795151
 30
0.0
 11
21.29926025293394
 21
21.79631103795151
 31
0.0
  0
LINE
  5
F635
330
17
100
AcDbEntity
  8
R-SWTS-DET2
100
AcDbLine
 10
21.04026025293394
 20
21.83031103795151
 30
0.0
 11
21.08801033293394
 21
21.83031103795151
 31
0.0
  0
LINE
  5
F636
330
17
100
AcDbEntity
  8
R-SWTS-DET2
100
AcDbLine
 10
21.04026025293394
 20
21.79631103795151
 30
0.0
 11
21.08801033293394
 21
21.79631103795151
 31
0.0
  0
LINE
  5
F637
330
17
100
AcDbEntity
  8
R-SWTS-DET2
100
AcDbLine
 10
21.15276029293394
 20
21.89506095795151
 30
0.0
 11
21.15276029293394
 21
21.94281103795152
 31
0.0
  0
ARC
  5
F638
330
17
100
AcDbEntity
  8
R-SWTS-DET2
100
AcDbCircle
 10
20.85726015293394
 20
22.22063489795155
 30
0.0
 40
0.02500004
100
AcDbArc
 50
359.9998000000001
 51
53.03299999999993
  0
LINE
  5
F639
330
17
100
AcDbEntity
  8
R-SWTS-DET2
100
AcDbLine
 10
20.88226025293394
 20
22.22063489795155
 30
0.0
 11
20.88226025293394
 21
22.15731103795155
 31
0.0
  0
LINE
  5
F65A
330
17
100
AcDbEntity
  8
R-SWTS-DET2
  6
HIDDEN
100
AcDbLine
 10
21.82476025293397
 20
32.65199477398095
 30
0.0
 11
21.82476025293397
 21
29.40199477398094
 31
0.0
  0
LINE
  5
F65B
330
17
100
AcDbEntity
  8
R-SWTS-DET2
  6
HIDDEN
100
AcDbLine
 10
18.57476025293397
 20
32.65199477398094
 30
0.0
 11
18.57476025293397
 21
29.40199477398094
 31
0.0
  0
LINE
  5
F65D
330
17
100
AcDbEntity
  8
R-SWTS-DET2
  6
HIDDEN
100
AcDbLine
 10
18.57476025293397
 20
29.40199477398094
 30
0.0
 11
21.82476025293397
 21
29.40199477398094
 31
0.0
  0
LINE
  5
F65E
330
17
100
AcDbEntity
  8
R-SWTS-DET2
  6
HIDDEN
100
AcDbLine
 10
18.57476025293397
 20
32.40199477398094
 30
0.0
 11
21.82476025293397
 21
32.40199477398094
 31
0.0
  0
LINE
  5
F65F
330
17
100
AcDbEntity
  8
R-SWTS-DET2
  6
HIDDEN
100
AcDbLine
 10
18.57476025293397
 20
32.65199477398094
 30
0.0
 11
21.82476025293397
 21
32.65199477398095
 31
0.0
  0
TEXT
  5
F726
330
17
100
AcDbEntity
  8
PART_NUMBERS
100
AcDbText
 10
22.57485497521562
 20
27.95443238725101
 30
0.0
 40
0.25
  1
162328 "T" ANCHOR
100
AcDbText
  0
LINE
  5
F728
330
17
100
AcDbEntity
  8
R-SWTS-DET2
  6
HIDDEN
100
AcDbLine
 10
18.57476025293397
 20
20.93831103795151
 30
0.0
 11
21.82476025293397
 21
20.93831103795151
 31
0.0
  0
LINE
  5
F729
330
17
100
AcDbEntity
  8
R-SWTS-DET2
  6
HIDDEN
100
AcDbLine
 10
18.57476025293397
 20
20.68831103795151
 30
0.0
 11
21.82476025293397
 21
20.6883110379515
 31
0.0
  0
LINE
  5
F72A
330
17
100
AcDbEntity
  8
R-SWTS-DET2
  6
HIDDEN
100
AcDbLine
 10
18.57476025293397
 20
23.93831103795151
 30
0.0
 11
21.82476025293397
 21
23.93831103795151
 31
0.0
  0
LINE
  5
F72B
330
17
100
AcDbEntity
  8
R-SWTS-DET2
  6
HIDDEN
100
AcDbLine
 10
18.57476025293397
 20
20.68831103795151
 30
0.0
 11
18.57476025293397
 21
23.93831103795151
 31
0.0
  0
LINE
  5
F72C
330
17
100
AcDbEntity
  8
R-SWTS-DET2
  6
HIDDEN
100
AcDbLine
 10
21.82476025293397
 20
20.6883110379515
 30
0.0
 11
21.82476025293397
 21
23.93831103795151
 31
0.0
  0
MTEXT
  5
F72E
330
17
100
AcDbEntity
  8
0
100
AcDbMText
 10
50.58926341448446
 20
14.09493750979327
 30
0.0
 40
0.375
 41
15.38902103739951
 71
     1
 72
     5
  1
NOTE:\PT-ANCHORS MUST BE USED IF MULLION END-REACTIONS EXCEEDS 350 POUNDS.\PIF MULLION END-REACTIONS ARE LESS THAN 350 POUNDS, THEN PERIMETER ANCHORING MAY BE USED.
 73
     1
 44
1.0
1001
ACAD
1000
MTEXTBEGIN
1070
    73
1070
     1
1070
    44
1040
1.0
1070
    74
1070
     0
1000
MTEXTEND
  0
TEXT
  5
F75C
330
17
100
AcDbEntity
  8
PART_NUMBERS
100
AcDbText
 10
22.57485497521562
 20
24.36319304766383
 30
0.0
 40
0.25
  1
162328 "T" ANCHOR
100
AcDbText
  0
TEXT
  5
F75D
330
17
100
AcDbEntity
  8
PART_NUMBERS
100
AcDbText
 10
22.57485497521562
 20
24.75975655826835
 30
0.0
 40
0.25
  1
162327 "F" ANCHOR or
100
AcDbText
  0
LINE
  5
F78B
330
17
100
AcDbEntity
  8
R-SWTS-DET3
  6
CENTER
100
AcDbLine
 10
20.17790784379085
 20
19.19299371470706
 30
0.0
 11
20.17790784379085
 21
21.10802866430653
 31
0.0
  0
LINE
  5
F78C
330
17
100
AcDbEntity
  8
R-SWTS-DET3
  6
CENTER
100
AcDbLine
 10
20.17790784379085
 20
33.97458968688663
 30
0.0
 11
20.17790784379085
 21
32.2491613083955
 31
0.0
  0
LWPOLYLINE
  5
F7C5
330
17
100
AcDbEntity
  8
R-SWTS-DET2
  6
HIDDEN
100
AcDbPolyline
 90
        4
 70
     1
 43
0.0
 10
35.04427770037103
 20
31.76149477398087
 10
35.04427770037103
 20
31.33649477398087
 10
35.11977760986123
 20
31.33649477398089
 42
0.3552945435755391
 10
35.11977760986124
 20
31.76149477398087
  0
LINE
  5
F7C6
330
17
100
AcDbEntity
  8
R-SWTS-DET2
  6
HIDDEN
100
AcDbLine
 10
35.04427770037103
 20
31.84699477398087
 30
0.0
 11
35.04427770037103
 21
31.3079947739809
 31
0.0
  0
LINE
  5
F7C7
330
17
100
AcDbEntity
  8
R-SWTS-DET2
  6
HIDDEN
100
AcDbLine
 10
35.04427770037103
 20
31.3079947739809
 30
0.0
 11
33.48227770037103
 21
31.3079947739809
 31
0.0
  0
LINE
  5
F7C8
330
17
100
AcDbEntity
  8
R-SWTS-DET2
  6
HIDDEN
100
AcDbLine
 10
35.04427770037103
 20
31.84699477398087
 30
0.0
 11
33.48227770037103
 21
31.84699477398087
 31
0.0
  0
LINE
  5
F7C9
330
17
100
AcDbEntity
  8
R-SWTS-DET2
  6
HIDDEN
100
AcDbLine
 10
35.04427770037103
 20
31.4329947739809
 30
0.0
 11
33.48227770037103
 21
31.4329947739809
 31
0.0
  0
LWPOLYLINE
  5
F7CA
330
17
100
AcDbEntity
  8
R-SWTS-DET2
  6
HIDDEN2
100
AcDbPolyline
 90
        6
 70
     0
 43
0.0
 10
35.04427770037103
 20
31.65699477398088
 10
33.31227770037104
 20
31.65699477398088
 10
33.16927770037103
 20
31.62499477398088
 10
33.16927770037103
 20
31.47299477398088
 10
33.31227770037101
 20
31.44099477398088
 10
35.04427770037103
 20
31.44099477398088
  0
LWPOLYLINE
  5
F7CC
330
17
100
AcDbEntity
  8
R-SWTS-DET2
  6
HIDDEN
100
AcDbPolyline
 90
        4
 70
     1
 43
0.0
 10
56.03000376379917
 20
31.76149477398088
 10
56.03000376379917
 20
31.33649477398088
 10
56.10550367328937
 20
31.3364947739809
 42
0.3552945435755391
 10
56.10550367328938
 20
31.76149477398088
  0
LWPOLYLINE
  5
F7CD
330
17
100
AcDbEntity
  8
R-SWTS-DET2
  6
HIDDEN2
100
AcDbPolyline
 90
        6
 70
     0
 43
0.0
 10
56.03000376379917
 20
31.65699477398089
 10
54.29800376379919
 20
31.65699477398089
 10
54.15500376379917
 20
31.62499477398088
 10
54.15500376379917
 20
31.47299477398088
 10
54.29800376379915
 20
31.44099477398088
 10
56.03000376379917
 20
31.44099477398088
  0
LINE
  5
F7CE
330
17
100
AcDbEntity
  8
R-SWTS-DET2
  6
HIDDEN
100
AcDbLine
 10
56.03000376379917
 20
31.84699477398087
 30
0.0
 11
56.03000376379917
 21
31.3079947739809
 31
0.0
  0
LINE
  5
F7CF
330
17
100
AcDbEntity
  8
R-SWTS-DET2
  6
HIDDEN
100
AcDbLine
 10
56.03000376379917
 20
31.3079947739809
 30
0.0
 11
54.46800376379917
 21
31.3079947739809
 31
0.0
  0
LINE
  5
F7D0
330
17
100
AcDbEntity
  8
R-SWTS-DET2
  6
HIDDEN
100
AcDbLine
 10
56.03000376379917
 20
31.4329947739809
 30
0.0
 11
54.46800376379917
 21
31.4329947739809
 31
0.0
  0
LINE
  5
F7D1
330
17
100
AcDbEntity
  8
R-SWTS-DET2
  6
HIDDEN
100
AcDbLine
 10
56.03000376379917
 20
31.84699477398087
 30
0.0
 11
54.46800376379917
 21
31.84699477398087
 31
0.0
  0
LINE
  5
F7D2
330
17
100
AcDbEntity
  8
R-SWTS-DET2
  6
HIDDEN
100
AcDbLine
 10
50.40600376379916
 20
31.84699477398087
 30
0.0
 11
51.96800376379916
 21
31.84699477398087
 31
0.0
  0
LINE
  5
F7D3
330
17
100
AcDbEntity
  8
R-SWTS-DET2
  6
HIDDEN
100
AcDbLine
 10
50.40600376379916
 20
31.4329947739809
 30
0.0
 11
51.96800376379916
 21
31.4329947739809
 31
0.0
  0
LINE
  5
F7D4
330
17
100
AcDbEntity
  8
R-SWTS-DET2
  6
HIDDEN
100
AcDbLine
 10
50.40600376379916
 20
31.3079947739809
 30
0.0
 11
51.96800376379916
 21
31.3079947739809
 31
0.0
  0
LWPOLYLINE
  5
F7D5
330
17
100
AcDbEntity
  8
R-SWTS-DET2
  6
HIDDEN2
100
AcDbPolyline
 90
        6
 70
     0
 43
0.0
 10
50.40600376379916
 20
31.65699477398089
 10
52.13800376379914
 20
31.65699477398089
 10
52.28100376379916
 20
31.62499477398088
 10
52.28100376379916
 20
31.47299477398088
 10
52.13800376379918
 20
31.44099477398088
 10
50.40600376379916
 20
31.44099477398088
  0
LINE
  5
F7D6
330
17
100
AcDbEntity
  8
R-SWTS-DET2
  6
HIDDEN
100
AcDbLine
 10
50.40600376379916
 20
31.84699477398087
 30
0.0
 11
50.40600376379916
 21
31.3079947739809
 31
0.0
  0
LWPOLYLINE
  5
F7D7
330
17
100
AcDbEntity
  8
R-SWTS-DET2
  6
HIDDEN
100
AcDbPolyline
 90
        4
 70
     1
 43
0.0
 10
50.40600376379916
 20
31.76149477398088
 10
50.40600376379916
 20
31.33649477398088
 10
50.33050385430896
 20
31.3364947739809
 42
-0.3552945435755391
 10
50.33050385430895
 20
31.76149477398088
  0
LWPOLYLINE
  5
F7EB
330
17
100
AcDbEntity
  8
R-SWTS-DET2
  6
HIDDEN
100
AcDbPolyline
 90
        4
 70
     1
 43
0.0
 10
35.04427770037103
 20
21.57881103795186
 10
35.04427770037103
 20
22.00381103795185
 10
35.11977760986123
 20
22.00381103795184
 42
-0.3552945435755391
 10
35.11977760986124
 20
21.57881103795186
  0
LINE
  5
F7EC
330
17
100
AcDbEntity
  8
R-SWTS-DET2
  6
HIDDEN
100
AcDbLine
 10
35.04427770037103
 20
21.49331103795186
 30
0.0
 11
33.48227770037103
 21
21.49331103795186
 31
0.0
  0
LINE
  5
F7ED
330
17
100
AcDbEntity
  8
R-SWTS-DET2
  6
HIDDEN
100
AcDbLine
 10
35.04427770037103
 20
21.90731103795183
 30
0.0
 11
33.48227770037103
 21
21.90731103795183
 31
0.0
  0
LINE
  5
F7EE
330
17
100
AcDbEntity
  8
R-SWTS-DET2
  6
HIDDEN
100
AcDbLine
 10
35.04427770037103
 20
22.03231103795184
 30
0.0
 11
33.48227770037103
 21
22.03231103795184
 31
0.0
  0
LWPOLYLINE
  5
F7EF
330
17
100
AcDbEntity
  8
R-SWTS-DET2
  6
HIDDEN2
100
AcDbPolyline
 90
        6
 70
     0
 43
0.0
 10
35.04427770037103
 20
21.68331103795186
 10
33.31227770037104
 20
21.68331103795186
 10
33.16927770037103
 20
21.71531103795186
 10
33.16927770037103
 20
21.86731103795186
 10
33.31227770037101
 20
21.89931103795185
 10
35.04427770037103
 20
21.89931103795185
  0
LINE
  5
F7F0
330
17
100
AcDbEntity
  8
R-SWTS-DET2
  6
HIDDEN
100
AcDbLine
 10
35.04427770037103
 20
21.49331103795186
 30
0.0
 11
35.04427770037103
 21
22.03231103795184
 31
0.0
  0
LINE
  5
F7F1
330
17
100
AcDbEntity
  8
R-SWTS-DET2
  6
HIDDEN
100
AcDbLine
 10
50.40600376379916
 20
21.49331103795185
 30
0.0
 11
51.96800376379916
 21
21.49331103795185
 31
0.0
  0
LINE
  5
F7F2
330
17
100
AcDbEntity
  8
R-SWTS-DET2
  6
HIDDEN
100
AcDbLine
 10
50.40600376379916
 20
21.90731103795183
 30
0.0
 11
51.96800376379916
 21
21.90731103795183
 31
0.0
  0
LINE
  5
F7F3
330
17
100
AcDbEntity
  8
R-SWTS-DET2
  6
HIDDEN
100
AcDbLine
 10
50.40600376379916
 20
22.03231103795183
 30
0.0
 11
51.96800376379916
 21
22.03231103795183
 31
0.0
  0
LWPOLYLINE
  5
F7F4
330
17
100
AcDbEntity
  8
R-SWTS-DET2
  6
HIDDEN2
100
AcDbPolyline
 90
        6
 70
     0
 43
0.0
 10
50.40600376379916
 20
21.68331103795185
 10
52.13800376379914
 20
21.68331103795185
 10
52.28100376379916
 20
21.71531103795185
 10
52.28100376379916
 20
21.86731103795185
 10
52.13800376379918
 20
21.89931103795185
 10
50.40600376379916
 20
21.89931103795185
  0
LINE
  5
F7F5
330
17
100
AcDbEntity
  8
R-SWTS-DET2
  6
HIDDEN
100
AcDbLine
 10
50.40600376379916
 20
21.49331103795185
 30
0.0
 11
50.40600376379916
 21
22.03231103795183
 31
0.0
  0
LWPOLYLINE
  5
F7F6
330
17
100
AcDbEntity
  8
R-SWTS-DET2
  6
HIDDEN
100
AcDbPolyline
 90
        4
 70
     1
 43
0.0
 10
50.40600376379916
 20
21.57881103795185
 10
50.40600376379916
 20
22.00381103795185
 10
50.33050385430896
 20
22.00381103795184
 42
0.3552945435755391
 10
50.33050385430895
 20
21.57881103795185
  0
LWPOLYLINE
  5
F7F7
330
17
100
AcDbEntity
  8
R-SWTS-DET2
  6
HIDDEN2
100
AcDbPolyline
 90
        6
 70
     0
 43
0.0
 10
56.03000376379917
 20
21.68331103795185
 10
54.29800376379919
 20
21.68331103795185
 10
54.15500376379917
 20
21.71531103795185
 10
54.15500376379917
 20
21.86731103795185
 10
54.29800376379915
 20
21.89931103795185
 10
56.03000376379917
 20
21.89931103795185
  0
LINE
  5
F7F8
330
17
100
AcDbEntity
  8
R-SWTS-DET2
  6
HIDDEN
100
AcDbLine
 10
56.03000376379917
 20
22.03231103795183
 30
0.0
 11
54.46800376379917
 21
22.03231103795183
 31
0.0
  0
LINE
  5
F7F9
330
17
100
AcDbEntity
  8
R-SWTS-DET2
  6
HIDDEN
100
AcDbLine
 10
56.03000376379917
 20
21.90731103795183
 30
0.0
 11
54.46800376379917
 21
21.90731103795183
 31
0.0
  0
LINE
  5
F7FA
330
17
100
AcDbEntity
  8
R-SWTS-DET2
  6
HIDDEN
100
AcDbLine
 10
56.03000376379917
 20
21.49331103795185
 30
0.0
 11
54.46800376379917
 21
21.49331103795185
 31
0.0
  0
LWPOLYLINE
  5
F7FB
330
17
100
AcDbEntity
  8
R-SWTS-DET2
  6
HIDDEN
100
AcDbPolyline
 90
        4
 70
     1
 43
0.0
 10
56.03000376379917
 20
21.57881103795185
 10
56.03000376379917
 20
22.00381103795185
 10
56.10550367328937
 20
22.00381103795184
 42
-0.3552945435755391
 10
56.10550367328938
 20
21.57881103795185
  0
LINE
  5
F7FC
330
17
100
AcDbEntity
  8
R-SWTS-DET2
  6
HIDDEN
100
AcDbLine
 10
56.03000376379917
 20
21.49331103795185
 30
0.0
 11
56.03000376379917
 21
22.03231103795183
 31
0.0
  0
LINE
  5
F7FD
330
17
100
AcDbEntity
  8
R-SWTS-DET2
  6
HIDDEN
100
AcDbLine
 10
34.34286026606759
 20
31.18299477398089
 30
0.0
 11
34.34286026606759
 21
31.6999946739809
 31
0.0
  0
LINE
  5
F7FE
330
17
100
AcDbEntity
  8
R-SWTS-DET2
  6
HIDDEN
100
AcDbLine
 10
34.12686026606758
 20
31.18299477398089
 30
0.0
 11
34.12686026606758
 21
31.6999946739809
 31
0.0
  0
LINE
  5
F7FF
330
17
100
AcDbEntity
  8
R-SWTS-DET2
  6
HIDDEN
100
AcDbLine
 10
34.44736026606758
 20
31.11967091398089
 30
0.0
 11
34.44736026606758
 21
31.18299477398089
 31
0.0
  0
ARC
  5
F800
330
17
100
AcDbEntity
  8
R-SWTS-DET2
  6
HIDDEN
100
AcDbCircle
 10
34.42236016606758
 20
31.11967091398089
 30
0.0
 40
0.02500004
100
AcDbArc
 50
306.9669999999999
 51
0.0002000000001805
  0
LINE
  5
F801
330
17
100
AcDbEntity
  8
R-SWTS-DET2
  6
HIDDEN
100
AcDbLine
 10
34.02236026606759
 20
31.11967091398089
 30
0.0
 11
34.02236026606759
 21
31.18299477398089
 31
0.0
  0
ARC
  5
F802
330
17
100
AcDbEntity
  8
R-SWTS-DET2
  6
HIDDEN
100
AcDbCircle
 10
34.04736036606759
 20
31.11967091398089
 30
0.0
 40
0.02500004
100
AcDbArc
 50
180.0
 51
233.0329999999996
  0
LINE
  5
F803
330
17
100
AcDbEntity
  8
R-SWTS-DET2
  6
HIDDEN
100
AcDbLine
 10
34.44736026606758
 20
31.18299477398089
 30
0.0
 11
34.02236026606759
 21
31.18299477398089
 31
0.0
  0
ARC
  5
F804
330
17
100
AcDbEntity
  8
R-SWTS-DET2
  6
HIDDEN
100
AcDbCircle
 10
34.23486026606759
 20
31.36879267398088
 30
0.0
 40
0.3367977
100
AcDbArc
 50
233.0332999999999
 51
306.9667000000001
  0
LINE
  5
F805
330
17
100
AcDbEntity
  8
R-SWTS-DET2
  6
HIDDEN
100
AcDbLine
 10
34.23486016070049
 20
31.80799477398089
 30
0.0
 11
34.34286006606759
 21
31.69999477398089
 31
0.0
  0
LINE
  5
F806
330
17
100
AcDbEntity
  8
R-SWTS-DET2
  6
HIDDEN
100
AcDbLine
 10
34.23486037143469
 20
31.80799477398089
 30
0.0
 11
34.12686046606758
 21
31.69999477398089
 31
0.0
  0
LINE
  5
F807
330
17
100
AcDbEntity
  8
R-SWTS-DET1
  6
HIDDEN
100
AcDbLine
 10
33.48227770037103
 20
31.3079947739809
 30
0.0
 11
41.28497293580358
 21
31.3079947739809
 31
0.0
  0
LINE
  5
F808
330
17
100
AcDbEntity
  8
R-SWTS-DET1
  6
HIDDEN
100
AcDbLine
 10
33.48227770037102
 20
31.18299477398089
 30
0.0
 11
41.28497293580358
 21
31.18299477398089
 31
0.0
  0
LINE
  5
F809
330
17
100
AcDbEntity
  8
R-SWTS-DET1
  6
HIDDEN
100
AcDbLine
 10
47.16545536903467
 20
31.18299477398089
 30
0.0
 11
51.96800376379916
 21
31.18299477398089
 31
0.0
  0
LINE
  5
F80A
330
17
100
AcDbEntity
  8
R-SWTS-DET1
  6
HIDDEN
100
AcDbLine
 10
47.16545536903467
 20
31.3079947739809
 30
0.0
 11
51.96800376379916
 21
31.3079947739809
 31
0.0
  0
LINE
  5
F80B
330
17
100
AcDbEntity
  8
R-SWTS-DET1
  6
HIDDEN
100
AcDbLine
 10
54.46800376379917
 20
31.18299477398089
 30
0.0
 11
59.01583861473145
 21
31.1829947739809
 31
0.0
  0
LINE
  5
F80C
330
17
100
AcDbEntity
  8
R-SWTS-DET1
  6
HIDDEN
100
AcDbLine
 10
54.46800376379917
 20
31.3079947739809
 30
0.0
 11
59.01583861473145
 21
31.3079947739809
 31
0.0
  0
LINE
  5
F80D
330
17
100
AcDbEntity
  8
R-SWTS-DET2
  6
HIDDEN
100
AcDbLine
 10
51.29967250482089
 20
31.1829947739809
 30
0.0
 11
51.29967250482089
 21
31.69999467398091
 31
0.0
  0
LINE
  5
F80E
330
17
100
AcDbEntity
  8
R-SWTS-DET2
  6
HIDDEN
100
AcDbLine
 10
51.08367250482088
 20
31.1829947739809
 30
0.0
 11
51.08367250482088
 21
31.69999467398091
 31
0.0
  0
LINE
  5
F80F
330
17
100
AcDbEntity
  8
R-SWTS-DET2
  6
HIDDEN
100
AcDbLine
 10
51.40417250482088
 20
31.1829947739809
 30
0.0
 11
50.97917250482089
 21
31.1829947739809
 31
0.0
  0
ARC
  5
F810
330
17
100
AcDbEntity
  8
R-SWTS-DET2
  6
HIDDEN
100
AcDbCircle
 10
51.19167250482089
 20
31.36879267398088
 30
0.0
 40
0.3367977
100
AcDbArc
 50
233.0332999999999
 51
306.9667000000001
  0
LINE
  5
F811
330
17
100
AcDbEntity
  8
R-SWTS-DET2
  6
HIDDEN
100
AcDbLine
 10
50.97917250482089
 20
31.11967091398089
 30
0.0
 11
50.97917250482089
 21
31.1829947739809
 31
0.0
  0
ARC
  5
F812
330
17
100
AcDbEntity
  8
R-SWTS-DET2
  6
HIDDEN
100
AcDbCircle
 10
51.00417260482089
 20
31.11967091398089
 30
0.0
 40
0.02500004
100
AcDbArc
 50
180.0
 51
233.0329999999996
  0
LINE
  5
F813
330
17
100
AcDbEntity
  8
R-SWTS-DET2
  6
HIDDEN
100
AcDbLine
 10
51.40417250482088
 20
31.11967091398089
 30
0.0
 11
51.40417250482088
 21
31.1829947739809
 31
0.0
  0
ARC
  5
F814
330
17
100
AcDbEntity
  8
R-SWTS-DET2
  6
HIDDEN
100
AcDbCircle
 10
51.37917240482089
 20
31.11967091398089
 30
0.0
 40
0.02500004
100
AcDbArc
 50
306.9669999999999
 51
0.0002000000001805
  0
LINE
  5
F815
330
17
100
AcDbEntity
  8
R-SWTS-DET2
  6
HIDDEN
100
AcDbLine
 10
51.19167239945379
 20
31.8079947739809
 30
0.0
 11
51.29967230482089
 21
31.6999947739809
 31
0.0
  0
LINE
  5
F816
330
17
100
AcDbEntity
  8
R-SWTS-DET2
  6
HIDDEN
100
AcDbLine
 10
51.19167261018798
 20
31.8079947739809
 30
0.0
 11
51.08367270482088
 21
31.6999947739809
 31
0.0
  0
LINE
  5
F817
330
17
100
AcDbEntity
  8
R-SWTS-DET2
  6
HIDDEN
100
AcDbLine
 10
55.13534933646393
 20
31.1829947739809
 30
0.0
 11
55.13534933646393
 21
31.69999467398091
 31
0.0
  0
LINE
  5
F818
330
17
100
AcDbEntity
  8
R-SWTS-DET2
  6
HIDDEN
100
AcDbLine
 10
55.35134933646394
 20
31.1829947739809
 30
0.0
 11
55.35134933646394
 21
31.69999467398091
 31
0.0
  0
ARC
  5
F819
330
17
100
AcDbEntity
  8
R-SWTS-DET2
  6
HIDDEN
100
AcDbCircle
 10
55.43084923646393
 20
31.11967091398089
 30
0.0
 40
0.02500004
100
AcDbArc
 50
306.9669999999999
 51
0.0002000000001805
  0
LINE
  5
F81A
330
17
100
AcDbEntity
  8
R-SWTS-DET2
  6
HIDDEN
100
AcDbLine
 10
55.45584933646393
 20
31.11967091398089
 30
0.0
 11
55.45584933646393
 21
31.1829947739809
 31
0.0
  0
ARC
  5
F81B
330
17
100
AcDbEntity
  8
R-SWTS-DET2
  6
HIDDEN
100
AcDbCircle
 10
55.05584943646393
 20
31.11967091398089
 30
0.0
 40
0.02500004
100
AcDbArc
 50
180.0
 51
233.0329999999996
  0
LINE
  5
F81C
330
17
100
AcDbEntity
  8
R-SWTS-DET2
  6
HIDDEN
100
AcDbLine
 10
55.03084933646394
 20
31.11967091398089
 30
0.0
 11
55.03084933646394
 21
31.1829947739809
 31
0.0
  0
ARC
  5
F81D
330
17
100
AcDbEntity
  8
R-SWTS-DET2
  6
HIDDEN
100
AcDbCircle
 10
55.24334933646393
 20
31.36879267398088
 30
0.0
 40
0.3367977
100
AcDbArc
 50
233.0332999999999
 51
306.9667000000001
  0
LINE
  5
F81E
330
17
100
AcDbEntity
  8
R-SWTS-DET2
  6
HIDDEN
100
AcDbLine
 10
55.45584933646393
 20
31.1829947739809
 30
0.0
 11
55.03084933646394
 21
31.1829947739809
 31
0.0
  0
LINE
  5
F81F
330
17
100
AcDbEntity
  8
R-SWTS-DET2
  6
HIDDEN
100
AcDbLine
 10
55.24334944183103
 20
31.8079947739809
 30
0.0
 11
55.13534953646393
 21
31.6999947739809
 31
0.0
  0
LINE
  5
F820
330
17
100
AcDbEntity
  8
R-SWTS-DET2
  6
HIDDEN
100
AcDbLine
 10
55.24334923109684
 20
31.8079947739809
 30
0.0
 11
55.35134913646394
 21
31.6999947739809
 31
0.0
  0
LINE
  5
F821
330
17
100
AcDbEntity
  8
R-SWTS-DET1
  6
HIDDEN
100
AcDbLine
 10
33.48227770037022
 20
22.0323110379506
 30
0.0
 11
41.28497293580277
 21
22.0323110379506
 31
0.0
  0
LINE
  5
F822
330
17
100
AcDbEntity
  8
R-SWTS-DET1
  6
HIDDEN
100
AcDbLine
 10
33.48227770037023
 20
22.1573110379506
 30
0.0
 11
41.28497293580277
 21
22.1573110379506
 31
0.0
  0
LINE
  5
F823
330
17
100
AcDbEntity
  8
R-SWTS-DET1
  6
HIDDEN
100
AcDbLine
 10
47.16545536903387
 20
22.1573110379506
 30
0.0
 11
51.96800376379836
 21
22.1573110379506
 31
0.0
  0
LINE
  5
F824
330
17
100
AcDbEntity
  8
R-SWTS-DET1
  6
HIDDEN
100
AcDbLine
 10
47.16545536903387
 20
22.0323110379506
 30
0.0
 11
51.96800376379836
 21
22.0323110379506
 31
0.0
  0
LINE
  5
F825
330
17
100
AcDbEntity
  8
R-SWTS-DET1
  6
HIDDEN
100
AcDbLine
 10
54.46800376379837
 20
22.15731103795061
 30
0.0
 11
59.01583861473064
 21
22.1573110379506
 31
0.0
  0
LINE
  5
F826
330
17
100
AcDbEntity
  8
R-SWTS-DET1
  6
HIDDEN
100
AcDbLine
 10
54.46800376379837
 20
22.0323110379506
 30
0.0
 11
59.01583861473064
 21
22.0323110379506
 31
0.0
  0
LINE
  5
F827
330
17
100
AcDbEntity
  8
R-SWTS-DET2
100
AcDbLine
 10
34.3250389566424
 20
22.15731103795155
 30
0.0
 11
34.3250389566424
 21
21.64031113795156
 31
0.0
  0
LINE
  5
F828
330
17
100
AcDbEntity
  8
R-SWTS-DET2
100
AcDbLine
 10
34.10903895664239
 20
22.15731103795155
 30
0.0
 11
34.10903895664239
 21
21.64031113795156
 31
0.0
  0
LINE
  5
F829
330
17
100
AcDbEntity
  8
R-SWTS-DET2
100
AcDbLine
 10
34.2170388512753
 20
21.53231103795155
 30
0.0
 11
34.3250387566424
 21
21.64031103795155
 31
0.0
  0
LINE
  5
F82A
330
17
100
AcDbEntity
  8
R-SWTS-DET2
100
AcDbLine
 10
34.2170390620095
 20
21.53231103795155
 30
0.0
 11
34.1090391566424
 21
21.64031103795155
 31
0.0
  0
LINE
  5
F82B
330
17
100
AcDbEntity
  8
R-SWTS-DET2
100
AcDbLine
 10
34.4295389566424
 20
22.22063489795155
 30
0.0
 11
34.4295389566424
 21
22.15731103795155
 31
0.0
  0
ARC
  5
F82C
330
17
100
AcDbEntity
  8
R-SWTS-DET2
100
AcDbCircle
 10
34.4045388566424
 20
22.22063489795155
 30
0.0
 40
0.02500004
100
AcDbArc
 50
359.9998000000001
 51
53.03299999999993
  0
LINE
  5
F82D
330
17
100
AcDbEntity
  8
R-SWTS-DET2
100
AcDbLine
 10
34.0045389566424
 20
22.22063489795155
 30
0.0
 11
34.0045389566424
 21
22.15731103795156
 31
0.0
  0
ARC
  5
F82E
330
17
100
AcDbEntity
  8
R-SWTS-DET2
100
AcDbCircle
 10
34.0295390566424
 20
22.22063489795155
 30
0.0
 40
0.02500004
100
AcDbArc
 50
126.967
 51
180.0
  0
LINE
  5
F82F
330
17
100
AcDbEntity
  8
R-SWTS-DET2
100
AcDbLine
 10
34.4295389566424
 20
22.15731103795155
 30
0.0
 11
34.0045389566424
 21
22.15731103795156
 31
0.0
  0
ARC
  5
F830
330
17
100
AcDbEntity
  8
R-SWTS-DET2
100
AcDbCircle
 10
34.2170389566424
 20
21.97151313795155
 30
0.0
 40
0.3367977
100
AcDbArc
 50
53.03330000000016
 51
126.9666999999998
  0
LINE
  5
F831
330
17
100
AcDbEntity
  8
R-SWTS-DET2
100
AcDbLine
 10
51.12604612746489
 20
22.15731103795155
 30
0.0
 11
51.12604612746489
 21
21.64031113795156
 31
0.0
  0
LINE
  5
F832
330
17
100
AcDbEntity
  8
R-SWTS-DET2
100
AcDbLine
 10
51.3420461274649
 20
22.15731103795155
 30
0.0
 11
51.3420461274649
 21
21.64031113795156
 31
0.0
  0
LINE
  5
F833
330
17
100
AcDbEntity
  8
R-SWTS-DET2
100
AcDbLine
 10
51.23404602209779
 20
21.53231103795155
 30
0.0
 11
51.34204592746489
 21
21.64031103795155
 31
0.0
  0
LINE
  5
F834
330
17
100
AcDbEntity
  8
R-SWTS-DET2
100
AcDbLine
 10
51.234046232832
 20
21.53231103795155
 30
0.0
 11
51.12604632746489
 21
21.64031103795155
 31
0.0
  0
ARC
  5
F835
330
17
100
AcDbEntity
  8
R-SWTS-DET2
100
AcDbCircle
 10
51.23404612746489
 20
21.97151313795155
 30
0.0
 40
0.3367977
100
AcDbArc
 50
53.03330000000016
 51
126.9666999999998
  0
LINE
  5
F836
330
17
100
AcDbEntity
  8
R-SWTS-DET2
100
AcDbLine
 10
51.44654612746489
 20
22.15731103795155
 30
0.0
 11
51.02154612746489
 21
22.15731103795156
 31
0.0
  0
ARC
  5
F837
330
17
100
AcDbEntity
  8
R-SWTS-DET2
100
AcDbCircle
 10
51.04654622746489
 20
22.22063489795155
 30
0.0
 40
0.02500004
100
AcDbArc
 50
126.967
 51
180.0
  0
LINE
  5
F838
330
17
100
AcDbEntity
  8
R-SWTS-DET2
100
AcDbLine
 10
51.02154612746489
 20
22.22063489795155
 30
0.0
 11
51.02154612746489
 21
22.15731103795156
 31
0.0
  0
ARC
  5
F839
330
17
100
AcDbEntity
  8
R-SWTS-DET2
100
AcDbCircle
 10
51.42154602746489
 20
22.22063489795155
 30
0.0
 40
0.02500004
100
AcDbArc
 50
359.9998000000001
 51
53.03299999999993
  0
LINE
  5
F83A
330
17
100
AcDbEntity
  8
R-SWTS-DET2
100
AcDbLine
 10
51.44654612746489
 20
22.22063489795155
 30
0.0
 11
51.44654612746489
 21
22.15731103795155
 31
0.0
  0
LINE
  5
F83B
330
17
100
AcDbEntity
  8
R-SWTS-DET2
100
AcDbLine
 10
55.42952174033504
 20
22.15731103795155
 30
0.0
 11
55.00452174033505
 21
22.15731103795156
 31
0.0
  0
ARC
  5
F83C
330
17
100
AcDbEntity
  8
R-SWTS-DET2
100
AcDbCircle
 10
55.21702174033504
 20
21.97151313795155
 30
0.0
 40
0.3367977
100
AcDbArc
 50
53.03330000000016
 51
126.9666999999998
  0
LINE
  5
F83D
330
17
100
AcDbEntity
  8
R-SWTS-DET2
100
AcDbLine
 10
55.32502174033504
 20
22.15731103795155
 30
0.0
 11
55.32502174033504
 21
21.64031113795156
 31
0.0
  0
LINE
  5
F83E
330
17
100
AcDbEntity
  8
R-SWTS-DET2
100
AcDbLine
 10
55.10902174033503
 20
22.15731103795155
 30
0.0
 11
55.10902174033503
 21
21.64031113795156
 31
0.0
  0
LINE
  5
F83F
330
17
100
AcDbEntity
  8
R-SWTS-DET2
100
AcDbLine
 10
55.21702184570214
 20
21.53231103795155
 30
0.0
 11
55.10902194033504
 21
21.64031103795155
 31
0.0
  0
LINE
  5
F840
330
17
100
AcDbEntity
  8
R-SWTS-DET2
100
AcDbLine
 10
55.21702163496794
 20
21.53231103795155
 30
0.0
 11
55.32502154033505
 21
21.64031103795155
 31
0.0
  0
LINE
  5
F841
330
17
100
AcDbEntity
  8
R-SWTS-DET2
100
AcDbLine
 10
55.00452174033505
 20
22.22063489795155
 30
0.0
 11
55.00452174033505
 21
22.15731103795156
 31
0.0
  0
ARC
  5
F842
330
17
100
AcDbEntity
  8
R-SWTS-DET2
100
AcDbCircle
 10
55.02952184033504
 20
22.22063489795155
 30
0.0
 40
0.02500004
100
AcDbArc
 50
126.967
 51
180.0
  0
LINE
  5
F843
330
17
100
AcDbEntity
  8
R-SWTS-DET2
100
AcDbLine
 10
55.42952174033504
 20
22.22063489795155
 30
0.0
 11
55.42952174033504
 21
22.15731103795155
 31
0.0
  0
ARC
  5
F844
330
17
100
AcDbEntity
  8
R-SWTS-DET2
100
AcDbCircle
 10
55.40452164033504
 20
22.22063489795155
 30
0.0
 40
0.02500004
100
AcDbArc
 50
359.9998000000001
 51
53.03299999999993
  0
LINE
  5
F846
330
17
100
AcDbEntity
  8
R-SWTS-DET3
  6
CENTER
100
AcDbLine
 10
34.23227770037103
 20
21.17719877181025
 30
0.0
 11
34.23227770037103
 21
19.36745947246346
 31
0.0
  0
LINE
  5
F847
330
17
100
AcDbEntity
  8
R-SWTS-DET3
  6
CENTER
100
AcDbLine
 10
38.23227770037104
 20
21.16297206714415
 30
0.0
 11
38.23227770037104
 21
19.36745947246346
 31
0.0
  0
LINE
  5
F848
330
17
100
AcDbEntity
  8
R-SWTS-DET3
  6
CENTER
100
AcDbLine
 10
55.21800376379915
 20
21.33574354391439
 30
0.0
 11
55.21800376379916
 21
19.36745947246346
 31
0.0
  0
LINE
  5
F849
330
17
100
AcDbEntity
  8
R-SWTS-DET3
  6
CENTER
100
AcDbLine
 10
56.71800376379916
 20
21.33574354391439
 30
0.0
 11
56.71800376379916
 21
19.36745947246346
 31
0.0
  0
LINE
  5
F84A
330
17
100
AcDbEntity
  8
R-SWTS-DET3
  6
CENTER
100
AcDbLine
 10
49.71800376379917
 20
21.33574354391439
 30
0.0
 11
49.71800376379916
 21
19.36745947246346
 31
0.0
  0
LINE
  5
F84B
330
17
100
AcDbEntity
  8
R-SWTS-DET3
  6
CENTER
100
AcDbLine
 10
51.21800376379916
 20
21.33574354391439
 30
0.0
 11
51.21800376379917
 21
19.36745947246346
 31
0.0
  0
LWPOLYLINE
  5
FAB7
330
17
100
AcDbEntity
  8
R-SWTS-DET1
100
AcDbPolyline
 90
       22
 70
     1
 43
0.0
 10
21.93783132074579
 20
23.58831103795151
 10
21.83776025293393
 20
23.58831103795151
 10
21.83776025293393
 20
23.3763110379515
 10
21.86976025293393
 20
23.3763110379515
 10
21.80363589728095
 20
23.26178029434279
 42
-0.267949192431122
 10
21.7906987657165
 20
23.2543110379515
 10
21.52576025293393
 20
23.2543110379515
 10
21.52576025293393
 20
23.3163110379515
 10
21.77576025293394
 20
23.3163110379515
 10
21.77576025293394
 20
23.5983110379515
 10
18.72076025293395
 20
23.5983110379515
 10
18.72076025293395
 20
23.54831103795149
 42
-0.414213562373069
 10
18.66076025293395
 20
23.48831103795149
 10
18.58076025293394
 20
23.48831103795149
 42
-0.9999999999999998
 10
18.58076025293394
 20
23.54831103795149
 10
18.65576025293395
 20
23.54831103795149
 10
18.65576025293395
 20
23.62831103795149
 10
18.57076025293395
 20
23.62831103795149
 42
-0.4142135623730949
 10
18.55076025293395
 20
23.64831103795149
 10
18.55076025293396
 20
23.6883110379515
 10
22.01368918512207
 20
23.68831103795151
 42
-0.6681786379192989
 10
22.02076025293393
 20
23.67123997013964
  0
MTEXT
  5
FD3F
330
17
100
AcDbEntity
  8
TEXT
100
AcDbMText
 10
30.0
 20
1.99999994213165
 30
0.0
 40
0.375
 41
5.519524215552523
 71
     2
 72
     5
  1
DETAIL SCALE: 1" = 1"
 73
     1
 44
1.0
1001
ACAD
1000
MTEXTBEGIN
1070
    73
1070
     1
1070
    44
1040
1.0
1070
    74
1070
     0
1000
MTEXTEND
  0
MTEXT
  5
FD41
330
17
100
AcDbEntity
  8
TEXT
100
AcDbMText
 10
30.0
 20
3.05892232730673
 30
0.0
 40
0.5
 41
25.47489862407326
 71
     8
 72
     5
  1
1600 WALL SYSTEM™5 CURTAIN WALL \P6" DEEP (1" & 1/4" INFILL)\PCURTAIN WALL SHEAR BLOCK ASSEMBLY\P"F" AND "T" ANCHOR DETAILS
 73
     1
 44
1.0
1001
ACAD
1000
MTEXTBEGIN
1070
    73
1070
     1
1070
    44
1040
1.0
1070
    74
1070
     0
1000
MTEXTEND
  0
MTEXT
  5
FD42
330
17
100
AcDbEntity
  8
TEXT
100
AcDbMText
 10
1.0
 20
1.999999942131637
 30
0.0
 40
0.375
 41
14.22387531454843
 71
     1
 72
     5
  1
ENGINEERING CHANGE:  97910-087 (MARCH 2017)\PFILE NAME:  KCDD050 SHEET 13 OF 27.DWG
 73
     1
 44
1.0
1001
ACAD
1000
ACAD_MTEXT_COLUMN_INFO_BEGIN
1070
    75
1070
     2
1070
    79
1070
     0
1070
    76
1070
     1
1070
    78
1070
     0
1070
    48
1040
14.22387531454843
1070
    49
1040
1.25
1070
    50
1070
     1
1040
0.0
1000
ACAD_MTEXT_COLUMN_INFO_END
1000
MTEXTBEGIN
1070
    73
1070
     1
1070
    44
1040
1.0
1070
    74
1070
     0
1000
MTEXTEND
  0
INSERT
  5
FE22
330
17
100
AcDbEntity
  8
0
100
AcDbBlockReference
  2
Kawneer Logo English
 10
1.0
 20
2.5
 30
0.0
 41
5.337
 42
5.337
 43
5.337
  0
ENDSEC
  0
SECTION
  2
OBJECTS
  0
DICTIONARY
  5
C
330
0
100
AcDbDictionary
281
     1
  3
ACAD_CIP_PREVIOUS_PRODUCT_INFO
350
FA0F
  3
ACAD_COLOR
350
F8FB
  3
ACAD_GROUP
350
D
  3
ACAD_LAYOUT
350
ACC0
  3
ACAD_MATERIAL
350
F8D1
  3
ACAD_MLEADERSTYLE
350
F920
  3
ACAD_MLINESTYLE
350
1A
  3
ACAD_PLOTSETTINGS
350
ACC1
  3
ACAD_PLOTSTYLENAME
350
ACBE
  3
ACAD_SCALELIST
350
F8FE
  3
ACAD_TABLESTYLE
350
F8FC
  3
ACAD_VISUALSTYLE
350
F8EA
  3
ACDB_RECOMPOSE_DATA
350
FF58
  3
ACDBVARIABLEDICTIONARY
350
3E
  3
DWGPROPS
350
FF59
  0
DICTIONARY
  5
F95D
330
8
100
AcDbDictionary
280
     1
281
     1
  0
DICTIONARY
  5
D51D
330
2
100
AcDbDictionary
280
     1
281
     1
  3
ACAD_LAYERFILTERS
360
D51E
  3
ACAD_LAYERSTATES
360
F940
  0
DICTIONARY
  5
F94C
330
E
100
AcDbDictionary
280
     1
281
     1
  3
ADSK_XREC_LAYER_RECONCILED
360
F94D
  0
DICTIONARY
  5
F94E
330
A492
100
AcDbDictionary
280
     1
281
     1
  3
ADSK_XREC_LAYER_RECONCILED
360
F94F
  0
DICTIONARY
  5
F950
330
A637
100
AcDbDictionary
280
     1
281
     1
  3
ADSK_XREC_LAYER_RECONCILED
360
F951
  0
DICTIONARY
  5
F952
330
A638
100
AcDbDictionary
280
     1
281
     1
  3
ADSK_XREC_LAYER_RECONCILED
360
F953
  0
DICTIONARY
  5
F954
330
A639
100
AcDbDictionary
280
     1
281
     1
  3
ADSK_XREC_LAYER_RECONCILED
360
F955
  0
DICTIONARY
  5
F956
330
ECAF
100
AcDbDictionary
280
     1
281
     1
  3
ADSK_XREC_LAYER_RECONCILED
360
F957
  0
DICTIONARY
  5
BB27
330
17
100
AcDbDictionary
280
     1
281
     1
  3
ACAD_LAYOUTSELFREF
360
F8CD
  0
DICTIONARY
  5
BB25
330
14
100
AcDbDictionary
280
     1
281
     1
  3
ACAD_LAYOUTSELFREF
360
F8CC
  0
DICTIONARY
  5
FE1E
330
FE14
100
AcDbDictionary
280
     1
281
     1
  3
ACAD_SORTENTS
360
FE1F
  0
DICTIONARY
  5
FF56
330
FE15
100
AcDbDictionary
280
     1
281
     1
  3
ACAD_MTEXT_2008_RT
360
FF57
  0
XRECORD
  5
FA0F
102
{ACAD_REACTORS
330
C
102
}
330
C
100
AcDbXrecord
280
     1
300
ACD
300
2012
300
85730ACD_2012_0F
  0
DICTIONARY
  5
F8FB
102
{ACAD_REACTORS
330
C
102
}
330
C
100
AcDbDictionary
281
     1
  0
DICTIONARY
  5
D
102
{ACAD_REACTORS
330
C
102
}
330
C
100
AcDbDictionary
281
     1
  0
DICTIONARY
  5
ACC0
102
{ACAD_REACTORS
330
C
102
}
330
C
100
AcDbDictionary
281
     1
  3
Layout1
350
ACC3
  3
Model
350
ACC2
  0
DICTIONARY
  5
F8D1
102
{ACAD_REACTORS
330
C
102
}
330
C
100
AcDbDictionary
281
     1
  3
ByBlock
350
F8DA
  3
ByLayer
350
F8D2
  3
Global
350
F8E2
  0
DICTIONARY
  5
F920
102
{ACAD_REACTORS
330
C
102
}
330
C
100
AcDbDictionary
281
     1
  3
Standard
350
F921
  0
DICTIONARY
  5
1A
102
{ACAD_REACTORS
330
C
102
}
330
C
100
AcDbDictionary
281
     1
  3
STANDARD
350
1B
  0
DICTIONARY
  5
ACC1
102
{ACAD_REACTORS
330
C
102
}
330
C
100
AcDbDictionary
281
     1
  0
ACDBDICTIONARYWDFLT
  5
ACBE
102
{ACAD_REACTORS
330
C
102
}
330
C
100
AcDbDictionary
281
     1
  3
Normal
350
ACBF
100
AcDbDictionaryWithDefault
340
ACBF
  0
DICTIONARY
  5
F8FE
102
{ACAD_REACTORS
330
C
102
}
330
C
100
AcDbDictionary
281
     1
  3
A0
350
F8FF
  3
A1
350
FDF6
  3
A2
350
FDF7
  3
A3
350
FDF8
  3
A4
350
FDF9
  3
A5
350
FDFA
  3
A6
350
FDFB
  3
A7
350
FDFC
  3
A8
350
FDFD
  3
A9
350
FDFE
  3
B0
350
FDFF
  3
B1
350
FE00
  3
B2
350
FE01
  3
B3
350
FE02
  3
B4
350
FE03
  3
B5
350
FE04
  3
B6
350
FE05
  0
DICTIONARY
  5
F8FC
102
{ACAD_REACTORS
330
C
102
}
330
C
100
AcDbDictionary
281
     1
  3
Standard
350
F8FD
  0
DICTIONARY
  5
F8EA
102
{ACAD_REACTORS
330
C
102
}
330
C
100
AcDbDictionary
281
     1
  3
2dWireframe
350
F8F0
  3
3D Hidden
350
F8F2
  3
3dWireframe
350
F8F1
  3
Basic
350
F8EF
  3
Brighten
350
F8F6
  3
ColorChange
350
F8FA
  3
Conceptual
350
F8F3
  3
Dim
350
F8F5
  3
EdgeColorOff
350
F9C7
  3
Facepattern
350
F8F9
  3
Flat
350
F8EB
  3
FlatWithEdges
350
F8EC
  3
Gouraud
350
F8ED
  3
GouraudWithEdges
350
F8EE
  3
Hidden
350
F9BF
  3
JitterOff
350
F9C5
  3
Linepattern
350
F8F8
  3
OverhangOff
350
F9C6
  3
Realistic
350
F8F4
  3
Shaded
350
F9C4
  3
Shaded with edges
350
F9C3
  3
Shades of Gray
350
F9C0
  3
Sketchy
350
F9C1
  3
Thicken
350
F8F7
  3
Wireframe
350
F9BE
  3
X-Ray
350
F9C2
  0
XRECORD
  5
FF58
102
{ACAD_REACTORS
330
C
102
}
330
C
100
AcDbXrecord
280
     1
 90
        1
330
F8FD
330
FD42
330
FE15
  0
DICTIONARY
  5
3E
102
{ACAD_REACTORS
330
C
102
}
330
C
100
AcDbDictionary
281
     1
  3
CANNOSCALE
350
F970
  3
CMLEADERSTYLE
350
F96F
  3
CTABLESTYLE
350
F96E
  3
DIMADEC
350
3F
  3
DIMASSOC
350
F973
  3
INDEXCTL
350
F972
  3
LAYEREVAL
350
FEFC
  3
LAYERNOTIFY
350
FEFD
  3
LIGHTINGUNITS
350
FEFB
  3
MSLTSCALE
350
FEFA
  3
SORTENTS
350
F971
  3
XCLIPFRAME
350
FF54
  0
XRECORD
  5
FF59
102
{ACAD_REACTORS
330
C
102
}
330
C
100
AcDbXrecord
280
     1
  1
DWGPROPS COOKIE
  2

  3

  4

  6

  7

  8
Quadiss
  9

300
=
301
=
302
=
303
=
304
=
305
=
306
=
307
=
308
=
309
=
 40
0.8165835532407406
 41
2450777.537570949
 42
2457801.555619572
  1

 90
        0
  0
DICTIONARY
  5
D51E
102
{ACAD_REACTORS
330
D51D
102
}
330
D51D
100
AcDbDictionary
280
     1
281
     1
  0
DICTIONARY
  5
F940
102
{ACAD_REACTORS
330
D51D
102
}
330
D51D
100
AcDbDictionary
281
     1
  0
XRECORD
  5
F94D
102
{ACAD_REACTORS
330
F94C
102
}
330
F94C
100
AcDbXrecord
280
     1
290
     1
  0
XRECORD
  5
F94F
102
{ACAD_REACTORS
330
F94E
102
}
330
F94E
100
AcDbXrecord
280
     1
290
     1
  0
XRECORD
  5
F951
102
{ACAD_REACTORS
330
F950
102
}
330
F950
100
AcDbXrecord
280
     1
290
     1
  0
XRECORD
  5
F953
102
{ACAD_REACTORS
330
F952
102
}
330
F952
100
AcDbXrecord
280
     1
290
     1
  0
XRECORD
  5
F955
102
{ACAD_REACTORS
330
F954
102
}
330
F954
100
AcDbXrecord
280
     1
290
     1
  0
XRECORD
  5
F957
102
{ACAD_REACTORS
330
F956
102
}
330
F956
100
AcDbXrecord
280
     1
290
     1
  0
XRECORD
  5
F8CD
102
{ACAD_REACTORS
330
BB27
102
}
330
BB27
100
AcDbXrecord
280
     1
340
17
  0
XRECORD
  5
F8CC
102
{ACAD_REACTORS
330
BB25
102
}
330
BB25
100
AcDbXrecord
280
     1
340
14
  0
SORTENTSTABLE
  5
FE1F
102
{ACAD_REACTORS
330
FE1E
102
}
330
FE1E
100
AcDbSortentsTable
330
FE14
  0
XRECORD
  5
FF57
102
{ACAD_REACTORS
330
FF56
102
}
330
FF56
100
AcDbXrecord
280
     1
 40
102645.0
  1
\pxqr;{\fArial TUR|b0|i0|c0|p34;\T1.05;AN ARCONIC COMPANY}
  0
LAYOUT
  5
ACC3
102
{ACAD_XDICTIONARY
360
FF5C
102
}
102
{ACAD_REACTORS
330
ACC0
102
}
330
ACC0
100
AcDbPlotSettings
  1

  2
\\NOAKCI-SRV7\Marketing Communications - HP4550hdn
  4

  6

 40
0.0
 41
0.0
 42
0.0
 43
0.0
 44
0.0
 45
0.0
 46
0.0
 47
0.0
 48
0.0
 49
0.0
140
0.0
141
0.0
142
1.0
143
1.0
 70
   688
 72
     0
 73
     0
 74
     5
  7
monochrome2.ctb
 75
    16
147
1.0
148
0.0
149
0.0
100
AcDbLayout
  1
Layout1
 70
     1
 71
     1
 10
0.0
 20
0.0
 11
12.0
 21
9.0
 12
0.0
 22
0.0
 32
0.0
 14
1.000000000000000E+20
 24
1.000000000000000E+20
 34
1.000000000000000E+20
 15
-1.000000000000000E+20
 25
-1.000000000000000E+20
 35
-1.000000000000000E+20
146
0.0
 13
0.0
 23
0.0
 33
0.0
 16
1.0
 26
0.0
 36
0.0
 17
0.0
 27
1.0
 37
0.0
 76
     0
330
14
  0
LAYOUT
  5
ACC2
102
{ACAD_XDICTIONARY
360
FF5A
102
}
102
{ACAD_REACTORS
330
ACC0
102
}
330
ACC0
100
AcDbPlotSettings
  1

  2
\\KWRKCI-HUB03\KCI_MKT_HP9000_PCL6
  4
11x17
  6

 40
3.174999952316284
 41
3.174999952316284
 42
3.17498779296875
 43
3.17498779296875
 44
279.3999938964844
 45
431.8000183105469
 46
0.0
 47
0.0
 48
0.0
 49
0.0
140
0.0
141
0.0
142
1.0
143
5.951566198729589
 70
 11952
 72
     0
 73
     1
 74
     1
  7
monochrome2.ctb
 75
     0
147
0.1680229987550938
148
0.1545208164723874
149
0.0860822463568553
100
AcDbLayout
  1
Model
 70
     1
 71
     0
 10
0.0
 20
0.0
 11
12.0
 21
9.0
 12
0.0
 22
0.0
 32
0.0
 14
0.0
 24
0.0
 34
0.0
 15
0.0
 25
0.0
 35
0.0
146
0.0
 13
0.0
 23
0.0
 33
0.0
 16
1.0
 26
0.0
 36
0.0
 17
0.0
 27
1.0
 37
0.0
 76
     0
330
17
331
F8A6
  0
MATERIAL
  5
F8DA
102
{ACAD_XDICTIONARY
360
F8DB
102
}
102
{ACAD_REACTORS
330
F8D1
102
}
330
F8D1
100
AcDbMaterial
  1
ByBlock
 72
     0
 43
0.0208333333333333
 43
0.0
 43
0.0
 43
0.0
 43
0.0
 43
0.0208333333333333
 43
0.0
 43
0.0
 43
0.0
 43
0.0
 43
1.0
 43
0.0
 43
0.0
 43
0.0
 43
0.0
 43
1.0
 77
     0
 47
0.0208333333333333
 47
0.0
 47
0.0
 47
0.0
 47
0.0
 47
0.0208333333333333
 47
0.0
 47
0.0
 47
0.0
 47
0.0
 47
1.0
 47
0.0
 47
0.0
 47
0.0
 47
0.0
 47
1.0
171
     0
 49
0.0208333333333333
 49
0.0
 49
0.0
 49
0.0
 49
0.0
 49
0.0208333333333333
 49
0.0
 49
0.0
 49
0.0
 49
0.0
 49
1.0
 49
0.0
 49
0.0
 49
0.0
 49
0.0
 49
1.0
175
     0
142
0.0208333333333333
142
0.0
142
0.0
142
0.0
142
0.0
142
0.0208333333333333
142
0.0
142
0.0
142
0.0
142
0.0
142
1.0
142
0.0
142
0.0
142
0.0
142
0.0
142
1.0
179
     0
144
0.0208333333333333
144
0.0
144
0.0
144
0.0
144
0.0
144
0.0208333333333333
144
0.0
144
0.0
144
0.0
144
0.0
144
1.0
144
0.0
144
0.0
144
0.0
144
0.0
144
1.0
147
0.0208333333333333
147
0.0
147
0.0
147
0.0
147
0.0
147
0.0208333333333333
147
0.0
147
0.0
147
0.0
147
0.0
147
1.0
147
0.0
147
0.0
147
0.0
147
0.0
147
1.0
  0
MATERIAL
  5
F8D2
102
{ACAD_XDICTIONARY
360
F8D3
102
}
102
{ACAD_REACTORS
330
F8D1
102
}
330
F8D1
100
AcDbMaterial
  1
ByLayer
 72
     0
 43
0.0208333333333333
 43
0.0
 43
0.0
 43
0.0
 43
0.0
 43
0.0208333333333333
 43
0.0
 43
0.0
 43
0.0
 43
0.0
 43
1.0
 43
0.0
 43
0.0
 43
0.0
 43
0.0
 43
1.0
 77
     0
 47
0.0208333333333333
 47
0.0
 47
0.0
 47
0.0
 47
0.0
 47
0.0208333333333333
 47
0.0
 47
0.0
 47
0.0
 47
0.0
 47
1.0
 47
0.0
 47
0.0
 47
0.0
 47
0.0
 47
1.0
171
     0
 49
0.0208333333333333
 49
0.0
 49
0.0
 49
0.0
 49
0.0
 49
0.0208333333333333
 49
0.0
 49
0.0
 49
0.0
 49
0.0
 49
1.0
 49
0.0
 49
0.0
 49
0.0
 49
0.0
 49
1.0
175
     0
142
0.0208333333333333
142
0.0
142
0.0
142
0.0
142
0.0
142
0.0208333333333333
142
0.0
142
0.0
142
0.0
142
0.0
142
1.0
142
0.0
142
0.0
142
0.0
142
0.0
142
1.0
179
     0
144
0.0208333333333333
144
0.0
144
0.0
144
0.0
144
0.0
144
0.0208333333333333
144
0.0
144
0.0
144
0.0
144
0.0
144
1.0
144
0.0
144
0.0
144
0.0
144
0.0
144
1.0
147
0.0208333333333333
147
0.0
147
0.0
147
0.0
147
0.0
147
0.0208333333333333
147
0.0
147
0.0
147
0.0
147
0.0
147
1.0
147
0.0
147
0.0
147
0.0
147
0.0
147
1.0
  0
MATERIAL
  5
F8E2
102
{ACAD_XDICTIONARY
360
F8E3
102
}
102
{ACAD_REACTORS
330
F8D1
102
}
330
F8D1
100
AcDbMaterial
  1
Global
 72
     0
 43
0.0208333333333333
 43
0.0
 43
0.0
 43
0.0
 43
0.0
 43
0.0208333333333333
 43
0.0
 43
0.0
 43
0.0
 43
0.0
 43
1.0
 43
0.0
 43
0.0
 43
0.0
 43
0.0
 43
1.0
 77
     0
 47
0.0208333333333333
 47
0.0
 47
0.0
 47
0.0
 47
0.0
 47
0.0208333333333333
 47
0.0
 47
0.0
 47
0.0
 47
0.0
 47
1.0
 47
0.0
 47
0.0
 47
0.0
 47
0.0
 47
1.0
171
     0
 49
0.0208333333333333
 49
0.0
 49
0.0
 49
0.0
 49
0.0
 49
0.0208333333333333
 49
0.0
 49
0.0
 49
0.0
 49
0.0
 49
1.0
 49
0.0
 49
0.0
 49
0.0
 49
0.0
 49
1.0
175
     0
142
0.0208333333333333
142
0.0
142
0.0
142
0.0
142
0.0
142
0.0208333333333333
142
0.0
142
0.0
142
0.0
142
0.0
142
1.0
142
0.0
142
0.0
142
0.0
142
0.0
142
1.0
179
     0
144
0.0208333333333333
144
0.0
144
0.0
144
0.0
144
0.0
144
0.0208333333333333
144
0.0
144
0.0
144
0.0
144
0.0
144
1.0
144
0.0
144
0.0
144
0.0
144
0.0
144
1.0
147
0.0208333333333333
147
0.0
147
0.0
147
0.0
147
0.0
147
0.0208333333333333
147
0.0
147
0.0
147
0.0
147
0.0
147
1.0
147
0.0
147
0.0
147
0.0
147
0.0
147
1.0
  0
MLEADERSTYLE
  5
F921
102
{ACAD_REACTORS
330
F920
102
}
330
F920
100
AcDbMLeaderStyle
170
     2
171
     1
172
     0
 90
        2
 40
0.0
 41
0.0
173
     1
 91
-1056964608
340
11
 92
       -2
290
     1
 42
0.09
291
     1
 43
0.36
  3
Standard
 44
0.18
300

342
F
174
     1
178
     6
175
     1
176
     0
 93
-1056964608
 45
0.18
292
     0
297
     0
 46
0.18
 94
-1056964608
 47
1.0
 49
1.0
140
1.0
293
     1
141
0.0
294
     1
177
     0
142
1.0
295
     0
296
     0
143
0.125
1001
ACAD_MLEADERVER
1070
     2
  0
MLINESTYLE
  5
1B
102
{ACAD_REACTORS
330
1A
102
}
330
1A
100
AcDbMlineStyle
  2
STANDARD
 70
     0
  3

 62
   256
 51
90.0
 52
90.0
 71
     2
 49
0.5
 62
   256
  6
BYLAYER
 49
-0.5
 62
   256
  6
BYLAYER
  0
ACDBPLACEHOLDER
  5
ACBF
102
{ACAD_REACTORS
330
ACBE
102
}
330
ACBE
  0
SCALE
  5
F8FF
102
{ACAD_REACTORS
330
F8FE
102
}
330
F8FE
100
AcDbScale
 70
     0
300
1:1
140
1.0
141
1.0
290
     1
  0
SCALE
  5
FDF6
102
{ACAD_REACTORS
330
F8FE
102
}
330
F8FE
100
AcDbScale
 70
     0
300
1/128" = 1'-0"
140
0.0078125
141
12.0
290
     0
  0
SCALE
  5
FDF7
102
{ACAD_REACTORS
330
F8FE
102
}
330
F8FE
100
AcDbScale
 70
     0
300
1/64" = 1'-0"
140
0.015625
141
12.0
290
     0
  0
SCALE
  5
FDF8
102
{ACAD_REACTORS
330
F8FE
102
}
330
F8FE
100
AcDbScale
 70
     0
300
1/32" = 1'-0"
140
0.03125
141
12.0
290
     0
  0
SCALE
  5
FDF9
102
{ACAD_REACTORS
330
F8FE
102
}
330
F8FE
100
AcDbScale
 70
     0
300
1/16" = 1'-0"
140
0.0625
141
12.0
290
     0
  0
SCALE
  5
FDFA
102
{ACAD_REACTORS
330
F8FE
102
}
330
F8FE
100
AcDbScale
 70
     0
300
3/32" = 1'-0"
140
0.09375
141
12.0
290
     0
  0
SCALE
  5
FDFB
102
{ACAD_REACTORS
330
F8FE
102
}
330
F8FE
100
AcDbScale
 70
     0
300
1/8" = 1'-0"
140
0.125
141
12.0
290
     0
  0
SCALE
  5
FDFC
102
{ACAD_REACTORS
330
F8FE
102
}
330
F8FE
100
AcDbScale
 70
     0
300
3/16" = 1'-0"
140
0.1875
141
12.0
290
     0
  0
SCALE
  5
FDFD
102
{ACAD_REACTORS
330
F8FE
102
}
330
F8FE
100
AcDbScale
 70
     0
300
1/4" = 1'-0"
140
0.25
141
12.0
290
     0
  0
SCALE
  5
FDFE
102
{ACAD_REACTORS
330
F8FE
102
}
330
F8FE
100
AcDbScale
 70
     0
300
3/8" = 1'-0"
140
0.375
141
12.0
290
     0
  0
SCALE
  5
FDFF
102
{ACAD_REACTORS
330
F8FE
102
}
330
F8FE
100
AcDbScale
 70
     0
300
1/2" = 1'-0"
140
0.5
141
12.0
290
     0
  0
SCALE
  5
FE00
102
{ACAD_REACTORS
330
F8FE
102
}
330
F8FE
100
AcDbScale
 70
     0
300
3/4" = 1'-0"
140
0.75
141
12.0
290
     0
  0
SCALE
  5
FE01
102
{ACAD_REACTORS
330
F8FE
102
}
330
F8FE
100
AcDbScale
 70
     0
300
1" = 1'-0"
140
1.0
141
12.0
290
     0
  0
SCALE
  5
FE02
102
{ACAD_REACTORS
330
F8FE
102
}
330
F8FE
100
AcDbScale
 70
     0
300
1-1/2" = 1'-0"
140
1.5
141
12.0
290
     0
  0
SCALE
  5
FE03
102
{ACAD_REACTORS
330
F8FE
102
}
330
F8FE
100
AcDbScale
 70
     0
300
3" = 1'-0"
140
3.0
141
12.0
290
     0
  0
SCALE
  5
FE04
102
{ACAD_REACTORS
330
F8FE
102
}
330
F8FE
100
AcDbScale
 70
     0
300
6" = 1'-0"
140
6.0
141
12.0
290
     0
  0
SCALE
  5
FE05
102
{ACAD_REACTORS
330
F8FE
102
}
330
F8FE
100
AcDbScale
 70
     0
300
1'-0" = 1'-0"
140
12.0
141
12.0
290
     0
  0
TABLESTYLE
  5
F8FD
102
{ACAD_XDICTIONARY
360
F959
102
}
102
{ACAD_REACTORS
330
F8FC
102
}
330
F8FC
100
AcDbTableStyle
  3
Standard
 70
     0
 71
     0
 40
0.06
 41
0.06
280
     0
281
     0
  7
STANDARD
140
0.18
170
     2
 62
     0
 63
     7
283
     0
274
    -2
284
     1
 64
     0
275
    -2
285
     1
 65
     0
276
    -2
286
     1
 66
     0
277
    -2
287
     1
 67
     0
278
    -2
288
     1
 68
     0
279
    -2
289
     1
 69
     0
  7
STANDARD
140
0.25
170
     5
 62
     0
 63
     7
283
     0
274
    -2
284
     1
 64
     0
275
    -2
285
     1
 65
     0
276
    -2
286
     1
 66
     0
277
    -2
287
     1
 67
     0
278
    -2
288
     1
 68
     0
279
    -2
289
     1
 69
     0
  7
STANDARD
140
0.18
170
     5
 62
     0
 63
     7
283
     0
274
    -2
284
     1
 64
     0
275
    -2
285
     1
 65
     0
276
    -2
286
     1
 66
     0
277
    -2
287
     1
 67
     0
278
    -2
288
     1
 68
     0
279
    -2
289
     1
 69
     0
  0
VISUALSTYLE
  5
F8F0
102
{ACAD_XDICTIONARY
360
FF6B
102
}
102
{ACAD_REACTORS
330
F8EA
102
}
330
F8EA
100
AcDbVisualStyle
  2
2dWireframe
 70
     4
 71
     0
 72
     2
 73
     0
 90
        0
 40
-0.6
 41
-30.0
 62
     5
 63
     7
 74
     1
 91
        4
 64
     7
 65
   257
 75
     1
175
     1
 42
1.0
 92
        0
 66
   257
 43
1.0
 76
     1
 77
     6
 78
     2
 67
     7
 79
     5
170
     0
171
     0
290
     0
174
     0
 93
        1
 44
0.0
173
     0
291
     0
 45
0.0
1001
ACAD
1000
AcDbSavedByObjectVersion
1070
     0
  0
VISUALSTYLE
  5
F8F2
102
{ACAD_XDICTIONARY
360
FF6F
102
}
102
{ACAD_REACTORS
330
F8EA
102
}
330
F8EA
100
AcDbVisualStyle
  2
3D Hidden
 70
     6
 71
     1
 72
     2
 73
     2
 90
        0
 40
-0.6
 41
-30.0
 62
     5
 63
     7
 74
     2
 91
        2
 64
     7
 65
   257
 75
     2
175
     1
 42
40.0
 92
        0
 66
   257
 43
1.0
 76
     1
 77
     6
 78
     2
 67
     7
 79
     3
170
     0
171
     0
290
     0
174
     0
 93
        1
 44
0.0
173
     0
291
     0
 45
0.0
1001
ACAD
1000
AcDbSavedByObjectVersion
1070
     0
  0
VISUALSTYLE
  5
F8F1
102
{ACAD_XDICTIONARY
360
FF6D
102
}
102
{ACAD_REACTORS
330
F8EA
102
}
330
F8EA
100
AcDbVisualStyle
  2
3dWireframe
 70
     5
 71
     0
 72
     2
 73
     0
 90
        0
 40
-0.6
 41
-30.0
 62
     5
 63
     7
 74
     1
 91
        4
 64
     7
 65
   257
 75
     1
175
     1
 42
1.0
 92
        0
 66
   257
 43
1.0
 76
     1
 77
     6
 78
     2
 67
     7
 79
     5
170
     0
171
     0
290
     0
174
     0
 93
        1
 44
0.0
173
     0
291
     0
 45
0.0
1001
ACAD
1000
AcDbSavedByObjectVersion
1070
     0
  0
VISUALSTYLE
  5
F8EF
102
{ACAD_XDICTIONARY
360
FF69
102
}
102
{ACAD_REACTORS
330
F8EA
102
}
330
F8EA
100
AcDbVisualStyle
  2
Basic
 70
     7
 71
     1
 72
     0
 73
     1
 90
        0
 40
-0.6
 41
-30.0
 62
     5
 63
     7
 74
     0
 91
        4
 64
     7
 65
   257
 75
     1
175
     1
 42
1.0
 92
        8
 66
     7
 43
1.0
 76
     1
 77
     6
 78
     2
 67
     7
 79
     5
170
     0
171
     0
290
     0
174
     0
 93
        1
 44
0.0
173
     0
291
     1
 45
0.0
1001
ACAD
1000
AcDbSavedByObjectVersion
1070
     0
  0
VISUALSTYLE
  5
F8F6
102
{ACAD_XDICTIONARY
360
FF77
102
}
102
{ACAD_REACTORS
330
F8EA
102
}
330
F8EA
100
AcDbVisualStyle
  2
Brighten
 70
    12
 71
     2
 72
     2
 73
     0
 90
        0
 40
-0.6
 41
-30.0
 62
     5
 63
     7
 74
     1
 91
        4
 64
     7
 65
   257
 75
     1
175
     1
 42
1.0
 92
        8
 66
     7
 43
1.0
 76
     1
 77
     6
 78
     2
 67
     7
 79
     5
170
     0
171
     0
290
     0
174
     0
 93
        1
 44
50.0
173
     0
291
     1
 45
0.0
1001
ACAD
1000
AcDbSavedByObjectVersion
1070
     0
  0
VISUALSTYLE
  5
F8FA
102
{ACAD_XDICTIONARY
360
FF7F
102
}
102
{ACAD_REACTORS
330
F8EA
102
}
330
F8EA
100
AcDbVisualStyle
  2
ColorChange
 70
    16
 71
     2
 72
     2
 73
     3
 90
        0
 40
-0.6
 41
-30.0
 62
     5
 63
     8
 74
     1
 91
        4
 64
     7
 65
   257
 75
     1
175
     1
 42
1.0
 92
        8
 66
     8
 43
1.0
 76
     1
 77
     6
 78
     2
 67
     7
 79
     5
170
     0
171
     0
290
     0
174
     0
 93
        1
 44
0.0
173
     0
291
     1
 45
0.0
1001
ACAD
1000
AcDbSavedByObjectVersion
1070
     0
  0
VISUALSTYLE
  5
F8F3
102
{ACAD_XDICTIONARY
360
FF71
102
}
102
{ACAD_REACTORS
330
F8EA
102
}
330
F8EA
100
AcDbVisualStyle
  2
Conceptual
 70
     9
 71
     3
 72
     2
 73
     0
 90
        0
 40
-0.6
 41
-30.0
 62
     5
 63
     7
 74
     2
 91
        2
 64
     7
 65
   257
 75
     1
175
     1
 42
40.0
 92
        8
 66
     7
 43
1.0
 76
     1
 77
     6
 78
     2
 67
     7
 79
     3
170
     0
171
     0
290
     0
174
     0
 93
        1
 44
0.0
173
     0
291
     0
 45
0.0
1001
ACAD
1000
AcDbSavedByObjectVersion
1070
     0
  0
VISUALSTYLE
  5
F8F5
102
{ACAD_XDICTIONARY
360
FF75
102
}
102
{ACAD_REACTORS
330
F8EA
102
}
330
F8EA
100
AcDbVisualStyle
  2
Dim
 70
    11
 71
     2
 72
     2
 73
     0
 90
        0
 40
-0.6
 41
-30.0
 62
     5
 63
     7
 74
     1
 91
        4
 64
     7
 65
   257
 75
     1
175
     1
 42
1.0
 92
        8
 66
     7
 43
1.0
 76
     1
 77
     6
 78
     2
 67
     7
 79
     5
170
     0
171
     0
290
     0
174
     0
 93
        1
 44
-50.0
173
     0
291
     1
 45
0.0
1001
ACAD
1000
AcDbSavedByObjectVersion
1070
     0
  0
VISUALSTYLE
  5
F9C7
102
{ACAD_XDICTIONARY
360
FF94
102
}
102
{ACAD_REACTORS
330
F8EA
102
}
330
F8EA
100
AcDbVisualStyle
  2
EdgeColorOff
 70
    22
 71
     2
 72
     2
 73
     0
 90
        0
 40
-0.6
 41
-30.0
 62
     5
 63
     7
 74
     1
 91
        4
 64
     7
 65
   257
 75
     1
175
     1
 42
1.0
 92
        8
 66
     7
 43
1.0
 76
     1
 77
     6
 78
     2
 67
     7
 79
     5
170
     0
171
     0
290
     0
174
     0
 93
        1
 44
0.0
173
     0
291
     1
 45
0.0
1001
ACAD
1000
AcDbSavedByObjectVersion
1070
     0
  0
VISUALSTYLE
  5
F8F9
102
{ACAD_XDICTIONARY
360
FF7D
102
}
102
{ACAD_REACTORS
330
F8EA
102
}
330
F8EA
100
AcDbVisualStyle
  2
Facepattern
 70
    15
 71
     2
 72
     2
 73
     0
 90
        0
 40
-0.6
 41
-30.0
 62
     5
 63
     7
 74
     1
 91
        4
 64
     7
 65
   257
 75
     1
175
     1
 42
1.0
 92
        8
 66
     7
 43
1.0
 76
     1
 77
     6
 78
     2
 67
     7
 79
     5
170
     0
171
     0
290
     0
174
     0
 93
        1
 44
0.0
173
     0
291
     1
 45
0.0
1001
ACAD
1000
AcDbSavedByObjectVersion
1070
     0
  0
VISUALSTYLE
  5
F8EB
102
{ACAD_XDICTIONARY
360
FF61
102
}
102
{ACAD_REACTORS
330
F8EA
102
}
330
F8EA
100
AcDbVisualStyle
  2
Flat
 70
     0
 71
     2
 72
     1
 73
     1
 90
        2
 40
-0.6
 41
30.0
 62
     5
 63
     7
 74
     0
 91
        4
 64
     7
 65
   257
 75
     1
175
     1
 42
1.0
 92
        8
 66
     7
 43
1.0
 76
     1
 77
     6
 78
     2
 67
     7
 79
     5
170
     0
171
     0
290
     0
174
     0
 93
       13
 44
0.0
173
     0
291
     1
 45
0.0
1001
ACAD
1000
AcDbSavedByObjectVersion
1070
     0
  0
VISUALSTYLE
  5
F8EC
102
{ACAD_XDICTIONARY
360
FF63
102
}
102
{ACAD_REACTORS
330
F8EA
102
}
330
F8EA
100
AcDbVisualStyle
  2
FlatWithEdges
 70
     1
 71
     2
 72
     1
 73
     1
 90
        2
 40
-0.6
 41
30.0
 62
     5
 63
     7
 74
     1
 91
        4
 64
     7
 65
   257
 75
     1
175
     1
 42
1.0
 92
        0
 66
   257
 43
1.0
 76
     1
 77
     6
 78
     2
 67
     7
 79
     5
170
     0
171
     0
290
     0
174
     0
 93
       13
 44
0.0
173
     0
291
     1
 45
0.0
1001
ACAD
1000
AcDbSavedByObjectVersion
1070
     0
  0
VISUALSTYLE
  5
F8ED
102
{ACAD_XDICTIONARY
360
FF65
102
}
102
{ACAD_REACTORS
330
F8EA
102
}
330
F8EA
100
AcDbVisualStyle
  2
Gouraud
 70
     2
 71
     2
 72
     2
 73
     1
 90
        2
 40
-0.6
 41
30.0
 62
     5
 63
     7
 74
     0
 91
        4
 64
     7
 65
   257
 75
     1
175
     1
 42
1.0
 92
        0
 66
     7
 43
1.0
 76
     1
 77
     6
 78
     2
 67
     7
 79
     5
170
     0
171
     0
290
     0
174
     0
 93
       13
 44
0.0
173
     0
291
     1
 45
0.0
1001
ACAD
1000
AcDbSavedByObjectVersion
1070
     0
  0
VISUALSTYLE
  5
F8EE
102
{ACAD_XDICTIONARY
360
FF67
102
}
102
{ACAD_REACTORS
330
F8EA
102
}
330
F8EA
100
AcDbVisualStyle
  2
GouraudWithEdges
 70
     3
 71
     2
 72
     2
 73
     1
 90
        2
 40
-0.6
 41
30.0
 62
     5
 63
     7
 74
     1
 91
        4
 64
     7
 65
   257
 75
     1
175
     1
 42
1.0
 92
        0
 66
   257
 43
1.0
 76
     1
 77
     6
 78
     2
 67
     7
 79
     5
170
     0
171
     0
290
     0
174
     0
 93
       13
 44
0.0
173
     0
291
     1
 45
0.0
1001
ACAD
1000
AcDbSavedByObjectVersion
1070
     0
  0
VISUALSTYLE
  5
F9BF
102
{ACAD_XDICTIONARY
360
FF84
102
}
102
{ACAD_REACTORS
330
F8EA
102
}
330
F8EA
100
AcDbVisualStyle
  2
Hidden
 70
     6
 71
     1
 72
     2
 73
     2
 90
        0
 40
-0.6
 41
-30.0
 62
     5
 63
     7
 74
     2
 91
        2
 64
     7
 65
   257
 75
     2
175
     1
 42
40.0
 92
        0
 66
   257
 43
1.0
 76
     1
 77
     6
 78
     2
 67
     7
 79
     3
170
     0
171
     0
290
     0
174
     0
 93
        1
 44
0.0
173
     0
291
     0
 45
0.0
1001
ACAD
1000
AcDbSavedByObjectVersion
1070
     0
  0
VISUALSTYLE
  5
F9C5
102
{ACAD_XDICTIONARY
360
FF90
102
}
102
{ACAD_REACTORS
330
F8EA
102
}
330
F8EA
100
AcDbVisualStyle
  2
JitterOff
 70
    20
 71
     2
 72
     2
 73
     0
 90
        0
 40
-0.6
 41
-30.0
 62
     5
 63
     7
 74
     1
 91
        4
 64
     7
 65
   257
 75
     1
175
     1
 42
1.0
 92
       10
 66
     7
 43
1.0
 76
     1
 77
     6
 78
     2
 67
     7
 79
     5
170
     0
171
     0
290
     0
174
     0
 93
        1
 44
0.0
173
     0
291
     1
 45
0.0
1001
ACAD
1000
AcDbSavedByObjectVersion
1070
     0
  0
VISUALSTYLE
  5
F8F8
102
{ACAD_XDICTIONARY
360
FF7B
102
}
102
{ACAD_REACTORS
330
F8EA
102
}
330
F8EA
100
AcDbVisualStyle
  2
Linepattern
 70
    14
 71
     2
 72
     2
 73
     0
 90
        0
 40
-0.6
 41
-30.0
 62
     5
 63
     7
 74
     1
 91
        4
 64
     7
 65
   257
 75
     7
175
     7
 42
1.0
 92
        8
 66
     7
 43
1.0
 76
     1
 77
     6
 78
     2
 67
     7
 79
     5
170
     0
171
     0
290
     0
174
     0
 93
        1
 44
0.0
173
     0
291
     1
 45
0.0
1001
ACAD
1000
AcDbSavedByObjectVersion
1070
     0
  0
VISUALSTYLE
  5
F9C6
102
{ACAD_XDICTIONARY
360
FF92
102
}
102
{ACAD_REACTORS
330
F8EA
102
}
330
F8EA
100
AcDbVisualStyle
  2
OverhangOff
 70
    21
 71
     2
 72
     2
 73
     0
 90
        0
 40
-0.6
 41
-30.0
 62
     5
 63
     7
 74
     1
 91
        4
 64
     7
 65
   257
 75
     1
175
     1
 42
1.0
 92
        9
 66
     7
 43
1.0
 76
     1
 77
     6
 78
     2
 67
     7
 79
     5
170
     0
171
     0
290
     0
174
     0
 93
        1
 44
0.0
173
     0
291
     1
 45
0.0
1001
ACAD
1000
AcDbSavedByObjectVersion
1070
     0
  0
VISUALSTYLE
  5
F8F4
102
{ACAD_XDICTIONARY
360
FF73
102
}
102
{ACAD_REACTORS
330
F8EA
102
}
330
F8EA
100
AcDbVisualStyle
  2
Realistic
 70
     8
 71
     2
 72
     2
 73
     0
 90
        0
 40
-0.6
 41
-30.0
 62
     5
 63
     7
 74
     1
 91
        0
 64
     7
 65
   257
 75
     1
175
     1
 42
1.0
 92
        8
 66
     8
 43
1.0
 76
     1
 77
     6
 78
     2
 67
     7
 79
     5
170
     0
171
     0
290
     0
174
     0
 93
       13
 44
0.0
173
     0
291
     0
 45
0.0
1001
ACAD
1000
AcDbSavedByObjectVersion
1070
     0
  0
VISUALSTYLE
  5
F9C4
102
{ACAD_XDICTIONARY
360
FF8E
102
}
102
{ACAD_REACTORS
330
F8EA
102
}
330
F8EA
100
AcDbVisualStyle
  2
Shaded
 70
    27
 71
     2
 72
     2
 73
     1
 90
        2
 40
-0.6
 41
30.0
 62
     5
 63
     7
 74
     0
 91
        4
 64
     7
 65
   257
 75
     1
175
     1
 42
1.0
 92
        8
 66
   257
 43
1.0
 76
     1
 77
     6
 78
     2
 67
     8
 79
     3
170
     0
171
     0
290
     0
174
     0
 93
        5
 44
0.0
173
     0
291
     0
 45
0.0
1001
ACAD
1000
AcDbSavedByObjectVersion
1070
     0
  0
VISUALSTYLE
  5
F9C3
102
{ACAD_XDICTIONARY
360
FF8C
102
}
102
{ACAD_REACTORS
330
F8EA
102
}
330
F8EA
100
AcDbVisualStyle
  2
Shaded with edges
 70
    26
 71
     2
 72
     2
 73
     1
 90
        2
 40
-0.6
 41
30.0
 62
     5
 63
     7
 74
     1
 91
       10
 64
     7
 65
   257
 75
     2
175
     1
 42
1.0
 92
        8
 66
   257
 43
1.0
 76
     1
 77
     6
 78
     2
 67
     7
 79
     3
170
     0
171
     0
290
     0
174
     0
 93
        5
 44
0.0
173
     0
291
     0
 45
0.0
1001
ACAD
1000
AcDbSavedByObjectVersion
1070
     0
  0
VISUALSTYLE
  5
F9C0
102
{ACAD_XDICTIONARY
360
FF86
102
}
102
{ACAD_REACTORS
330
F8EA
102
}
330
F8EA
100
AcDbVisualStyle
  2
Shades of Gray
 70
    23
 71
     2
 72
     2
 73
     3
 90
        0
 40
-0.6
 41
-30.0
 62
     5
 63
     7
 74
     2
 91
        2
 64
     7
 65
     7
 75
     1
175
     1
 42
40.0
 92
        8
 66
     7
 43
1.0
 76
     1
 77
     6
 78
     2
 67
     7
 79
     3
170
     0
171
     0
290
     0
174
     0
 93
        1
 44
0.0
173
     0
291
     0
 45
0.0
1001
ACAD
1000
AcDbSavedByObjectVersion
1070
     0
  0
VISUALSTYLE
  5
F9C1
102
{ACAD_XDICTIONARY
360
FF88
102
}
102
{ACAD_REACTORS
330
F8EA
102
}
330
F8EA
100
AcDbVisualStyle
  2
Sketchy
 70
    24
 71
     1
 72
     2
 73
     2
 90
        0
 40
-0.6
 41
-30.0
 62
     5
 63
     7
 74
     2
 91
        2
 64
     7
 65
     7
 75
     1
175
     1
 42
40.0
 92
       11
 66
     7
 43
1.0
 76
     1
 77
     6
 78
     2
 67
     7
 79
     6
170
     0
171
     0
290
     0
174
     0
 93
        1
 44
0.0
173
     0
291
     0
 45
0.0
1001
ACAD
1000
AcDbSavedByObjectVersion
1070
     0
  0
VISUALSTYLE
  5
F8F7
102
{ACAD_XDICTIONARY
360
FF79
102
}
102
{ACAD_REACTORS
330
F8EA
102
}
330
F8EA
100
AcDbVisualStyle
  2
Thicken
 70
    13
 71
     2
 72
     2
 73
     0
 90
        0
 40
-0.6
 41
-30.0
 62
     5
 63
     7
 74
     1
 91
        4
 64
     7
 65
   257
 75
     1
175
     1
 42
1.0
 92
       12
 66
     7
 43
1.0
 76
     1
 77
     6
 78
     2
 67
     7
 79
     5
170
     0
171
     0
290
     0
174
     0
 93
        1
 44
0.0
173
     0
291
     1
 45
0.0
1001
ACAD
1000
AcDbSavedByObjectVersion
1070
     0
  0
VISUALSTYLE
  5
F9BE
102
{ACAD_XDICTIONARY
360
FF82
102
}
102
{ACAD_REACTORS
330
F8EA
102
}
330
F8EA
100
AcDbVisualStyle
  2
Wireframe
 70
     5
 71
     0
 72
     2
 73
     0
 90
        0
 40
-0.6
 41
-30.0
 62
     5
 63
     7
 74
     1
 91
        4
 64
     7
 65
   257
 75
     1
175
     1
 42
1.0
 92
        0
 66
   257
 43
1.0
 76
     1
 77
     6
 78
     2
 67
     7
 79
     3
170
     0
171
     0
290
     0
174
     0
 93
        1
 44
0.0
173
     0
291
     0
 45
0.0
1001
ACAD
1000
AcDbSavedByObjectVersion
1070
     0
  0
VISUALSTYLE
  5
F9C2
102
{ACAD_XDICTIONARY
360
FF8A
102
}
102
{ACAD_REACTORS
330
F8EA
102
}
330
F8EA
100
AcDbVisualStyle
  2
X-Ray
 70
    25
 71
     2
 72
     2
 73
     1
 90
        1
 40
0.5
 41
-30.0
 62
     5
 63
     7
 74
     1
 91
        0
 64
     7
 65
   257
 75
     1
175
     1
 42
1.0
 92
        8
 66
     7
 43
1.0
 76
     1
 77
     6
 78
     2
 67
     7
 79
     3
170
     0
171
     0
290
     0
174
     0
 93
       13
 44
0.0
173
     0
291
     0
 45
0.0
1001
ACAD
1000
AcDbSavedByObjectVersion
1070
     0
  0
DICTIONARYVAR
  5
F970
102
{ACAD_REACTORS
330
3E
102
}
330
3E
100
DictionaryVariables
280
     0
  1
1:1
  0
DICTIONARYVAR
  5
F96F
102
{ACAD_REACTORS
330
3E
102
}
330
3E
100
DictionaryVariables
280
     0
  1
STANDARD
  0
DICTIONARYVAR
  5
F96E
102
{ACAD_REACTORS
330
3E
102
}
330
3E
100
DictionaryVariables
280
     0
  1
STANDARD
  0
DICTIONARYVAR
  5
3F
102
{ACAD_REACTORS
330
3E
102
}
330
3E
100
DictionaryVariables
280
     0
  1
0
  0
DICTIONARYVAR
  5
F973
102
{ACAD_REACTORS
330
3E
102
}
330
3E
100
DictionaryVariables
280
     0
  1
1
  0
DICTIONARYVAR
  5
F972
102
{ACAD_REACTORS
330
3E
102
}
330
3E
100
DictionaryVariables
280
     0
  1
0
  0
DICTIONARYVAR
  5
FEFC
102
{ACAD_REACTORS
330
3E
102
}
330
3E
100
DictionaryVariables
280
     0
  1
1
  0
DICTIONARYVAR
  5
FEFD
102
{ACAD_REACTORS
330
3E
102
}
330
3E
100
DictionaryVariables
280
     0
  1
15
  0
DICTIONARYVAR
  5
FEFB
102
{ACAD_REACTORS
330
3E
102
}
330
3E
100
DictionaryVariables
280
     0
  1
0
  0
DICTIONARYVAR
  5
FEFA
102
{ACAD_REACTORS
330
3E
102
}
330
3E
100
DictionaryVariables
280
     0
  1
0
  0
DICTIONARYVAR
  5
F971
102
{ACAD_REACTORS
330
3E
102
}
330
3E
100
DictionaryVariables
280
     0
  1
127
  0
DICTIONARYVAR
  5
FF54
102
{ACAD_REACTORS
330
3E
102
}
330
3E
100
DictionaryVariables
280
     0
  1
2
  0
DICTIONARY
  5
FF5C
330
ACC3
100
AcDbDictionary
280
     1
281
     1
  3
ACAD_XREC_ROUNDTRIP
360
FF5D
  0
DICTIONARY
  5
FF5A
330
ACC2
100
AcDbDictionary
280
     1
281
     1
  3
ACAD_XREC_ROUNDTRIP
360
FF5B
  0
DICTIONARY
  5
F8DB
330
F8DA
100
AcDbDictionary
280
     1
281
     1
  3
ACAD_XREC_ROUNDTRIP
360
FF5F
  3
BUMPTILE
360
F8DD
  3
DIFFUSETILE
360
F8DC
  3
OPACITYTILE
360
F8E0
  3
REFLECTIONTILE
360
F8DF
  3
REFRACTIONTILE
360
F8E1
  3
SPECULARTILE
360
F8DE
  0
DICTIONARY
  5
F8D3
330
F8D2
100
AcDbDictionary
280
     1
281
     1
  3
ACAD_XREC_ROUNDTRIP
360
FF5E
  3
BUMPTILE
360
F8D5
  3
DIFFUSETILE
360
F8D4
  3
OPACITYTILE
360
F8D8
  3
REFLECTIONTILE
360
F8D7
  3
REFRACTIONTILE
360
F8D9
  3
SPECULARTILE
360
F8D6
  0
DICTIONARY
  5
F8E3
330
F8E2
100
AcDbDictionary
280
     1
281
     1
  3
ACAD_XREC_ROUNDTRIP
360
FF60
  3
BUMPTILE
360
F8E5
  3
DIFFUSETILE
360
F8E4
  3
OPACITYTILE
360
F8E8
  3
REFLECTIONTILE
360
F8E7
  3
REFRACTIONTILE
360
F8E9
  3
SPECULARTILE
360
F8E6
  0
DICTIONARY
  5
F959
330
F8FD
100
AcDbDictionary
280
     1
281
     1
  3
ACAD_ROUNDTRIP_2008_TABLESTYLE_CELLSTYLEMAP
360
FF55
  3
ACAD_XREC_ROUNDTRIP
360
FF81
  0
DICTIONARY
  5
FF6B
330
F8F0
100
AcDbDictionary
280
     1
281
     1
  3
ACAD_XREC_ROUNDTRIP
360
FF6C
  0
DICTIONARY
  5
FF6F
330
F8F2
100
AcDbDictionary
280
     1
281
     1
  3
ACAD_XREC_ROUNDTRIP
360
FF70
  0
DICTIONARY
  5
FF6D
330
F8F1
100
AcDbDictionary
280
     1
281
     1
  3
ACAD_XREC_ROUNDTRIP
360
FF6E
  0
DICTIONARY
  5
FF69
330
F8EF
100
AcDbDictionary
280
     1
281
     1
  3
ACAD_XREC_ROUNDTRIP
360
FF6A
  0
DICTIONARY
  5
FF77
330
F8F6
100
AcDbDictionary
280
     1
281
     1
  3
ACAD_XREC_ROUNDTRIP
360
FF78
  0
DICTIONARY
  5
FF7F
330
F8FA
100
AcDbDictionary
280
     1
281
     1
  3
ACAD_XREC_ROUNDTRIP
360
FF80
  0
DICTIONARY
  5
FF71
330
F8F3
100
AcDbDictionary
280
     1
281
     1
  3
ACAD_XREC_ROUNDTRIP
360
FF72
  0
DICTIONARY
  5
FF75
330
F8F5
100
AcDbDictionary
280
     1
281
     1
  3
ACAD_XREC_ROUNDTRIP
360
FF76
  0
DICTIONARY
  5
FF94
330
F9C7
100
AcDbDictionary
280
     1
281
     1
  3
ACAD_XREC_ROUNDTRIP
360
FF95
  0
DICTIONARY
  5
FF7D
330
F8F9
100
AcDbDictionary
280
     1
281
     1
  3
ACAD_XREC_ROUNDTRIP
360
FF7E
  0
DICTIONARY
  5
FF61
330
F8EB
100
AcDbDictionary
280
     1
281
     1
  3
ACAD_XREC_ROUNDTRIP
360
FF62
  0
DICTIONARY
  5
FF63
330
F8EC
100
AcDbDictionary
280
     1
281
     1
  3
ACAD_XREC_ROUNDTRIP
360
FF64
  0
DICTIONARY
  5
FF65
330
F8ED
100
AcDbDictionary
280
     1
281
     1
  3
ACAD_XREC_ROUNDTRIP
360
FF66
  0
DICTIONARY
  5
FF67
330
F8EE
100
AcDbDictionary
280
     1
281
     1
  3
ACAD_XREC_ROUNDTRIP
360
FF68
  0
DICTIONARY
  5
FF84
330
F9BF
100
AcDbDictionary
280
     1
281
     1
  3
ACAD_XREC_ROUNDTRIP
360
FF85
  0
DICTIONARY
  5
FF90
330
F9C5
100
AcDbDictionary
280
     1
281
     1
  3
ACAD_XREC_ROUNDTRIP
360
FF91
  0
DICTIONARY
  5
FF7B
330
F8F8
100
AcDbDictionary
280
     1
281
     1
  3
ACAD_XREC_ROUNDTRIP
360
FF7C
  0
DICTIONARY
  5
FF92
330
F9C6
100
AcDbDictionary
280
     1
281
     1
  3
ACAD_XREC_ROUNDTRIP
360
FF93
  0
DICTIONARY
  5
FF73
330
F8F4
100
AcDbDictionary
280
     1
281
     1
  3
ACAD_XREC_ROUNDTRIP
360
FF74
  0
DICTIONARY
  5
FF8E
330
F9C4
100
AcDbDictionary
280
     1
281
     1
  3
ACAD_XREC_ROUNDTRIP
360
FF8F
  0
DICTIONARY
  5
FF8C
330
F9C3
100
AcDbDictionary
280
     1
281
     1
  3
ACAD_XREC_ROUNDTRIP
360
FF8D
  0
DICTIONARY
  5
FF86
330
F9C0
100
AcDbDictionary
280
     1
281
     1
  3
ACAD_XREC_ROUNDTRIP
360
FF87
  0
DICTIONARY
  5
FF88
330
F9C1
100
AcDbDictionary
280
     1
281
     1
  3
ACAD_XREC_ROUNDTRIP
360
FF89
  0
DICTIONARY
  5
FF79
330
F8F7
100
AcDbDictionary
280
     1
281
     1
  3
ACAD_XREC_ROUNDTRIP
360
FF7A
  0
DICTIONARY
  5
FF82
330
F9BE
100
AcDbDictionary
280
     1
281
     1
  3
ACAD_XREC_ROUNDTRIP
360
FF83
  0
DICTIONARY
  5
FF8A
330
F9C2
100
AcDbDictionary
280
     1
281
     1
  3
ACAD_XREC_ROUNDTRIP
360
FF8B
  0
XRECORD
  5
FF5D
102
{ACAD_REACTORS
330
FF5C
102
}
330
FF5C
100
AcDbXrecord
280
     1
102
SHADEPLOT
 70
     0
102
SHADEPLOTRESLEVEL
 70
     2
102
SHADEPLOTCUSTOMDPI
 70
   300
  0
XRECORD
  5
FF5B
102
{ACAD_REACTORS
330
FF5A
102
}
330
FF5A
100
AcDbXrecord
280
     1
102
SHADEPLOT
 70
     0
102
SHADEPLOTRESLEVEL
 70
     2
102
SHADEPLOTCUSTOMDPI
 70
   300
  0
XRECORD
  5
FF5F
102
{ACAD_REACTORS
330
F8DB
102
}
330
F8DB
100
AcDbXrecord
280
     1
102
MATERIAL
148
0.0
149
0.0
149
0.0
 93
        0
 94
      127
282
     0
 72
     0
 77
     0
171
     0
175
     0
179
     0
273
     0
  0
XRECORD
  5
F8DD
102
{ACAD_REACTORS
330
F8DB
102
}
330
F8DB
100
AcDbXrecord
280
     1
270
     1
271
     1
  0
XRECORD
  5
F8DC
102
{ACAD_REACTORS
330
F8DB
102
}
330
F8DB
100
AcDbXrecord
280
     1
270
     1
271
     1
  0
XRECORD
  5
F8E0
102
{ACAD_REACTORS
330
F8DB
102
}
330
F8DB
100
AcDbXrecord
280
     1
270
     1
271
     1
  0
XRECORD
  5
F8DF
102
{ACAD_REACTORS
330
F8DB
102
}
330
F8DB
100
AcDbXrecord
280
     1
270
     1
271
     1
  0
XRECORD
  5
F8E1
102
{ACAD_REACTORS
330
F8DB
102
}
330
F8DB
100
AcDbXrecord
280
     1
270
     1
271
     1
  0
XRECORD
  5
F8DE
102
{ACAD_REACTORS
330
F8DB
102
}
330
F8DB
100
AcDbXrecord
280
     1
270
     1
271
     1
  0
XRECORD
  5
FF5E
102
{ACAD_REACTORS
330
F8D3
102
}
330
F8D3
100
AcDbXrecord
280
     1
102
MATERIAL
148
0.0
149
0.0
149
0.0
 93
        0
 94
      127
282
     0
 72
     0
 77
     0
171
     0
175
     0
179
     0
273
     0
  0
XRECORD
  5
F8D5
102
{ACAD_REACTORS
330
F8D3
102
}
330
F8D3
100
AcDbXrecord
280
     1
270
     1
271
     1
  0
XRECORD
  5
F8D4
102
{ACAD_REACTORS
330
F8D3
102
}
330
F8D3
100
AcDbXrecord
280
     1
270
     1
271
     1
  0
XRECORD
  5
F8D8
102
{ACAD_REACTORS
330
F8D3
102
}
330
F8D3
100
AcDbXrecord
280
     1
270
     1
271
     1
  0
XRECORD
  5
F8D7
102
{ACAD_REACTORS
330
F8D3
102
}
330
F8D3
100
AcDbXrecord
280
     1
270
     1
271
     1
  0
XRECORD
  5
F8D9
102
{ACAD_REACTORS
330
F8D3
102
}
330
F8D3
100
AcDbXrecord
280
     1
270
     1
271
     1
  0
XRECORD
  5
F8D6
102
{ACAD_REACTORS
330
F8D3
102
}
330
F8D3
100
AcDbXrecord
280
     1
270
     1
271
     1
  0
XRECORD
  5
FF60
102
{ACAD_REACTORS
330
F8E3
102
}
330
F8E3
100
AcDbXrecord
280
     1
102
MATERIAL
148
0.0
149
0.0
149
0.0
 93
        0
 94
      127
282
     0
 72
     0
 77
     0
171
     0
175
     0
179
     0
273
     0
  0
XRECORD
  5
F8E5
102
{ACAD_REACTORS
330
F8E3
102
}
330
F8E3
100
AcDbXrecord
280
     1
270
     1
271
     1
  0
XRECORD
  5
F8E4
102
{ACAD_REACTORS
330
F8E3
102
}
330
F8E3
100
AcDbXrecord
280
     1
270
     1
271
     1
  0
XRECORD
  5
F8E8
102
{ACAD_REACTORS
330
F8E3
102
}
330
F8E3
100
AcDbXrecord
280
     1
270
     1
271
     1
  0
XRECORD
  5
F8E7
102
{ACAD_REACTORS
330
F8E3
102
}
330
F8E3
100
AcDbXrecord
280
     1
270
     1
271
     1
  0
XRECORD
  5
F8E9
102
{ACAD_REACTORS
330
F8E3
102
}
330
F8E3
100
AcDbXrecord
280
     1
270
     1
271
     1
  0
XRECORD
  5
F8E6
102
{ACAD_REACTORS
330
F8E3
102
}
330
F8E3
100
AcDbXrecord
280
     1
270
     1
271
     1
  0
CELLSTYLEMAP
  5
FF55
102
{ACAD_REACTORS
330
F959
102
}
330
F959
100
AcDbCellStyleMap
 90
        3
300
CELLSTYLE
  1
TABLEFORMAT_BEGIN
 90
        5
170
     1
 91
        0
 92
    32768
 62
   257
 93
        1
300
CONTENTFORMAT
  1
CONTENTFORMAT_BEGIN
 90
        0
 91
        0
 92
      512
 93
        0
300

 40
0.0
140
1.0
 94
        5
 62
     0
340
F
144
0.25
309
CONTENTFORMAT_END
171
     0
 94
        0
309
TABLEFORMAT_END
  1
CELLSTYLE_BEGIN
 90
        1
 91
        1
300
_TITLE
309
CELLSTYLE_END
300
CELLSTYLE
  1
TABLEFORMAT_BEGIN
 90
        5
170
     1
 91
        0
 92
        0
 62
   257
 93
        1
300
CONTENTFORMAT
  1
CONTENTFORMAT_BEGIN
 90
        0
 91
        0
 92
      512
 93
        0
300

 40
0.0
140
1.0
 94
        5
 62
     0
340
F
144
0.18
309
CONTENTFORMAT_END
171
     0
 94
        0
309
TABLEFORMAT_END
  1
CELLSTYLE_BEGIN
 90
        2
 91
        1
300
_HEADER
309
CELLSTYLE_END
300
CELLSTYLE
  1
TABLEFORMAT_BEGIN
 90
        5
170
     1
 91
        0
 92
        0
 62
   257
 93
        1
300
CONTENTFORMAT
  1
CONTENTFORMAT_BEGIN
 90
        0
 91
        0
 92
      512
 93
        0
300

 40
0.0
140
1.0
 94
        2
 62
     0
340
F
144
0.18
309
CONTENTFORMAT_END
171
     0
 94
        0
309
TABLEFORMAT_END
  1
CELLSTYLE_BEGIN
 90
        3
 91
        2
300
_DATA
309
CELLSTYLE_END
  0
XRECORD
  5
FF81
102
{ACAD_REACTORS
330
F959
102
}
330
F959
100
AcDbXrecord
280
     1
102
ACAD_ROUNDTRIP_PRE2007_TABLESTYLE
 90
      512
 91
        0
  1

 92
      512
 93
        0
  2

 94
      512
 95
        0
  3

  0
XRECORD
  5
FF6C
102
{ACAD_REACTORS
330
FF6B
102
}
330
FF6B
100
AcDbXrecord
280
     1
102
RTVSPropertyOp0
 70
     1
102
RTVSPropertyOp1
 70
     1
102
RTVSPropertyOp2
 70
     1
102
RTVSPropertyOp3
 70
     1
102
RTVSPropertyOp4
 70
     1
102
RTVSPropertyOp5
 70
     1
102
RTVSPropertyOp6
 70
     1
102
RTVSPropertyOp7
 70
     1
102
RTVSPropertyOp8
 70
     1
102
RTVSPropertyOp9
 70
     1
102
RTVSPropertyOp10
 70
     1
102
RTVSPropertyOp11
 70
     1
102
RTVSPropertyOp12
 70
     1
102
RTVSPropertyOp13
 70
     1
102
RTVSPropertyOp14
 70
     1
102
RTVSPropertyOp15
 70
     1
102
RTVSPropertyOp16
 70
     1
102
RTVSPropertyOp17
 70
     1
102
RTVSPropertyOp18
 70
     1
102
RTVSPropertyOp19
 70
     1
102
RTVSPropertyOp20
 70
     1
102
RTVSPropertyOp21
 70
     1
102
RTVSPropertyOp22
 70
     1
102
RTVSPropertyOp23
 70
     1
102
RTVSPropertyOp24
 70
     1
102
RTVSPropertyOp25
 70
     1
102
RTVSPropertyOp26
 70
     1
102
RTVSPropertyOp27
 70
     1
102
RTVSPropertyOp28
 70
     1
102
RTVSPropertyOp29
 70
     1
102
RTVSPropertyOp30
 70
     1
102
RTVSPropertyOp31
 70
     1
102
RTVSPropertyOp32
 70
     1
  0
XRECORD
  5
FF70
102
{ACAD_REACTORS
330
FF6F
102
}
330
FF6F
100
AcDbXrecord
280
     1
102
RTVSPropertyOp0
 70
     1
102
RTVSPropertyOp1
 70
     1
102
RTVSPropertyOp2
 70
     1
102
RTVSPropertyOp3
 70
     1
102
RTVSPropertyOp4
 70
     1
102
RTVSPropertyOp5
 70
     1
102
RTVSPropertyOp6
 70
     1
102
RTVSPropertyOp7
 70
     1
102
RTVSPropertyOp8
 70
     1
102
RTVSPropertyOp9
 70
     1
102
RTVSPropertyOp10
 70
     1
102
RTVSPropertyOp11
 70
     1
102
RTVSPropertyOp12
 70
     1
102
RTVSPropertyOp13
 70
     1
102
RTVSPropertyOp14
 70
     1
102
RTVSPropertyOp15
 70
     1
102
RTVSPropertyOp16
 70
     1
102
RTVSPropertyOp17
 70
     1
102
RTVSPropertyOp18
 70
     1
102
RTVSPropertyOp19
 70
     1
102
RTVSPropertyOp20
 70
     1
102
RTVSPropertyOp21
 70
     1
102
RTVSPropertyOp22
 70
     1
102
RTVSPropertyOp23
 70
     1
102
RTVSPropertyOp24
 70
     1
102
RTVSPropertyOp25
 70
     1
102
RTVSPropertyOp26
 70
     1
102
RTVSPropertyOp27
 70
     1
102
RTVSPropertyOp28
 70
     1
102
RTVSPropertyOp29
 70
     1
102
RTVSPropertyOp30
 70
     1
102
RTVSPropertyOp31
 70
     1
102
RTVSPropertyOp32
 70
     1
  0
XRECORD
  5
FF6E
102
{ACAD_REACTORS
330
FF6D
102
}
330
FF6D
100
AcDbXrecord
280
     1
102
RTVSPropertyOp0
 70
     1
102
RTVSPropertyOp1
 70
     1
102
RTVSPropertyOp2
 70
     1
102
RTVSPropertyOp3
 70
     1
102
RTVSPropertyOp4
 70
     1
102
RTVSPropertyOp5
 70
     1
102
RTVSPropertyOp6
 70
     1
102
RTVSPropertyOp7
 70
     1
102
RTVSPropertyOp8
 70
     1
102
RTVSPropertyOp9
 70
     1
102
RTVSPropertyOp10
 70
     1
102
RTVSPropertyOp11
 70
     1
102
RTVSPropertyOp12
 70
     1
102
RTVSPropertyOp13
 70
     1
102
RTVSPropertyOp14
 70
     1
102
RTVSPropertyOp15
 70
     1
102
RTVSPropertyOp16
 70
     1
102
RTVSPropertyOp17
 70
     1
102
RTVSPropertyOp18
 70
     1
102
RTVSPropertyOp19
 70
     1
102
RTVSPropertyOp20
 70
     1
102
RTVSPropertyOp21
 70
     1
102
RTVSPropertyOp22
 70
     1
102
RTVSPropertyOp23
 70
     1
102
RTVSPropertyOp24
 70
     1
102
RTVSPropertyOp25
 70
     1
102
RTVSPropertyOp26
 70
     1
102
RTVSPropertyOp27
 70
     1
102
RTVSPropertyOp28
 70
     1
102
RTVSPropertyOp29
 70
     1
102
RTVSPropertyOp30
 70
     1
102
RTVSPropertyOp31
 70
     1
102
RTVSPropertyOp32
 70
     1
  0
XRECORD
  5
FF6A
102
{ACAD_REACTORS
330
FF69
102
}
330
FF69
100
AcDbXrecord
280
     1
102
RTVSPropertyOp0
 70
     1
102
RTVSPropertyOp1
 70
     1
102
RTVSPropertyOp2
 70
     1
102
RTVSPropertyOp3
 70
     1
102
RTVSPropertyOp4
 70
     1
102
RTVSPropertyOp5
 70
     1
102
RTVSPropertyOp6
 70
     1
102
RTVSPropertyOp7
 70
     1
102
RTVSPropertyOp8
 70
     1
102
RTVSPropertyOp9
 70
     1
102
RTVSPropertyOp10
 70
     1
102
RTVSPropertyOp11
 70
     1
102
RTVSPropertyOp12
 70
     1
102
RTVSPropertyOp13
 70
     1
102
RTVSPropertyOp14
 70
     1
102
RTVSPropertyOp15
 70
     1
102
RTVSPropertyOp16
 70
     1
102
RTVSPropertyOp17
 70
     1
102
RTVSPropertyOp18
 70
     1
102
RTVSPropertyOp19
 70
     1
102
RTVSPropertyOp20
 70
     1
102
RTVSPropertyOp21
 70
     1
102
RTVSPropertyOp22
 70
     1
102
RTVSPropertyOp23
 70
     1
102
RTVSPropertyOp24
 70
     1
102
RTVSPropertyOp25
 70
     1
102
RTVSPropertyOp26
 70
     1
102
RTVSPropertyOp27
 70
     1
102
RTVSPropertyOp28
 70
     1
102
RTVSPropertyOp29
 70
     1
102
RTVSPropertyOp30
 70
     1
102
RTVSPropertyOp31
 70
     1
102
RTVSPropertyOp32
 70
     1
  0
XRECORD
  5
FF78
102
{ACAD_REACTORS
330
FF77
102
}
330
FF77
100
AcDbXrecord
280
     1
102
RTVSPropertyOp0
 70
     1
102
RTVSPropertyOp1
 70
     1
102
RTVSPropertyOp2
 70
     1
102
RTVSPropertyOp3
 70
     1
102
RTVSPropertyOp4
 70
     1
102
RTVSPropertyOp5
 70
     1
102
RTVSPropertyOp6
 70
     1
102
RTVSPropertyOp7
 70
     1
102
RTVSPropertyOp8
 70
     1
102
RTVSPropertyOp9
 70
     1
102
RTVSPropertyOp10
 70
     1
102
RTVSPropertyOp11
 70
     1
102
RTVSPropertyOp12
 70
     1
102
RTVSPropertyOp13
 70
     1
102
RTVSPropertyOp14
 70
     1
102
RTVSPropertyOp15
 70
     1
102
RTVSPropertyOp16
 70
     1
102
RTVSPropertyOp17
 70
     1
102
RTVSPropertyOp18
 70
     1
102
RTVSPropertyOp19
 70
     1
102
RTVSPropertyOp20
 70
     1
102
RTVSPropertyOp21
 70
     1
102
RTVSPropertyOp22
 70
     1
102
RTVSPropertyOp23
 70
     1
102
RTVSPropertyOp24
 70
     1
102
RTVSPropertyOp25
 70
     1
102
RTVSPropertyOp26
 70
     1
102
RTVSPropertyOp27
 70
     1
102
RTVSPropertyOp28
 70
     1
102
RTVSPropertyOp29
 70
     1
102
RTVSPropertyOp30
 70
     1
102
RTVSPropertyOp31
 70
     1
102
RTVSPropertyOp32
 70
     1
  0
XRECORD
  5
FF80
102
{ACAD_REACTORS
330
FF7F
102
}
330
FF7F
100
AcDbXrecord
280
     1
102
RTVSPropertyOp0
 70
     1
102
RTVSPropertyOp1
 70
     1
102
RTVSPropertyOp2
 70
     1
102
RTVSPropertyOp3
 70
     1
102
RTVSPropertyOp4
 70
     1
102
RTVSPropertyOp5
 70
     1
102
RTVSPropertyOp6
 70
     1
102
RTVSPropertyOp7
 70
     1
102
RTVSPropertyOp8
 70
     1
102
RTVSPropertyOp9
 70
     1
102
RTVSPropertyOp10
 70
     1
102
RTVSPropertyOp11
 70
     1
102
RTVSPropertyOp12
 70
     1
102
RTVSPropertyOp13
 70
     1
102
RTVSPropertyOp14
 70
     1
102
RTVSPropertyOp15
 70
     1
102
RTVSPropertyOp16
 70
     1
102
RTVSPropertyOp17
 70
     1
102
RTVSPropertyOp18
 70
     1
102
RTVSPropertyOp19
 70
     1
102
RTVSPropertyOp20
 70
     1
102
RTVSPropertyOp21
 70
     1
102
RTVSPropertyOp22
 70
     1
102
RTVSPropertyOp23
 70
     1
102
RTVSPropertyOp24
 70
     1
102
RTVSPropertyOp25
 70
     1
102
RTVSPropertyOp26
 70
     1
102
RTVSPropertyOp27
 70
     1
102
RTVSPropertyOp28
 70
     1
102
RTVSPropertyOp29
 70
     1
102
RTVSPropertyOp30
 70
     1
102
RTVSPropertyOp31
 70
     1
102
RTVSPropertyOp32
 70
     1
  0
XRECORD
  5
FF72
102
{ACAD_REACTORS
330
FF71
102
}
330
FF71
100
AcDbXrecord
280
     1
102
RTVSPropertyOp0
 70
     1
102
RTVSPropertyOp1
 70
     1
102
RTVSPropertyOp2
 70
     1
102
RTVSPropertyOp3
 70
     1
102
RTVSPropertyOp4
 70
     1
102
RTVSPropertyOp5
 70
     1
102
RTVSPropertyOp6
 70
     1
102
RTVSPropertyOp7
 70
     1
102
RTVSPropertyOp8
 70
     1
102
RTVSPropertyOp9
 70
     1
102
RTVSPropertyOp10
 70
     1
102
RTVSPropertyOp11
 70
     1
102
RTVSPropertyOp12
 70
     1
102
RTVSPropertyOp13
 70
     1
102
RTVSPropertyOp14
 70
     1
102
RTVSPropertyOp15
 70
     1
102
RTVSPropertyOp16
 70
     1
102
RTVSPropertyOp17
 70
     1
102
RTVSPropertyOp18
 70
     1
102
RTVSPropertyOp19
 70
     1
102
RTVSPropertyOp20
 70
     1
102
RTVSPropertyOp21
 70
     1
102
RTVSPropertyOp22
 70
     1
102
RTVSPropertyOp23
 70
     1
102
RTVSPropertyOp24
 70
     1
102
RTVSPropertyOp25
 70
     1
102
RTVSPropertyOp26
 70
     1
102
RTVSPropertyOp27
 70
     1
102
RTVSPropertyOp28
 70
     1
102
RTVSPropertyOp29
 70
     1
102
RTVSPropertyOp30
 70
     1
102
RTVSPropertyOp31
 70
     1
102
RTVSPropertyOp32
 70
     1
  0
XRECORD
  5
FF76
102
{ACAD_REACTORS
330
FF75
102
}
330
FF75
100
AcDbXrecord
280
     1
102
RTVSPropertyOp0
 70
     1
102
RTVSPropertyOp1
 70
     1
102
RTVSPropertyOp2
 70
     1
102
RTVSPropertyOp3
 70
     1
102
RTVSPropertyOp4
 70
     1
102
RTVSPropertyOp5
 70
     1
102
RTVSPropertyOp6
 70
     1
102
RTVSPropertyOp7
 70
     1
102
RTVSPropertyOp8
 70
     1
102
RTVSPropertyOp9
 70
     1
102
RTVSPropertyOp10
 70
     1
102
RTVSPropertyOp11
 70
     1
102
RTVSPropertyOp12
 70
     1
102
RTVSPropertyOp13
 70
     1
102
RTVSPropertyOp14
 70
     1
102
RTVSPropertyOp15
 70
     1
102
RTVSPropertyOp16
 70
     1
102
RTVSPropertyOp17
 70
     1
102
RTVSPropertyOp18
 70
     1
102
RTVSPropertyOp19
 70
     1
102
RTVSPropertyOp20
 70
     1
102
RTVSPropertyOp21
 70
     1
102
RTVSPropertyOp22
 70
     1
102
RTVSPropertyOp23
 70
     1
102
RTVSPropertyOp24
 70
     1
102
RTVSPropertyOp25
 70
     1
102
RTVSPropertyOp26
 70
     1
102
RTVSPropertyOp27
 70
     1
102
RTVSPropertyOp28
 70
     1
102
RTVSPropertyOp29
 70
     1
102
RTVSPropertyOp30
 70
     1
102
RTVSPropertyOp31
 70
     1
102
RTVSPropertyOp32
 70
     1
  0
XRECORD
  5
FF95
102
{ACAD_REACTORS
330
FF94
102
}
330
FF94
100
AcDbXrecord
280
     1
102
RTVSPropertyOp0
 70
     0
102
RTVSPropertyOp1
 70
     0
102
RTVSPropertyOp2
 70
     0
102
RTVSPropertyOp3
 70
     0
102
RTVSPropertyOp4
 70
     0
102
RTVSPropertyOp5
 70
     0
102
RTVSPropertyOp6
 70
     0
102
RTVSPropertyOp7
 70
     0
102
RTVSPropertyOp8
 70
     0
102
RTVSPropertyOp9
 70
     0
102
RTVSPropertyOp10
 70
     0
102
RTVSPropertyOp11
 70
     0
102
RTVSPropertyOp12
 70
     0
102
RTVSPropertyOp13
 70
     0
102
RTVSPropertyOp14
 70
     2
102
RTVSPropertyOp15
 70
     0
102
RTVSPropertyOp16
 70
     0
102
RTVSPropertyOp17
 70
     0
102
RTVSPropertyOp18
 70
     0
102
RTVSPropertyOp19
 70
     0
102
RTVSPropertyOp20
 70
     0
102
RTVSPropertyOp21
 70
     0
102
RTVSPropertyOp22
 70
     0
102
RTVSPropertyOp23
 70
     0
102
RTVSPropertyOp24
 70
     0
102
RTVSPropertyOp25
 70
     0
102
RTVSPropertyOp26
 70
     0
102
RTVSPropertyOp27
 70
     0
102
RTVSPropertyOp28
 70
     1
102
RTVSPropertyOp29
 70
     1
102
RTVSPropertyOp30
 70
     1
102
RTVSPropertyOp31
 70
     1
102
RTVSPropertyOp32
 70
     1
  0
XRECORD
  5
FF7E
102
{ACAD_REACTORS
330
FF7D
102
}
330
FF7D
100
AcDbXrecord
280
     1
102
RTVSPropertyOp0
 70
     1
102
RTVSPropertyOp1
 70
     1
102
RTVSPropertyOp2
 70
     1
102
RTVSPropertyOp3
 70
     1
102
RTVSPropertyOp4
 70
     1
102
RTVSPropertyOp5
 70
     1
102
RTVSPropertyOp6
 70
     1
102
RTVSPropertyOp7
 70
     1
102
RTVSPropertyOp8
 70
     1
102
RTVSPropertyOp9
 70
     1
102
RTVSPropertyOp10
 70
     1
102
RTVSPropertyOp11
 70
     1
102
RTVSPropertyOp12
 70
     1
102
RTVSPropertyOp13
 70
     1
102
RTVSPropertyOp14
 70
     1
102
RTVSPropertyOp15
 70
     1
102
RTVSPropertyOp16
 70
     1
102
RTVSPropertyOp17
 70
     1
102
RTVSPropertyOp18
 70
     1
102
RTVSPropertyOp19
 70
     1
102
RTVSPropertyOp20
 70
     1
102
RTVSPropertyOp21
 70
     1
102
RTVSPropertyOp22
 70
     1
102
RTVSPropertyOp23
 70
     1
102
RTVSPropertyOp24
 70
     1
102
RTVSPropertyOp25
 70
     1
102
RTVSPropertyOp26
 70
     1
102
RTVSPropertyOp27
 70
     1
102
RTVSPropertyOp28
 70
     1
102
RTVSPropertyOp29
 70
     1
102
RTVSPropertyOp30
 70
     1
102
RTVSPropertyOp31
 70
     1
102
RTVSPropertyOp32
 70
     1
  0
XRECORD
  5
FF62
102
{ACAD_REACTORS
330
FF61
102
}
330
FF61
100
AcDbXrecord
280
     1
102
RTVSPropertyOp0
 70
     1
102
RTVSPropertyOp1
 70
     1
102
RTVSPropertyOp2
 70
     1
102
RTVSPropertyOp3
 70
     1
102
RTVSPropertyOp4
 70
     1
102
RTVSPropertyOp5
 70
     1
102
RTVSPropertyOp6
 70
     1
102
RTVSPropertyOp7
 70
     1
102
RTVSPropertyOp8
 70
     1
102
RTVSPropertyOp9
 70
     1
102
RTVSPropertyOp10
 70
     1
102
RTVSPropertyOp11
 70
     1
102
RTVSPropertyOp12
 70
     1
102
RTVSPropertyOp13
 70
     1
102
RTVSPropertyOp14
 70
     1
102
RTVSPropertyOp15
 70
     1
102
RTVSPropertyOp16
 70
     1
102
RTVSPropertyOp17
 70
     1
102
RTVSPropertyOp18
 70
     1
102
RTVSPropertyOp19
 70
     1
102
RTVSPropertyOp20
 70
     1
102
RTVSPropertyOp21
 70
     1
102
RTVSPropertyOp22
 70
     1
102
RTVSPropertyOp23
 70
     1
102
RTVSPropertyOp24
 70
     1
102
RTVSPropertyOp25
 70
     1
102
RTVSPropertyOp26
 70
     1
102
RTVSPropertyOp27
 70
     1
102
RTVSPropertyOp28
 70
     1
102
RTVSPropertyOp29
 70
     1
102
RTVSPropertyOp30
 70
     1
102
RTVSPropertyOp31
 70
     1
102
RTVSPropertyOp32
 70
     1
  0
XRECORD
  5
FF64
102
{ACAD_REACTORS
330
FF63
102
}
330
FF63
100
AcDbXrecord
280
     1
102
RTVSPropertyOp0
 70
     1
102
RTVSPropertyOp1
 70
     1
102
RTVSPropertyOp2
 70
     1
102
RTVSPropertyOp3
 70
     1
102
RTVSPropertyOp4
 70
     1
102
RTVSPropertyOp5
 70
     1
102
RTVSPropertyOp6
 70
     1
102
RTVSPropertyOp7
 70
     1
102
RTVSPropertyOp8
 70
     1
102
RTVSPropertyOp9
 70
     1
102
RTVSPropertyOp10
 70
     1
102
RTVSPropertyOp11
 70
     1
102
RTVSPropertyOp12
 70
     1
102
RTVSPropertyOp13
 70
     1
102
RTVSPropertyOp14
 70
     1
102
RTVSPropertyOp15
 70
     1
102
RTVSPropertyOp16
 70
     1
102
RTVSPropertyOp17
 70
     1
102
RTVSPropertyOp18
 70
     1
102
RTVSPropertyOp19
 70
     1
102
RTVSPropertyOp20
 70
     1
102
RTVSPropertyOp21
 70
     1
102
RTVSPropertyOp22
 70
     1
102
RTVSPropertyOp23
 70
     1
102
RTVSPropertyOp24
 70
     1
102
RTVSPropertyOp25
 70
     1
102
RTVSPropertyOp26
 70
     1
102
RTVSPropertyOp27
 70
     1
102
RTVSPropertyOp28
 70
     1
102
RTVSPropertyOp29
 70
     1
102
RTVSPropertyOp30
 70
     1
102
RTVSPropertyOp31
 70
     1
102
RTVSPropertyOp32
 70
     1
  0
XRECORD
  5
FF66
102
{ACAD_REACTORS
330
FF65
102
}
330
FF65
100
AcDbXrecord
280
     1
102
RTVSPropertyOp0
 70
     1
102
RTVSPropertyOp1
 70
     1
102
RTVSPropertyOp2
 70
     1
102
RTVSPropertyOp3
 70
     1
102
RTVSPropertyOp4
 70
     1
102
RTVSPropertyOp5
 70
     1
102
RTVSPropertyOp6
 70
     1
102
RTVSPropertyOp7
 70
     1
102
RTVSPropertyOp8
 70
     1
102
RTVSPropertyOp9
 70
     1
102
RTVSPropertyOp10
 70
     1
102
RTVSPropertyOp11
 70
     1
102
RTVSPropertyOp12
 70
     1
102
RTVSPropertyOp13
 70
     1
102
RTVSPropertyOp14
 70
     1
102
RTVSPropertyOp15
 70
     1
102
RTVSPropertyOp16
 70
     1
102
RTVSPropertyOp17
 70
     1
102
RTVSPropertyOp18
 70
     1
102
RTVSPropertyOp19
 70
     1
102
RTVSPropertyOp20
 70
     1
102
RTVSPropertyOp21
 70
     1
102
RTVSPropertyOp22
 70
     1
102
RTVSPropertyOp23
 70
     1
102
RTVSPropertyOp24
 70
     1
102
RTVSPropertyOp25
 70
     1
102
RTVSPropertyOp26
 70
     1
102
RTVSPropertyOp27
 70
     1
102
RTVSPropertyOp28
 70
     1
102
RTVSPropertyOp29
 70
     1
102
RTVSPropertyOp30
 70
     1
102
RTVSPropertyOp31
 70
     1
102
RTVSPropertyOp32
 70
     1
  0
XRECORD
  5
FF68
102
{ACAD_REACTORS
330
FF67
102
}
330
FF67
100
AcDbXrecord
280
     1
102
RTVSPropertyOp0
 70
     1
102
RTVSPropertyOp1
 70
     1
102
RTVSPropertyOp2
 70
     1
102
RTVSPropertyOp3
 70
     1
102
RTVSPropertyOp4
 70
     1
102
RTVSPropertyOp5
 70
     1
102
RTVSPropertyOp6
 70
     1
102
RTVSPropertyOp7
 70
     1
102
RTVSPropertyOp8
 70
     1
102
RTVSPropertyOp9
 70
     1
102
RTVSPropertyOp10
 70
     1
102
RTVSPropertyOp11
 70
     1
102
RTVSPropertyOp12
 70
     1
102
RTVSPropertyOp13
 70
     1
102
RTVSPropertyOp14
 70
     1
102
RTVSPropertyOp15
 70
     1
102
RTVSPropertyOp16
 70
     1
102
RTVSPropertyOp17
 70
     1
102
RTVSPropertyOp18
 70
     1
102
RTVSPropertyOp19
 70
     1
102
RTVSPropertyOp20
 70
     1
102
RTVSPropertyOp21
 70
     1
102
RTVSPropertyOp22
 70
     1
102
RTVSPropertyOp23
 70
     1
102
RTVSPropertyOp24
 70
     1
102
RTVSPropertyOp25
 70
     1
102
RTVSPropertyOp26
 70
     1
102
RTVSPropertyOp27
 70
     1
102
RTVSPropertyOp28
 70
     1
102
RTVSPropertyOp29
 70
     1
102
RTVSPropertyOp30
 70
     1
102
RTVSPropertyOp31
 70
     1
102
RTVSPropertyOp32
 70
     1
  0
XRECORD
  5
FF85
102
{ACAD_REACTORS
330
FF84
102
}
330
FF84
100
AcDbXrecord
280
     1
102
RTVSPropertyOp0
 70
     1
102
RTVSPropertyOp1
 70
     1
102
RTVSPropertyOp2
 70
     1
102
RTVSPropertyOp3
 70
     1
102
RTVSPropertyOp4
 70
     1
102
RTVSPropertyOp5
 70
     1
102
RTVSPropertyOp6
 70
     1
102
RTVSPropertyOp7
 70
     1
102
RTVSPropertyOp8
 70
     1
102
RTVSPropertyOp9
 70
     1
102
RTVSPropertyOp10
 70
     1
102
RTVSPropertyOp11
 70
     1
102
RTVSPropertyOp12
 70
     1
102
RTVSPropertyOp13
 70
     1
102
RTVSPropertyOp14
 70
     1
102
RTVSPropertyOp15
 70
     1
102
RTVSPropertyOp16
 70
     1
102
RTVSPropertyOp17
 70
     1
102
RTVSPropertyOp18
 70
     1
102
RTVSPropertyOp19
 70
     1
102
RTVSPropertyOp20
 70
     1
102
RTVSPropertyOp21
 70
     1
102
RTVSPropertyOp22
 70
     1
102
RTVSPropertyOp23
 70
     1
102
RTVSPropertyOp24
 70
     1
102
RTVSPropertyOp25
 70
     1
102
RTVSPropertyOp26
 70
     1
102
RTVSPropertyOp27
 70
     1
102
RTVSPropertyOp28
 70
     1
102
RTVSPropertyOp29
 70
     1
102
RTVSPropertyOp30
 70
     1
102
RTVSPropertyOp31
 70
     1
102
RTVSPropertyOp32
 70
     1
  0
XRECORD
  5
FF91
102
{ACAD_REACTORS
330
FF90
102
}
330
FF90
100
AcDbXrecord
280
     1
102
RTVSPropertyOp0
 70
     0
102
RTVSPropertyOp1
 70
     0
102
RTVSPropertyOp2
 70
     0
102
RTVSPropertyOp3
 70
     0
102
RTVSPropertyOp4
 70
     0
102
RTVSPropertyOp5
 70
     0
102
RTVSPropertyOp6
 70
     0
102
RTVSPropertyOp7
 70
     0
102
RTVSPropertyOp8
 70
     0
102
RTVSPropertyOp9
 70
     0
102
RTVSPropertyOp10
 70
     0
102
RTVSPropertyOp11
 70
     0
102
RTVSPropertyOp12
 70
     0
102
RTVSPropertyOp13
 70
     0
102
RTVSPropertyOp14
 70
     2
102
RTVSPropertyOp15
 70
     0
102
RTVSPropertyOp16
 70
     0
102
RTVSPropertyOp17
 70
     0
102
RTVSPropertyOp18
 70
     0
102
RTVSPropertyOp19
 70
     0
102
RTVSPropertyOp20
 70
     0
102
RTVSPropertyOp21
 70
     0
102
RTVSPropertyOp22
 70
     0
102
RTVSPropertyOp23
 70
     0
102
RTVSPropertyOp24
 70
     0
102
RTVSPropertyOp25
 70
     0
102
RTVSPropertyOp26
 70
     0
102
RTVSPropertyOp27
 70
     0
102
RTVSPropertyOp28
 70
     1
102
RTVSPropertyOp29
 70
     1
102
RTVSPropertyOp30
 70
     1
102
RTVSPropertyOp31
 70
     1
102
RTVSPropertyOp32
 70
     1
  0
XRECORD
  5
FF7C
102
{ACAD_REACTORS
330
FF7B
102
}
330
FF7B
100
AcDbXrecord
280
     1
102
RTVSPropertyOp0
 70
     1
102
RTVSPropertyOp1
 70
     1
102
RTVSPropertyOp2
 70
     1
102
RTVSPropertyOp3
 70
     1
102
RTVSPropertyOp4
 70
     1
102
RTVSPropertyOp5
 70
     1
102
RTVSPropertyOp6
 70
     1
102
RTVSPropertyOp7
 70
     1
102
RTVSPropertyOp8
 70
     1
102
RTVSPropertyOp9
 70
     1
102
RTVSPropertyOp10
 70
     1
102
RTVSPropertyOp11
 70
     1
102
RTVSPropertyOp12
 70
     1
102
RTVSPropertyOp13
 70
     1
102
RTVSPropertyOp14
 70
     1
102
RTVSPropertyOp15
 70
     1
102
RTVSPropertyOp16
 70
     1
102
RTVSPropertyOp17
 70
     1
102
RTVSPropertyOp18
 70
     1
102
RTVSPropertyOp19
 70
     1
102
RTVSPropertyOp20
 70
     1
102
RTVSPropertyOp21
 70
     1
102
RTVSPropertyOp22
 70
     1
102
RTVSPropertyOp23
 70
     1
102
RTVSPropertyOp24
 70
     1
102
RTVSPropertyOp25
 70
     1
102
RTVSPropertyOp26
 70
     1
102
RTVSPropertyOp27
 70
     1
102
RTVSPropertyOp28
 70
     1
102
RTVSPropertyOp29
 70
     1
102
RTVSPropertyOp30
 70
     1
102
RTVSPropertyOp31
 70
     1
102
RTVSPropertyOp32
 70
     1
  0
XRECORD
  5
FF93
102
{ACAD_REACTORS
330
FF92
102
}
330
FF92
100
AcDbXrecord
280
     1
102
RTVSPropertyOp0
 70
     0
102
RTVSPropertyOp1
 70
     0
102
RTVSPropertyOp2
 70
     0
102
RTVSPropertyOp3
 70
     0
102
RTVSPropertyOp4
 70
     0
102
RTVSPropertyOp5
 70
     0
102
RTVSPropertyOp6
 70
     0
102
RTVSPropertyOp7
 70
     0
102
RTVSPropertyOp8
 70
     0
102
RTVSPropertyOp9
 70
     0
102
RTVSPropertyOp10
 70
     0
102
RTVSPropertyOp11
 70
     0
102
RTVSPropertyOp12
 70
     0
102
RTVSPropertyOp13
 70
     0
102
RTVSPropertyOp14
 70
     2
102
RTVSPropertyOp15
 70
     0
102
RTVSPropertyOp16
 70
     0
102
RTVSPropertyOp17
 70
     0
102
RTVSPropertyOp18
 70
     0
102
RTVSPropertyOp19
 70
     0
102
RTVSPropertyOp20
 70
     0
102
RTVSPropertyOp21
 70
     0
102
RTVSPropertyOp22
 70
     0
102
RTVSPropertyOp23
 70
     0
102
RTVSPropertyOp24
 70
     0
102
RTVSPropertyOp25
 70
     0
102
RTVSPropertyOp26
 70
     0
102
RTVSPropertyOp27
 70
     0
102
RTVSPropertyOp28
 70
     1
102
RTVSPropertyOp29
 70
     1
102
RTVSPropertyOp30
 70
     1
102
RTVSPropertyOp31
 70
     1
102
RTVSPropertyOp32
 70
     1
  0
XRECORD
  5
FF74
102
{ACAD_REACTORS
330
FF73
102
}
330
FF73
100
AcDbXrecord
280
     1
102
RTVSPropertyOp0
 70
     1
102
RTVSPropertyOp1
 70
     1
102
RTVSPropertyOp2
 70
     1
102
RTVSPropertyOp3
 70
     1
102
RTVSPropertyOp4
 70
     1
102
RTVSPropertyOp5
 70
     1
102
RTVSPropertyOp6
 70
     1
102
RTVSPropertyOp7
 70
     1
102
RTVSPropertyOp8
 70
     1
102
RTVSPropertyOp9
 70
     1
102
RTVSPropertyOp10
 70
     1
102
RTVSPropertyOp11
 70
     1
102
RTVSPropertyOp12
 70
     1
102
RTVSPropertyOp13
 70
     1
102
RTVSPropertyOp14
 70
     1
102
RTVSPropertyOp15
 70
     1
102
RTVSPropertyOp16
 70
     1
102
RTVSPropertyOp17
 70
     1
102
RTVSPropertyOp18
 70
     1
102
RTVSPropertyOp19
 70
     1
102
RTVSPropertyOp20
 70
     1
102
RTVSPropertyOp21
 70
     1
102
RTVSPropertyOp22
 70
     1
102
RTVSPropertyOp23
 70
     1
102
RTVSPropertyOp24
 70
     1
102
RTVSPropertyOp25
 70
     1
102
RTVSPropertyOp26
 70
     1
102
RTVSPropertyOp27
 70
     1
102
RTVSPropertyOp28
 70
     1
102
RTVSPropertyOp29
 70
     1
102
RTVSPropertyOp30
 70
     1
102
RTVSPropertyOp31
 70
     1
102
RTVSPropertyOp32
 70
     1
  0
XRECORD
  5
FF8F
102
{ACAD_REACTORS
330
FF8E
102
}
330
FF8E
100
AcDbXrecord
280
     1
102
RTVSPropertyOp0
 70
     1
102
RTVSPropertyOp1
 70
     1
102
RTVSPropertyOp2
 70
     1
102
RTVSPropertyOp3
 70
     1
102
RTVSPropertyOp4
 70
     1
102
RTVSPropertyOp5
 70
     1
102
RTVSPropertyOp6
 70
     1
102
RTVSPropertyOp7
 70
     1
102
RTVSPropertyOp8
 70
     1
102
RTVSPropertyOp9
 70
     1
102
RTVSPropertyOp10
 70
     1
102
RTVSPropertyOp11
 70
     1
102
RTVSPropertyOp12
 70
     1
102
RTVSPropertyOp13
 70
     1
102
RTVSPropertyOp14
 70
     1
102
RTVSPropertyOp15
 70
     1
102
RTVSPropertyOp16
 70
     1
102
RTVSPropertyOp17
 70
     1
102
RTVSPropertyOp18
 70
     1
102
RTVSPropertyOp19
 70
     1
102
RTVSPropertyOp20
 70
     1
102
RTVSPropertyOp21
 70
     1
102
RTVSPropertyOp22
 70
     1
102
RTVSPropertyOp23
 70
     1
102
RTVSPropertyOp24
 70
     1
102
RTVSPropertyOp25
 70
     1
102
RTVSPropertyOp26
 70
     1
102
RTVSPropertyOp27
 70
     1
102
RTVSPropertyOp28
 70
     1
102
RTVSPropertyOp29
 70
     1
102
RTVSPropertyOp30
 70
     1
102
RTVSPropertyOp31
 70
     1
102
RTVSPropertyOp32
 70
     1
  0
XRECORD
  5
FF8D
102
{ACAD_REACTORS
330
FF8C
102
}
330
FF8C
100
AcDbXrecord
280
     1
102
RTVSPropertyOp0
 70
     1
102
RTVSPropertyOp1
 70
     1
102
RTVSPropertyOp2
 70
     1
102
RTVSPropertyOp3
 70
     1
102
RTVSPropertyOp4
 70
     1
102
RTVSPropertyOp5
 70
     1
102
RTVSPropertyOp6
 70
     1
102
RTVSPropertyOp7
 70
     1
102
RTVSPropertyOp8
 70
     1
102
RTVSPropertyOp9
 70
     1
102
RTVSPropertyOp10
 70
     1
102
RTVSPropertyOp11
 70
     1
102
RTVSPropertyOp12
 70
     1
102
RTVSPropertyOp13
 70
     1
102
RTVSPropertyOp14
 70
     1
102
RTVSPropertyOp15
 70
     1
102
RTVSPropertyOp16
 70
     1
102
RTVSPropertyOp17
 70
     1
102
RTVSPropertyOp18
 70
     1
102
RTVSPropertyOp19
 70
     1
102
RTVSPropertyOp20
 70
     1
102
RTVSPropertyOp21
 70
     1
102
RTVSPropertyOp22
 70
     1
102
RTVSPropertyOp23
 70
     1
102
RTVSPropertyOp24
 70
     1
102
RTVSPropertyOp25
 70
     1
102
RTVSPropertyOp26
 70
     1
102
RTVSPropertyOp27
 70
     1
102
RTVSPropertyOp28
 70
     1
102
RTVSPropertyOp29
 70
     1
102
RTVSPropertyOp30
 70
     1
102
RTVSPropertyOp31
 70
     1
102
RTVSPropertyOp32
 70
     1
  0
XRECORD
  5
FF87
102
{ACAD_REACTORS
330
FF86
102
}
330
FF86
100
AcDbXrecord
280
     1
102
RTVSPropertyOp0
 70
     1
102
RTVSPropertyOp1
 70
     1
102
RTVSPropertyOp2
 70
     1
102
RTVSPropertyOp3
 70
     1
102
RTVSPropertyOp4
 70
     1
102
RTVSPropertyOp5
 70
     1
102
RTVSPropertyOp6
 70
     1
102
RTVSPropertyOp7
 70
     1
102
RTVSPropertyOp8
 70
     1
102
RTVSPropertyOp9
 70
     1
102
RTVSPropertyOp10
 70
     1
102
RTVSPropertyOp11
 70
     1
102
RTVSPropertyOp12
 70
     1
102
RTVSPropertyOp13
 70
     1
102
RTVSPropertyOp14
 70
     1
102
RTVSPropertyOp15
 70
     1
102
RTVSPropertyOp16
 70
     1
102
RTVSPropertyOp17
 70
     1
102
RTVSPropertyOp18
 70
     1
102
RTVSPropertyOp19
 70
     1
102
RTVSPropertyOp20
 70
     1
102
RTVSPropertyOp21
 70
     1
102
RTVSPropertyOp22
 70
     1
102
RTVSPropertyOp23
 70
     1
102
RTVSPropertyOp24
 70
     1
102
RTVSPropertyOp25
 70
     1
102
RTVSPropertyOp26
 70
     1
102
RTVSPropertyOp27
 70
     1
102
RTVSPropertyOp28
 70
     1
102
RTVSPropertyOp29
 70
     1
102
RTVSPropertyOp30
 70
     1
102
RTVSPropertyOp31
 70
     1
102
RTVSPropertyOp32
 70
     1
  0
XRECORD
  5
FF89
102
{ACAD_REACTORS
330
FF88
102
}
330
FF88
100
AcDbXrecord
280
     1
102
RTVSPropertyOp0
 70
     1
102
RTVSPropertyOp1
 70
     1
102
RTVSPropertyOp2
 70
     1
102
RTVSPropertyOp3
 70
     1
102
RTVSPropertyOp4
 70
     1
102
RTVSPropertyOp5
 70
     1
102
RTVSPropertyOp6
 70
     1
102
RTVSPropertyOp7
 70
     1
102
RTVSPropertyOp8
 70
     1
102
RTVSPropertyOp9
 70
     1
102
RTVSPropertyOp10
 70
     1
102
RTVSPropertyOp11
 70
     1
102
RTVSPropertyOp12
 70
     1
102
RTVSPropertyOp13
 70
     1
102
RTVSPropertyOp14
 70
     1
102
RTVSPropertyOp15
 70
     1
102
RTVSPropertyOp16
 70
     1
102
RTVSPropertyOp17
 70
     1
102
RTVSPropertyOp18
 70
     1
102
RTVSPropertyOp19
 70
     1
102
RTVSPropertyOp20
 70
     1
102
RTVSPropertyOp21
 70
     1
102
RTVSPropertyOp22
 70
     1
102
RTVSPropertyOp23
 70
     1
102
RTVSPropertyOp24
 70
     1
102
RTVSPropertyOp25
 70
     1
102
RTVSPropertyOp26
 70
     1
102
RTVSPropertyOp27
 70
     1
102
RTVSPropertyOp28
 70
     1
102
RTVSPropertyOp29
 70
     1
102
RTVSPropertyOp30
 70
     1
102
RTVSPropertyOp31
 70
     1
102
RTVSPropertyOp32
 70
     1
  0
XRECORD
  5
FF7A
102
{ACAD_REACTORS
330
FF79
102
}
330
FF79
100
AcDbXrecord
280
     1
102
RTVSPropertyOp0
 70
     1
102
RTVSPropertyOp1
 70
     1
102
RTVSPropertyOp2
 70
     1
102
RTVSPropertyOp3
 70
     1
102
RTVSPropertyOp4
 70
     1
102
RTVSPropertyOp5
 70
     1
102
RTVSPropertyOp6
 70
     1
102
RTVSPropertyOp7
 70
     1
102
RTVSPropertyOp8
 70
     1
102
RTVSPropertyOp9
 70
     1
102
RTVSPropertyOp10
 70
     1
102
RTVSPropertyOp11
 70
     1
102
RTVSPropertyOp12
 70
     1
102
RTVSPropertyOp13
 70
     1
102
RTVSPropertyOp14
 70
     1
102
RTVSPropertyOp15
 70
     1
102
RTVSPropertyOp16
 70
     1
102
RTVSPropertyOp17
 70
     1
102
RTVSPropertyOp18
 70
     1
102
RTVSPropertyOp19
 70
     1
102
RTVSPropertyOp20
 70
     1
102
RTVSPropertyOp21
 70
     1
102
RTVSPropertyOp22
 70
     1
102
RTVSPropertyOp23
 70
     1
102
RTVSPropertyOp24
 70
     1
102
RTVSPropertyOp25
 70
     1
102
RTVSPropertyOp26
 70
     1
102
RTVSPropertyOp27
 70
     1
102
RTVSPropertyOp28
 70
     1
102
RTVSPropertyOp29
 70
     1
102
RTVSPropertyOp30
 70
     1
102
RTVSPropertyOp31
 70
     1
102
RTVSPropertyOp32
 70
     1
  0
XRECORD
  5
FF83
102
{ACAD_REACTORS
330
FF82
102
}
330
FF82
100
AcDbXrecord
280
     1
102
RTVSPropertyOp0
 70
     1
102
RTVSPropertyOp1
 70
     1
102
RTVSPropertyOp2
 70
     1
102
RTVSPropertyOp3
 70
     1
102
RTVSPropertyOp4
 70
     1
102
RTVSPropertyOp5
 70
     1
102
RTVSPropertyOp6
 70
     1
102
RTVSPropertyOp7
 70
     1
102
RTVSPropertyOp8
 70
     1
102
RTVSPropertyOp9
 70
     1
102
RTVSPropertyOp10
 70
     1
102
RTVSPropertyOp11
 70
     1
102
RTVSPropertyOp12
 70
     1
102
RTVSPropertyOp13
 70
     1
102
RTVSPropertyOp14
 70
     1
102
RTVSPropertyOp15
 70
     1
102
RTVSPropertyOp16
 70
     1
102
RTVSPropertyOp17
 70
     1
102
RTVSPropertyOp18
 70
     1
102
RTVSPropertyOp19
 70
     1
102
RTVSPropertyOp20
 70
     1
102
RTVSPropertyOp21
 70
     1
102
RTVSPropertyOp22
 70
     1
102
RTVSPropertyOp23
 70
     1
102
RTVSPropertyOp24
 70
     1
102
RTVSPropertyOp25
 70
     1
102
RTVSPropertyOp26
 70
     1
102
RTVSPropertyOp27
 70
     1
102
RTVSPropertyOp28
 70
     1
102
RTVSPropertyOp29
 70
     1
102
RTVSPropertyOp30
 70
     1
102
RTVSPropertyOp31
 70
     1
102
RTVSPropertyOp32
 70
     1
  0
XRECORD
  5
FF8B
102
{ACAD_REACTORS
330
FF8A
102
}
330
FF8A
100
AcDbXrecord
280
     1
102
RTVSPropertyOp0
 70
     1
102
RTVSPropertyOp1
 70
     1
102
RTVSPropertyOp2
 70
     1
102
RTVSPropertyOp3
 70
     1
102
RTVSPropertyOp4
 70
     1
102
RTVSPropertyOp5
 70
     1
102
RTVSPropertyOp6
 70
     1
102
RTVSPropertyOp7
 70
     1
102
RTVSPropertyOp8
 70
     1
102
RTVSPropertyOp9
 70
     1
102
RTVSPropertyOp10
 70
     1
102
RTVSPropertyOp11
 70
     1
102
RTVSPropertyOp12
 70
     1
102
RTVSPropertyOp13
 70
     1
102
RTVSPropertyOp14
 70
     1
102
RTVSPropertyOp15
 70
     1
102
RTVSPropertyOp16
 70
     1
102
RTVSPropertyOp17
 70
     1
102
RTVSPropertyOp18
 70
     1
102
RTVSPropertyOp19
 70
     1
102
RTVSPropertyOp20
 70
     1
102
RTVSPropertyOp21
 70
     1
102
RTVSPropertyOp22
 70
     1
102
RTVSPropertyOp23
 70
     1
102
RTVSPropertyOp24
 70
     1
102
RTVSPropertyOp25
 70
     1
102
RTVSPropertyOp26
 70
     1
102
RTVSPropertyOp27
 70
     1
102
RTVSPropertyOp28
 70
     1
102
RTVSPropertyOp29
 70
     1
102
RTVSPropertyOp30
 70
     1
102
RTVSPropertyOp31
 70
     1
102
RTVSPropertyOp32
 70
     1
  0
ENDSEC
  0
EOF
