  0
SECTION
  2
HEADER
  9
$ACADVER
  1
AC1015
  9
$ACADMAINTVER
 70
    20
  9
$DWGCODEPAGE
  3
ANSI_1252
  9
$INSBASE
 10
0.0
 20
0.0
 30
0.0
  9
$EXTMIN
 10
0.0
 20
0.0
 30
0.0
  9
$EXTMAX
 10
77.3474268709846
 20
48.98563790462714
 30
0.0
  9
$LIMMIN
 10
0.0
 20
0.0
  9
$LIMMAX
 10
12.0
 20
9.0
  9
$ORTHOMODE
 70
     1
  9
$REGENMODE
 70
     1
  9
$FILLMODE
 70
     1
  9
$QTEXTMODE
 70
     0
  9
$MIRRTEXT
 70
     1
  9
$LTSCALE
 40
0.5
  9
$ATTMODE
 70
     1
  9
$TEXTSIZE
 40
0.25
  9
$TRACEWID
 40
0.05
  9
$TEXTSTYLE
  7
STANDARD
  9
$CLAYER
  8
0
  9
$CELTYPE
  6
BYLAYER
  9
$CECOLOR
 62
   256
  9
$CELTSCALE
 40
1.0
  9
$DISPSILH
 70
     0
  9
$DIMSCALE
 40
1.0
  9
$DIMASZ
 40
0.2
  9
$DIMEXO
 40
0.125
  9
$DIMDLI
 40
0.375
  9
$DIMRND
 40
0.0
  9
$DIMDLE
 40
0.0
  9
$DIMEXE
 40
0.125
  9
$DIMTP
 40
0.0
  9
$DIMTM
 40
0.0
  9
$DIMTXT
 40
0.25
  9
$DIMCEN
 40
0.0
  9
$DIMTSZ
 40
0.0
  9
$DIMTOL
 70
     0
  9
$DIMLIM
 70
     0
  9
$DIMTIH
 70
     0
  9
$DIMTOH
 70
     0
  9
$DIMSE1
 70
     0
  9
$DIMSE2
 70
     0
  9
$DIMTAD
 70
     1
  9
$DIMZIN
 70
     3
  9
$DIMBLK
  1

  9
$DIMASO
 70
     1
  9
$DIMSHO
 70
     1
  9
$DIMPOST
  1

  9
$DIMAPOST
  1

  9
$DIMALT
 70
     0
  9
$DIMALTD
 70
     2
  9
$DIMALTF
 40
25.4
  9
$DIMLFAC
 40
1.0
  9
$DIMTOFL
 70
     0
  9
$DIMTVP
 40
0.0
  9
$DIMTIX
 70
     0
  9
$DIMSOXD
 70
     0
  9
$DIMSAH
 70
     0
  9
$DIMBLK1
  1

  9
$DIMBLK2
  1

  9
$DIMSTYLE
  2
STANDARD
  9
$DIMCLRD
 70
     0
  9
$DIMCLRE
 70
     0
  9
$DIMCLRT
 70
     0
  9
$DIMTFAC
 40
1.0
  9
$DIMGAP
 40
0.125
  9
$DIMJUST
 70
     0
  9
$DIMSD1
 70
     0
  9
$DIMSD2
 70
     0
  9
$DIMTOLJ
 70
     1
  9
$DIMTZIN
 70
     3
  9
$DIMALTZ
 70
     3
  9
$DIMALTTZ
 70
     3
  9
$DIMUPT
 70
     0
  9
$DIMDEC
 70
     5
  9
$DIMTDEC
 70
     5
  9
$DIMALTU
 70
     4
  9
$DIMALTTD
 70
     2
  9
$DIMTXSTY
  7
STANDARD
  9
$DIMAUNIT
 70
     0
  9
$DIMADEC
 70
     0
  9
$DIMALTRND
 40
0.0
  9
$DIMAZIN
 70
     0
  9
$DIMDSEP
 70
    46
  9
$DIMATFIT
 70
     0
  9
$DIMFRAC
 70
     2
  9
$DIMLDRBLK
  1

  9
$DIMLUNIT
 70
     4
  9
$DIMLWD
 70
    -2
  9
$DIMLWE
 70
    -2
  9
$DIMTMOVE
 70
     0
  9
$LUNITS
 70
     2
  9
$LUPREC
 70
     5
  9
$SKETCHINC
 40
0.1
  9
$FILLETRAD
 40
0.0
  9
$AUNITS
 70
     0
  9
$AUPREC
 70
     0
  9
$MENU
  1
ACAD
  9
$ELEVATION
 40
0.0
  9
$PELEVATION
 40
0.0
  9
$THICKNESS
 40
0.0
  9
$LIMCHECK
 70
     0
  9
$CHAMFERA
 40
0.0
  9
$CHAMFERB
 40
0.0
  9
$CHAMFERC
 40
0.0
  9
$CHAMFERD
 40
0.0
  9
$SKPOLY
 70
     0
  9
$TDCREATE
 40
2450777.579237616
  9
$TDUCREATE
 40
2450777.787570949
  9
$TDUPDATE
 40
2457799.494030926
  9
$TDUUPDATE
 40
2457799.702364260
  9
$TDINDWG
 40
0.7796261574
  9
$TDUSRTIMER
 40
0.7796261574
  9
$USRTIMER
 70
     1
  9
$ANGBASE
 50
0.0
  9
$ANGDIR
 70
     0
  9
$PDMODE
 70
     0
  9
$PDSIZE
 40
0.0
  9
$PLINEWID
 40
0.0
  9
$SPLFRAME
 70
     0
  9
$SPLINETYPE
 70
     6
  9
$SPLINESEGS
 70
     8
  9
$HANDSEED
  5
10318
  9
$SURFTAB1
 70
     6
  9
$SURFTAB2
 70
     6
  9
$SURFTYPE
 70
     6
  9
$SURFU
 70
     6
  9
$SURFV
 70
     6
  9
$UCSBASE
  2

  9
$UCSNAME
  2

  9
$UCSORG
 10
0.0
 20
0.0
 30
0.0
  9
$UCSXDIR
 10
1.0
 20
0.0
 30
0.0
  9
$UCSYDIR
 10
0.0
 20
1.0
 30
0.0
  9
$UCSORTHOREF
  2

  9
$UCSORTHOVIEW
 70
     0
  9
$UCSORGTOP
 10
0.0
 20
0.0
 30
0.0
  9
$UCSORGBOTTOM
 10
0.0
 20
0.0
 30
0.0
  9
$UCSORGLEFT
 10
0.0
 20
0.0
 30
0.0
  9
$UCSORGRIGHT
 10
0.0
 20
0.0
 30
0.0
  9
$UCSORGFRONT
 10
0.0
 20
0.0
 30
0.0
  9
$UCSORGBACK
 10
0.0
 20
0.0
 30
0.0
  9
$PUCSBASE
  2

  9
$PUCSNAME
  2

  9
$PUCSORG
 10
0.0
 20
0.0
 30
0.0
  9
$PUCSXDIR
 10
1.0
 20
0.0
 30
0.0
  9
$PUCSYDIR
 10
0.0
 20
1.0
 30
0.0
  9
$PUCSORTHOREF
  2

  9
$PUCSORTHOVIEW
 70
     0
  9
$PUCSORGTOP
 10
0.0
 20
0.0
 30
0.0
  9
$PUCSORGBOTTOM
 10
0.0
 20
0.0
 30
0.0
  9
$PUCSORGLEFT
 10
0.0
 20
0.0
 30
0.0
  9
$PUCSORGRIGHT
 10
0.0
 20
0.0
 30
0.0
  9
$PUCSORGFRONT
 10
0.0
 20
0.0
 30
0.0
  9
$PUCSORGBACK
 10
0.0
 20
0.0
 30
0.0
  9
$USERI1
 70
     0
  9
$USERI2
 70
     0
  9
$USERI3
 70
     0
  9
$USERI4
 70
     0
  9
$USERI5
 70
     0
  9
$USERR1
 40
0.0
  9
$USERR2
 40
0.0
  9
$USERR3
 40
0.0
  9
$USERR4
 40
0.0
  9
$USERR5
 40
0.0
  9
$WORLDVIEW
 70
     1
  9
$SHADEDGE
 70
     3
  9
$SHADEDIF
 70
    70
  9
$TILEMODE
 70
     1
  9
$MAXACTVP
 70
    16
  9
$PINSBASE
 10
0.0
 20
0.0
 30
0.0
  9
$PLIMCHECK
 70
     0
  9
$PEXTMIN
 10
1.000000000000000E+20
 20
1.000000000000000E+20
 30
1.000000000000000E+20
  9
$PEXTMAX
 10
-1.000000000000000E+20
 20
-1.000000000000000E+20
 30
-1.000000000000000E+20
  9
$PLIMMIN
 10
0.0
 20
0.0
  9
$PLIMMAX
 10
12.0
 20
9.0
  9
$UNITMODE
 70
     0
  9
$VISRETAIN
 70
     0
  9
$PLINEGEN
 70
     0
  9
$PSLTSCALE
 70
     1
  9
$TREEDEPTH
 70
  3020
  9
$CMLSTYLE
  2
STANDARD
  9
$CMLJUST
 70
     0
  9
$CMLSCALE
 40
1.0
  9
$PROXYGRAPHICS
 70
     1
  9
$MEASUREMENT
 70
     0
  9
$CELWEIGHT
370
    -1
  9
$ENDCAPS
280
     0
  9
$JOINSTYLE
280
     0
  9
$LWDISPLAY
290
     0
  9
$INSUNITS
 70
     0
  9
$HYPERLINKBASE
  1

  9
$STYLESHEET
  1
monochrome2.ctb
  9
$XEDIT
290
     1
  9
$CEPSNTYPE
380
     0
  9
$PSTYLEMODE
290
     1
  9
$FINGERPRINTGUID
  2
{C96DCFB1-D063-4DA6-8539-C52BD9DCE695}
  9
$VERSIONGUID
  2
{91901AD5-BF13-40C7-A065-F9E6BCD8E520}
  9
$EXTNAMES
290
     1
  9
$PSVPSCALE
 40
0.0
  9
$OLESTARTUP
290
     0
  0
ENDSEC
  0
SECTION
  2
CLASSES
  0
CLASS
  1
DICTIONARYVAR
  2
AcDbDictionaryVar
  3
ObjectDBX Classes
 90
        0
280
     0
281
     0
  0
CLASS
  1
ACDBDICTIONARYWDFLT
  2
AcDbDictionaryWithDefault
  3
ObjectDBX Classes
 90
        0
280
     0
281
     0
  0
CLASS
  1
ACDBPLACEHOLDER
  2
AcDbPlaceHolder
  3
ObjectDBX Classes
 90
        0
280
     0
281
     0
  0
CLASS
  1
LAYOUT
  2
AcDbLayout
  3
ObjectDBX Classes
 90
        0
280
     0
281
     0
  0
CLASS
  1
MATERIAL
  2
AcDbMaterial
  3
ObjectDBX Classes
 90
     1153
280
     0
281
     0
  0
CLASS
  1
VISUALSTYLE
  2
AcDbVisualStyle
  3
ObjectDBX Classes
 90
     4095
280
     0
281
     0
  0
CLASS
  1
TABLESTYLE
  2
AcDbTableStyle
  3
ObjectDBX Classes
 90
     4095
280
     0
281
     0
  0
CLASS
  1
SCALE
  2
AcDbScale
  3
ObjectDBX Classes
 90
     1153
280
     0
281
     0
  0
CLASS
  1
MLEADERSTYLE
  2
AcDbMLeaderStyle
  3
ACDB_MLEADERSTYLE_CLASS
 90
     4095
280
     0
281
     0
  0
CLASS
  1
CELLSTYLEMAP
  2
AcDbCellStyleMap
  3
ObjectDBX Classes
 90
     1152
280
     0
281
     0
  0
CLASS
  1
EXACXREFPANELOBJECT
  2
ExAcXREFPanelObject
  3
EXAC_ESW
 90
     1025
280
     0
281
     0
  0
CLASS
  1
NPOCOLLECTION
  2
AcDbImpNonPersistentObjectsCollection
  3
ObjectDBX Classes
 90
     1153
280
     0
281
     0
  0
CLASS
  1
SORTENTSTABLE
  2
AcDbSortentsTable
  3
ObjectDBX Classes
 90
        0
280
     0
281
     0
  0
ENDSEC
  0
SECTION
  2
TABLES
  0
TABLE
  2
VPORT
  5
8
102
{ACAD_XDICTIONARY
360
FD6D
102
}
330
0
100
AcDbSymbolTable
 70
     1
  0
VPORT
  5
FCB4
330
8
100
AcDbSymbolTableRecord
100
AcDbViewportTableRecord
  2
*Active
 70
     0
 10
0.0
 20
0.0
 11
1.0
 21
1.0
 12
38.67202745826542
 22
35.17724679137962
 13
0.0
 23
0.0
 14
1.0
 24
1.0
 15
0.0
 25
0.0
 16
0.0
 26
0.0
 36
1.0
 17
0.0
 27
0.0
 37
0.0
 40
70.69760999190532
 41
1.481327800829875
 42
50.0
 43
0.0
 44
0.0
 50
0.0
 51
0.0
 71
     0
 72
  2000
 73
     1
 74
     0
 75
     0
 76
     0
 77
     0
 78
     1
281
     0
 65
     1
110
0.0
120
0.0
130
0.0
111
1.0
121
0.0
131
0.0
112
0.0
122
1.0
132
0.0
 79
     0
146
0.0
1001
ACAD_NAV_VCDISPLAY
1070
     3
  0
ENDTAB
  0
TABLE
  2
LTYPE
  5
5
330
0
100
AcDbSymbolTable
 70
     6
  0
LTYPE
  5
11
330
5
100
AcDbSymbolTableRecord
100
AcDbLinetypeTableRecord
  2
BYBLOCK
 70
     0
  3

 72
    65
 73
     0
 40
0.0
  0
LTYPE
  5
12
330
5
100
AcDbSymbolTableRecord
100
AcDbLinetypeTableRecord
  2
BYLAYER
 70
     0
  3

 72
    65
 73
     0
 40
0.0
  0
LTYPE
  5
13
330
5
100
AcDbSymbolTableRecord
100
AcDbLinetypeTableRecord
  2
CONTINUOUS
 70
     0
  3
Solid line
 72
    65
 73
     0
 40
0.0
  0
LTYPE
  5
F1CD
330
5
100
AcDbSymbolTableRecord
100
AcDbLinetypeTableRecord
  2
HIDDEN
 70
     0
  3
Hidden __ __ __ __ __ __ __ __ __ __ __ __ __ _
 72
    65
 73
     2
 40
0.375
 49
0.25
 74
     0
 49
-0.125
 74
     0
  0
LTYPE
  5
F1CE
330
5
100
AcDbSymbolTableRecord
100
AcDbLinetypeTableRecord
  2
CENTER
 70
     0
  3
CENTER LINE
 72
    65
 73
     4
 40
2.0
 49
1.25
 74
     0
 49
-0.25
 74
     0
 49
0.25
 74
     0
 49
-0.25
 74
     0
  0
LTYPE
  5
F1CF
330
5
100
AcDbSymbolTableRecord
100
AcDbLinetypeTableRecord
  2
HIDDEN2
 70
     0
  3
_ _ _ _ _ _ _ _ _ _ _ _ _ _ _ _ _ _ _ _ _ _ _ _
 72
    65
 73
     2
 40
0.1875
 49
0.125
 74
     0
 49
-0.0625
 74
     0
  0
LTYPE
  5
10224
330
5
100
AcDbSymbolTableRecord
100
AcDbLinetypeTableRecord
  2
DASHED
 70
     0
  3
Dashed __ __ __ __ __ __ __ __ __ __ __ __ __ _
 72
    65
 73
     2
 40
0.75
 49
0.5
 74
     0
 49
-0.25
 74
     0
  0
LTYPE
  5
10225
330
5
100
AcDbSymbolTableRecord
100
AcDbLinetypeTableRecord
  2
DOT
 70
     0
  3
Dot . . . . . . . . . . . . . . . . . . . . . .
 72
    65
 73
     2
 40
0.25
 49
0.0
 74
     0
 49
-0.25
 74
     0
  0
ENDTAB
  0
TABLE
  2
LAYER
  5
2
102
{ACAD_XDICTIONARY
360
D51D
102
}
330
0
100
AcDbSymbolTable
 70
     8
  0
LAYER
  5
E
102
{ACAD_XDICTIONARY
360
FD5C
102
}
330
2
100
AcDbSymbolTableRecord
100
AcDbLayerTableRecord
  2
0
 70
     0
 62
     7
  6
CONTINUOUS
370
    -3
390
ACBF
  0
LAYER
  5
F1D0
102
{ACAD_XDICTIONARY
360
FD5E
102
}
330
2
100
AcDbSymbolTableRecord
100
AcDbLayerTableRecord
  2
R-SWTS-DET1
 70
     0
 62
     1
  6
CONTINUOUS
370
    -3
390
ACBF
  0
LAYER
  5
F1D1
102
{ACAD_XDICTIONARY
360
FD60
102
}
330
2
100
AcDbSymbolTableRecord
100
AcDbLayerTableRecord
  2
R-ANNO-DIMS
 70
     0
 62
     3
  6
CONTINUOUS
370
    -3
390
ACBF
  0
LAYER
  5
F1D2
102
{ACAD_XDICTIONARY
360
FD62
102
}
330
2
100
AcDbSymbolTableRecord
100
AcDbLayerTableRecord
  2
R-SWTS-DET2
 70
     0
 62
     4
  6
CONTINUOUS
370
    -3
390
ACBF
  0
LAYER
  5
F1D3
102
{ACAD_XDICTIONARY
360
FD64
102
}
330
2
100
AcDbSymbolTableRecord
100
AcDbLayerTableRecord
  2
R-SWTS-DET3
 70
     0
 62
     5
  6
CONTINUOUS
370
    -3
390
ACBF
  0
LAYER
  5
F1D6
102
{ACAD_XDICTIONARY
360
FD66
102
}
330
2
100
AcDbSymbolTableRecord
100
AcDbLayerTableRecord
  2
PART_NUMBERS
 70
     0
 62
     6
  6
CONTINUOUS
370
    -3
390
ACBF
  0
LAYER
  5
10149
330
2
100
AcDbSymbolTableRecord
100
AcDbLayerTableRecord
  2
TEXT
 70
     0
 62
     3
  6
CONTINUOUS
370
    -3
390
ACBF
1001
AcAecLayerStandard
1000

1000

1001
AcCmTransparency
1071
        0
  0
LAYER
  5
10226
330
2
100
AcDbSymbolTableRecord
100
AcDbLayerTableRecord
  2
Kawneer Logo-English
 70
     0
 62
     7
  6
CONTINUOUS
370
    -3
390
ACBF
1001
AcAecLayerStandard
1000

1000

1001
AcCmTransparency
1071
        0
  0
ENDTAB
  0
TABLE
  2
STYLE
  5
3
330
0
100
AcDbSymbolTable
 70
     1
  0
STYLE
  5
F
330
3
100
AcDbSymbolTableRecord
100
AcDbTextStyleTableRecord
  2
STANDARD
 70
     0
 40
0.0
 41
1.0
 50
0.0
 71
     0
 42
0.25
  3
arial.ttf
  4

1001
ACAD
1000
Arial
1071
       34
  0
ENDTAB
  0
TABLE
  2
VIEW
  5
6
330
0
100
AcDbSymbolTable
 70
     0
  0
ENDTAB
  0
TABLE
  2
UCS
  5
7
330
0
100
AcDbSymbolTable
 70
     0
  0
ENDTAB
  0
TABLE
  2
APPID
  5
9
330
0
100
AcDbSymbolTable
 70
    15
  0
APPID
  5
10
330
9
100
AcDbSymbolTableRecord
100
AcDbRegAppTableRecord
  2
ACAD
 70
     0
  0
APPID
  5
FE75
330
9
100
AcDbSymbolTableRecord
100
AcDbRegAppTableRecord
  2
ACAD_NAV_VCDISPLAY
 70
     0
  0
APPID
  5
1014A
330
9
100
AcDbSymbolTableRecord
100
AcDbRegAppTableRecord
  2
AcAecLayerStandard
 70
     0
  0
APPID
  5
1014B
330
9
100
AcDbSymbolTableRecord
100
AcDbRegAppTableRecord
  2
AcCmTransparency
 70
     0
  0
APPID
  5
10227
330
9
100
AcDbSymbolTableRecord
100
AcDbRegAppTableRecord
  2
ACAD_EXEMPT_FROM_CAD_STANDARDS
 70
     0
  0
APPID
  5
10228
330
9
100
AcDbSymbolTableRecord
100
AcDbRegAppTableRecord
  2
GradientColor1ACI
 70
     0
  0
APPID
  5
10229
330
9
100
AcDbSymbolTableRecord
100
AcDbRegAppTableRecord
  2
GradientColor2ACI
 70
     0
  0
APPID
  5
1022A
330
9
100
AcDbSymbolTableRecord
100
AcDbRegAppTableRecord
  2
ACAD_MLEADERVER
 70
     0
  0
APPID
  5
1022B
330
9
100
AcDbSymbolTableRecord
100
AcDbRegAppTableRecord
  2
ACAD_PSEXT
 70
     0
  0
APPID
  5
1022C
330
9
100
AcDbSymbolTableRecord
100
AcDbRegAppTableRecord
  2
ACAD_DSTYLE_DIMJAG
 70
     0
  0
APPID
  5
1022D
330
9
100
AcDbSymbolTableRecord
100
AcDbRegAppTableRecord
  2
ACAD_DSTYLE_DIMTALN
 70
     0
  0
APPID
  5
1022E
330
9
100
AcDbSymbolTableRecord
100
AcDbRegAppTableRecord
  2
ACAD_DSTYLE_DIMBREAK
 70
     0
  0
APPID
  5
1022F
330
9
100
AcDbSymbolTableRecord
100
AcDbRegAppTableRecord
  2
AcDbDynamicBlockGUID
 70
     0
  0
APPID
  5
10230
330
9
100
AcDbSymbolTableRecord
100
AcDbRegAppTableRecord
  2
ACAUTHENVIRON
 70
     0
  0
APPID
  5
10231
330
9
100
AcDbSymbolTableRecord
100
AcDbRegAppTableRecord
  2
AcDbDynamicBlockTrueName
 70
     0
  0
ENDTAB
  0
TABLE
  2
DIMSTYLE
  5
A
330
0
100
AcDbSymbolTable
 70
     1
100
AcDbDimStyleTable
 71
     1
340
26C
  0
DIMSTYLE
105
26C
330
A
100
AcDbSymbolTableRecord
100
AcDbDimStyleTableRecord
  2
STANDARD
 70
     0
340
F
  0
ENDTAB
  0
TABLE
  2
BLOCK_RECORD
  5
1
330
0
100
AcDbSymbolTable
 70
     1
  0
BLOCK_RECORD
  5
17
102
{ACAD_XDICTIONARY
360
BB27
102
}
330
1
100
AcDbSymbolTableRecord
100
AcDbBlockTableRecord
  2
*MODEL_SPACE
340
ACC2
  0
BLOCK_RECORD
  5
14
102
{ACAD_XDICTIONARY
360
BB25
102
}
330
1
100
AcDbSymbolTableRecord
100
AcDbBlockTableRecord
  2
*PAPER_SPACE
340
ACC3
  0
BLOCK_RECORD
  5
10232
102
{ACAD_XDICTIONARY
360
1023C
102
}
330
1
100
AcDbSymbolTableRecord
100
AcDbBlockTableRecord
  2
Kawneer Logo English
340
0
102
{BLKREFS
331
10240
102
}
1001
ACAD
1000
DesignCenter Data
1002
{
1070
     1
1070
     1
1002
}
  0
ENDTAB
  0
ENDSEC
  0
SECTION
  2
BLOCKS
  0
BLOCK
  5
3C
330
17
100
AcDbEntity
  8
0
100
AcDbBlockBegin
  2
*MODEL_SPACE
 70
     0
 10
0.0
 20
0.0
 30
0.0
  3
*MODEL_SPACE
  1

  0
ENDBLK
  5
3D
330
17
100
AcDbEntity
  8
0
100
AcDbBlockEnd
  0
BLOCK
  5
3A
330
14
100
AcDbEntity
 67
     1
  8
0
100
AcDbBlockBegin
  2
*PAPER_SPACE
 70
     0
 10
0.0
 20
0.0
 30
0.0
  3
*PAPER_SPACE
  1

  0
ENDBLK
  5
3B
330
14
100
AcDbEntity
 67
     1
  8
0
100
AcDbBlockEnd
  0
BLOCK
  5
1023E
330
10232
100
AcDbEntity
  8
0
100
AcDbBlockBegin
  2
Kawneer Logo English
 70
     0
 10
0.0
 20
0.0
 30
0.0
  3
Kawneer Logo English
  1

  0
MTEXT
  5
10233
102
{ACAD_XDICTIONARY
360
102D8
102
}
330
10232
100
AcDbEntity
  8
Kawneer Logo-English
100
AcDbMText
 10
1.510096758583198
 20
0.0372523876656778
 30
0.0
 40
0.036
 41
0.6125900866323382
 71
     3
 72
     5
  1
{\fArial TUR|b0|i0|c0|p34;\T1.05;AN ARCONIC COMPANY}
 73
     1
 44
1.0
1001
ACAD
1000
ACAD_MTEXT_COLUMN_INFO_BEGIN
1070
    75
1070
     2
1070
    79
1070
     0
1070
    76
1070
     1
1070
    78
1070
     0
1070
    48
1040
0.6125900866323382
1070
    49
1040
1.0
1070
    50
1070
     1
1040
0.0
1000
ACAD_MTEXT_COLUMN_INFO_END
1000
MTEXTBEGIN
1070
    73
1070
     1
1070
    44
1040
1.0
1070
    74
1070
     0
1000
MTEXTEND
  0
HATCH
  5
10234
330
10232
100
AcDbEntity
  8
Kawneer Logo-English
100
AcDbHatch
 10
0.0
 20
0.0
 30
0.0
210
0.0
220
0.0
230
1.0
  2
SOLID
 70
     1
 71
     0
 91
        1
 92
        1
 93
       81
 72
     1
 10
0.2706169776412204
 20
0.0336337282279411
 11
0.2687512969786691
 21
0.0350329887248546
 72
     1
 10
0.2687512969786696
 20
0.0350329887248547
 11
0.2633408230572721
 21
0.039137486182467
 72
     1
 10
0.2633408230572729
 20
0.0391374861824669
 11
0.2550385441089194
 21
0.0453875164020133
 72
     1
 10
0.2550385441089191
 20
0.0453875164020132
 11
0.2442175962661241
 21
0.053596511317238
 72
     1
 10
0.2442175962661235
 20
0.0535965113172379
 11
0.2314376837276472
 21
0.0632980507625037
 72
     1
 10
0.2314376837276479
 20
0.0632980507625037
 11
0.2172585106922595
 21
0.0741189986052996
 72
     1
 10
0.2172585106922598
 20
0.0741189986052996
 11
0.2019599292593419
 21
0.0856862187131167
 72
     1
 10
0.201959929259341
 20
0.0856862187131167
 11
0.1862882116939105
 21
0.0976265749534437
 72
     1
 10
0.1862882116939102
 20
0.0976265749534437
 11
0.1706164941284813
 21
0.1095669311937706
 72
     1
 10
0.1706164941284811
 20
0.1095669311937709
 11
0.1553179126955632
 21
0.1211341513015875
 72
     1
 10
0.1553179126955642
 20
0.1211341513015876
 11
0.1411387396601757
 21
0.131955099144384
 72
     1
 10
0.1411387396601755
 20
0.1319550991443839
 11
0.1284521111548274
 21
0.141749922622777
 72
     1
 10
0.1284521111548278
 20
0.1417499226227768
 11
0.117631163312031
 21
0.1499589175380016
 72
     1
 10
0.1176311633120304
 20
0.1499589175380017
 11
0.1094221683968068
 21
0.1563022317906752
 72
     1
 10
0.1094221683968062
 20
0.1563022317906754
 11
0.1041049785085351
 21
0.1604067292482882
 72
     1
 10
0.1041049785085351
 20
0.1604067292482878
 11
0.1023325818791119
 21
0.1618992737783286
 72
     1
 10
0.1023325818791116
 20
0.1618992737783289
 11
0.1043848306079176
 21
0.1636716704077524
 72
     1
 10
0.1043848306079194
 20
0.1636716704077524
 11
0.1100751566286996
 21
0.1683358720641301
 72
     1
 10
0.1100751566286986
 20
0.1683358720641301
 11
0.1189371397758159
 21
0.1757053106812067
 72
     1
 10
0.1189371397758161
 20
0.1757053106812067
 11
0.1304110758505067
 21
0.1851269980270901
 72
     1
 10
0.1304110758505059
 20
0.1851269980270902
 11
0.1439372606540007
 21
0.1963210820023967
 72
     1
 10
0.1439372606540017
 20
0.1963210820023967
 11
0.1589559899875385
 21
0.2087278584083611
 72
     1
 10
0.1589559899875379
 20
0.2087278584083611
 11
0.1750941277186041
 21
0.2220674751456017
 72
     1
 10
0.1750941277186047
 20
0.2220674751456017
 11
0.19169868561531
 21
0.2358735120484796
 72
     1
 10
0.1916986856153105
 20
0.2358735120484796
 11
0.208303243512014
 21
0.2495862649182301
 72
     1
 10
0.2083032435120131
 20
0.2495862649182304
 11
0.2244413812430811
 21
0.2628325976223432
 72
     1
 10
0.2244413812430812
 20
0.2628325976223429
 11
0.239460110576618
 21
0.2753326580614352
 72
     1
 10
0.2394601105766174
 20
0.2753326580614351
 11
0.2529862953801122
 21
0.2864334580036143
 72
     1
 10
0.2529862953801132
 20
0.2864334580036143
 11
0.2643669474216756
 21
0.2958551453494973
 72
     1
 10
0.2643669474216757
 20
0.2958551453494973
 11
0.2731356465356649
 21
0.3031312999334466
 72
     1
 10
0.273135646535664
 20
0.3031312999334466
 11
0.2788259725564443
 21
0.3077955015898243
 72
     1
 10
0.278825972556445
 20
0.3077955015898246
 11
0.2807849372521245
 21
0.3094746141861208
 72
     1
 10
0.2807849372521249
 20
0.3094746141861205
 11
0.2798520969208501
 21
0.3094746141861205
 72
     1
 10
0.2798520969208496
 20
0.3094746141861205
 11
0.2769602918938953
 21
0.3095678982192478
 72
     1
 10
0.2769602918938943
 20
0.3095678982192481
 11
0.2724826583037715
 21
0.3095678982192481
 72
     1
 10
0.2724826583037729
 20
0.3095678982192481
 11
0.2666057642167363
 21
0.3095678982192481
 72
     1
 10
0.266605764216735
 20
0.3095678982192481
 11
0.2597027457652953
 21
0.3095678982192481
 72
     1
 10
0.2597027457652956
 20
0.3095678982192481
 11
0.2519601710157094
 21
0.3095678982192481
 72
     1
 10
0.2519601710157104
 20
0.3095678982192481
 11
0.2437511761004851
 21
0.3095678982192481
 72
     1
 10
0.243751176100484
 20
0.3095678982192481
 11
0.2351690450527495
 21
0.3095678982192481
 72
     1
 10
0.2351690450527495
 20
0.3095678982192481
 11
0.2266801980381413
 21
0.3095678982192481
 72
     1
 10
0.2266801980381423
 20
0.3095678982192481
 11
0.2183779190897905
 21
0.3094746141861208
 72
     1
 10
0.2183779190897899
 20
0.3094746141861205
 11
0.2106353443402037
 21
0.3094746141861205
 72
     1
 10
0.2106353443402029
 20
0.3094746141861205
 11
0.2037323258887632
 21
0.3094746141861205
 72
     1
 10
0.203732325888764
 20
0.3094746141861205
 11
0.1978554318017273
 21
0.3094746141861205
 72
     1
 10
0.1978554318017278
 20
0.3094746141861205
 11
0.1932845141784786
 21
0.3094746141861205
 72
     1
 10
0.1932845141784787
 20
0.3094746141861205
 11
0.1903927091515244
 21
0.3094746141861205
 72
     1
 10
0.1903927091515234
 20
0.3094746141861205
 11
0.1893665847871204
 21
0.3094746141861205
 72
     1
 10
0.1893665847871206
 20
0.3094746141861205
 11
0.1879673242902067
 21
0.3077955015898243
 72
     1
 10
0.1879673242902076
 20
0.3077955015898246
 11
0.1841426789319786
 21
0.3030380159003196
 72
     1
 10
0.1841426789319787
 20
0.3030380159003192
 11
0.1780792167786874
 21
0.29576186131637
 72
     1
 10
0.1780792167786873
 20
0.29576186131637
 11
0.170243357995973
 21
0.2862468899373593
 72
     1
 10
0.170243357995973
 20
0.2862468899373593
 11
0.1610082387163447
 21
0.2750528059620528
 72
     1
 10
0.1610082387163438
 20
0.2750528059620528
 11
0.1507469950723126
 21
0.2624594614898328
 72
     1
 10
0.1507469950723133
 20
0.2624594614898328
 11
0.1396461951301336
 21
0.2491198447525922
 72
     1
 10
0.1396461951301333
 20
0.2491198447525922
 11
0.1282655430885727
 21
0.2352205238165866
 72
     1
 10
0.1282655430885726
 20
0.2352205238165868
 11
0.1168848910470102
 21
0.2214144869137089
 72
     1
 10
0.1168848910470102
 20
0.2214144869137087
 11
0.1058773751379587
 21
0.2079815861433408
 72
     1
 10
0.105877375137958
 20
0.2079815861433408
 11
0.0955228474608004
 21
0.1954815257042486
 72
     1
 10
0.0955228474608019
 20
0.1954815257042488
 11
0.0862877281811736
 21
0.1842874417289424
 72
     1
 10
0.0862877281811727
 20
0.1842874417289424
 11
0.0784518693984583
 21
0.1747724703499316
 72
     1
 10
0.0784518693984584
 20
0.1747724703499314
 11
0.0723884072451672
 21
0.1674963157659821
 72
     1
 10
0.0723884072451671
 20
0.1674963157659822
 11
0.0685637618869363
 21
0.1627388300764767
 72
     1
 10
0.0685637618869364
 20
0.1627388300764767
 11
0.0671645013900242
 21
0.1611530015133082
 72
     1
 10
0.0671645013900251
 20
0.1611530015133082
 11
0.0680040576881734
 21
0.1596604569832674
 72
     1
 10
0.0680040576881726
 20
0.1596604569832674
 11
0.0704294425494878
 21
0.1556492435587824
 72
     1
 10
0.0704294425494871
 20
0.1556492435587824
 11
0.0742540879077179
 21
0.1493059293061089
 72
     1
 10
0.0742540879077192
 20
0.1493059293061089
 11
0.0791048576303511
 21
0.1411902184240116
 72
     1
 10
0.0791048576303508
 20
0.1411902184240116
 11
0.0848884676842594
 21
0.1314886789787458
 72
     1
 10
0.0848884676842596
 20
0.1314886789787459
 11
0.0913250659700619
 21
0.1207610151690772
 72
     1
 10
0.0913250659700613
 20
0.1207610151690775
 11
0.0982280844214992
 21
0.1091937950612604
 72
     1
 10
0.0982280844214985
 20
0.1091937950612603
 11
0.1053176709391927
 21
0.0973467228540611
 72
     1
 10
0.105317670939193
 20
0.0973467228540612
 11
0.1124072574568872
 21
0.0854996506468619
 72
     1
 10
0.1124072574568871
 20
0.0854996506468617
 11
0.1193102759083267
 21
0.0739324305390446
 72
     1
 10
0.1193102759083278
 20
0.0739324305390448
 11
0.1257468741941283
 21
0.0632047667293762
 72
     1
 10
0.1257468741941277
 20
0.063204766729376
 11
0.1315304842480362
 21
0.0535032272841102
 72
     1
 10
0.1315304842480365
 20
0.0535032272841104
 11
0.1363812539706702
 21
0.0453875164020132
 72
     1
 10
0.1363812539706699
 20
0.0453875164020132
 11
0.1402058993288989
 21
0.0391374861824667
 72
     1
 10
0.1402058993288988
 20
0.0391374861824669
 11
0.1426312841902157
 21
0.0350329887248546
 72
     1
 10
0.1426312841902164
 20
0.0350329887248547
 11
0.1434708404883648
 21
0.0336337282279412
 72
     1
 10
0.143470840488364
 20
0.0336337282279411
 11
0.2706169776412211
 21
0.0336337282279411
 97
        0
 75
     0
 76
     1
 98
        1
 10
-0.3743130907707726
 20
-0.2500502867693841
1001
ACAD
1010
0.0
1020
0.0
1030
0.0
  0
HATCH
  5
10235
330
10232
100
AcDbEntity
  8
Kawneer Logo-English
100
AcDbHatch
 10
0.0
 20
0.0
 30
0.0
210
0.0
220
0.0
230
1.0
  2
SOLID
 70
     1
 71
     0
 91
        1
 92
        1
 93
       18
 72
     1
 10
0.0001865656044393
 20
0.2563959993365415
 11
-0.0000000024618153
 21
0.113671428651383
 72
     1
 10
-0.0000000024618159
 20
0.1136714286513832
 11
0.0012126899688416
 21
0.1152572572145516
 72
     1
 10
0.0012126899688421
 20
0.1152572572145516
 11
0.0045709151614355
 21
0.1197348908046738
 72
     1
 10
0.004570915161435
 20
0.119734890804674
 11
0.0098881050497044
 21
0.1268244773223682
 72
     1
 10
0.0098881050497044
 20
0.1268244773223682
 11
0.0166978394680158
 21
0.1359663125688683
 72
     1
 10
0.016697839468016
 20
0.1359663125688683
 11
0.0248135503501131
 21
0.1467872604116651
 72
     1
 10
0.024813550350113
 20
0.1467872604116652
 11
0.0338621015634867
 21
0.1588209006851195
 72
     1
 10
0.0338621015634872
 20
0.1588209006851194
 11
0.0434703569756247
 21
0.1716940972567221
 72
     1
 10
0.0434703569756247
 20
0.1716940972567224
 11
0.0534517485202732
 21
0.1850337139939626
 72
     1
 10
0.0534517485202724
 20
0.1850337139939624
 11
0.0634331400649208
 21
0.1983733307312025
 72
     1
 10
0.0634331400649222
 20
0.1983733307312024
 11
0.0730413954770597
 21
0.2112465273028051
 72
     1
 10
0.0730413954770595
 20
0.2112465273028053
 11
0.0820899466904331
 21
0.2233734516093873
 72
     1
 10
0.0820899466904321
 20
0.2233734516093873
 11
0.0902056575725293
 21
0.2341943994521837
 72
     1
 10
0.0902056575725308
 20
0.2341943994521837
 11
0.0970153919908422
 21
0.2433362346986839
 72
     1
 10
0.0970153919908405
 20
0.2433362346986839
 11
0.1022392978459834
 21
0.2503325371832507
 72
     1
 10
0.1022392978459843
 20
0.2503325371832508
 11
0.1056908070717041
 21
0.2549034548065008
 72
     1
 10
0.1056908070717046
 20
0.254903454806501
 11
0.1069034995023621
 21
0.2564892833696694
 72
     1
 10
0.1069034995023625
 20
0.2564892833696695
 11
0.0001865656044399
 21
0.2563959993365418
 97
        0
 75
     0
 76
     1
 98
        1
 10
-0.3743130907707726
 20
-0.2500502867693841
1001
ACAD
1010
0.0
1020
0.0
1030
0.0
  0
HATCH
  5
10236
330
10232
100
AcDbEntity
  8
Kawneer Logo-English
100
AcDbHatch
 10
0.0
 20
0.0
 30
0.0
210
0.0
220
0.0
230
1.0
  2
SOLID
 70
     1
 71
     0
 91
        2
 92
       16
 93
       76
 72
     1
 10
1.358402087941634
 20
0.1650709309046659
 11
1.358402087941634
 21
0.16796273593162
 72
     1
 10
1.358402087941634
 20
0.1679627359316202
 11
1.358402087941634
 21
0.1729067896873803
 72
     1
 10
1.358402087941634
 20
0.1729067896873803
 11
1.358402087941634
 21
0.1791568199069267
 72
     1
 10
1.358402087941634
 20
0.1791568199069267
 11
1.358402087941634
 21
0.1861531223914932
 72
     1
 10
1.358402087941634
 20
0.186153122391493
 11
1.358402087941634
 21
0.1931494248760595
 72
     1
 10
1.358402087941634
 20
0.1931494248760596
 11
1.358402087941634
 21
0.1994927391287338
 72
     1
 10
1.358402087941634
 20
0.1994927391287336
 11
1.358402087941634
 21
0.2044367928844937
 72
     1
 10
1.358402087941634
 20
0.2044367928844937
 11
1.358402087941634
 21
0.2072353138783208
 72
     1
 10
1.358402087941634
 20
0.2072353138783208
 11
1.359894632471676
 21
0.2072353138783208
 72
     1
 10
1.359894632471676
 20
0.2072353138783208
 11
1.362693153465502
 21
0.2072353138783208
 72
     1
 10
1.362693153465502
 20
0.2072353138783208
 11
1.366424514790605
 21
0.2072353138783208
 72
     1
 10
1.366424514790606
 20
0.2072353138783208
 11
1.371088716446983
 21
0.2072353138783208
 72
     1
 10
1.371088716446982
 20
0.2072353138783208
 11
1.376405906335254
 21
0.2072353138783208
 72
     1
 10
1.376405906335254
 20
0.2072353138783208
 11
1.382282800422289
 21
0.2072353138783208
 72
     1
 10
1.38228280042229
 20
0.2072353138783208
 11
1.388346262575581
 21
0.2072353138783208
 72
     1
 10
1.388346262575579
 20
0.2072353138783208
 11
1.394596292795125
 21
0.2072353138783208
 72
     1
 10
1.394596292795125
 20
0.2072353138783208
 11
1.400753038981545
 21
0.2072353138783208
 72
     1
 10
1.400753038981546
 20
0.2072353138783208
 11
1.406723217101709
 21
0.2072353138783208
 72
     1
 10
1.406723217101708
 20
0.2072353138783208
 11
1.412320259089362
 21
0.2072353138783208
 72
     1
 10
1.412320259089362
 20
0.2072353138783208
 11
1.417264312845122
 21
0.2072353138783208
 72
     1
 10
1.417264312845123
 20
0.2072353138783208
 11
1.421368810302735
 21
0.2072353138783208
 72
     1
 10
1.421368810302734
 20
0.2072353138783208
 11
1.424540467429071
 21
0.2072353138783208
 72
     1
 10
1.424540467429072
 20
0.2072353138783208
 11
1.426592716157878
 21
0.2072353138783208
 72
     1
 10
1.426592716157878
 20
0.2072353138783208
 11
1.427338988422898
 21
0.2072353138783208
 72
     1
 10
1.427338988422898
 20
0.2072353138783208
 11
1.430977065714873
 21
0.207142029845193
 72
     1
 10
1.430977065714872
 20
0.207142029845193
 11
1.434335290907465
 21
0.2068621777458102
 72
     1
 10
1.434335290907465
 20
0.2068621777458102
 11
1.435921119470633
 21
0.2066756096795552
 72
     1
 10
1.435921119470633
 20
0.206675609679555
 11
1.437413664000673
 21
0.2063957575801723
 72
     1
 10
1.437413664000674
 20
0.2063957575801723
 11
1.438906208530714
 21
0.2061159054807895
 72
     1
 10
1.438906208530714
 20
0.2061159054807898
 11
1.440398753060756
 21
0.2056494853151523
 72
     1
 10
1.440398753060756
 20
0.2056494853151521
 11
1.441704729524542
 21
0.2050897811163865
 72
     1
 10
1.441704729524542
 20
0.2050897811163866
 11
1.443010705988328
 21
0.204530076917621
 72
     1
 10
1.443010705988329
 20
0.204530076917621
 11
1.444223398418986
 21
0.2036905206194736
 72
     1
 10
1.444223398418985
 20
0.2036905206194736
 11
1.445436090849643
 21
0.2028509643213252
 72
     1
 10
1.445436090849643
 20
0.2028509643213252
 11
1.446555499247174
 21
0.2018248399569224
 72
     1
 10
1.446555499247173
 20
0.2018248399569223
 11
1.447581623611576
 21
0.2007054315593917
 72
     1
 10
1.447581623611578
 20
0.2007054315593915
 11
1.448607747975981
 21
0.1993061710624781
 72
     1
 10
1.448607747975981
 20
0.1993061710624781
 11
1.449540588307258
 21
0.1978136265324374
 72
     1
 10
1.449540588307256
 20
0.1978136265324373
 11
1.450380144605403
 21
0.1961345139361415
 72
     1
 10
1.450380144605404
 20
0.1961345139361415
 11
1.451126416870426
 21
0.1944554013398453
 72
     1
 10
1.451126416870426
 20
0.1944554013398454
 11
1.451592837036063
 21
0.1929628568098046
 72
     1
 10
1.451592837036062
 20
0.1929628568098046
 11
1.451965973168573
 21
0.1913770282466361
 72
     1
 10
1.451965973168574
 20
0.1913770282466361
 11
1.452245825267955
 21
0.1899777677497231
 72
     1
 10
1.452245825267954
 20
0.1899777677497231
 11
1.452432393334211
 21
0.188671791285937
 72
     1
 10
1.452432393334211
 20
0.1886717912859369
 11
1.452432393334211
 21
0.1874590988552789
 72
     1
 10
1.452432393334211
 20
0.1874590988552789
 11
1.452525677367338
 21
0.1863396904577482
 72
     1
 10
1.452525677367337
 20
0.1863396904577481
 11
1.452432393334211
 21
0.1844740097951972
 72
     1
 10
1.452432393334211
 20
0.1844740097951974
 11
1.452245825267955
 21
0.1827948971989012
 72
     1
 10
1.452245825267954
 20
0.1827948971989009
 11
1.451872689135445
 21
0.1810225005694773
 72
     1
 10
1.451872689135446
 20
0.1810225005694774
 11
1.451406268969809
 21
0.1794366720063093
 72
     1
 10
1.451406268969809
 20
0.1794366720063094
 11
1.450846564771043
 21
0.1779441274762682
 72
     1
 10
1.450846564771041
 20
0.1779441274762681
 11
1.450100292506021
 21
0.1764515829462274
 72
     1
 10
1.450100292506023
 20
0.1764515829462275
 11
1.449260736207875
 21
0.1750523224493141
 72
     1
 10
1.449260736207873
 20
0.1750523224493139
 11
1.448327895876597
 21
0.1737463459855283
 72
     1
 10
1.448327895876596
 20
0.1737463459855281
 11
1.44702191941281
 21
0.1723470854886151
 72
     1
 10
1.447021919412811
 20
0.1723470854886151
 11
1.445715942949025
 21
0.1711343930579568
 72
     1
 10
1.445715942949026
 20
0.1711343930579568
 11
1.444316682452114
 21
0.1700149846604262
 72
     1
 10
1.444316682452114
 20
0.1700149846604259
 11
1.442824137922072
 21
0.168988860296023
 72
     1
 10
1.442824137922072
 20
0.168988860296023
 11
1.441238309358904
 21
0.1682425880310024
 72
     1
 10
1.441238309358902
 20
0.1682425880310024
 11
1.439559196762608
 21
0.1674963157659821
 72
     1
 10
1.439559196762608
 20
0.1674963157659822
 11
1.437880084166311
 21
0.1669366115672166
 72
     1
 10
1.437880084166311
 20
0.1669366115672167
 11
1.436107687536888
 21
0.1664701914015788
 72
     1
 10
1.436107687536888
 20
0.1664701914015789
 11
1.434242006874337
 21
0.166003771235941
 72
     1
 10
1.434242006874337
 20
0.1660037712359412
 11
1.432376326211786
 21
0.1657239191365588
 72
     1
 10
1.432376326211785
 20
0.1657239191365585
 11
1.430417361516107
 21
0.1655373510703035
 72
     1
 10
1.430417361516108
 20
0.1655373510703037
 11
1.428458396820429
 21
0.1653507830040482
 72
     1
 10
1.428458396820428
 20
0.1653507830040482
 11
1.424353899362817
 21
0.1651642149377932
 72
     1
 10
1.424353899362817
 20
0.1651642149377932
 11
1.420156117872077
 21
0.1650709309046658
 72
     1
 10
1.420156117872076
 20
0.1650709309046659
 11
1.41773073301076
 21
0.1650709309046659
 72
     1
 10
1.417730733010761
 20
0.1650709309046659
 11
1.411107566658704
 21
0.1650709309046659
 72
     1
 10
1.411107566658702
 20
0.1650709309046659
 11
1.401779163345947
 21
0.1650709309046659
 72
     1
 10
1.401779163345949
 20
0.1650709309046659
 11
1.390958215503152
 21
0.1650709309046659
 72
     1
 10
1.390958215503152
 20
0.1650709309046659
 11
1.379950699594101
 21
0.1650709309046659
 72
     1
 10
1.379950699594099
 20
0.1650709309046659
 11
1.369969308049451
 21
0.1650709309046659
 72
     1
 10
1.369969308049451
 20
0.1650709309046659
 11
1.362320017332992
 21
0.1650709309046659
 72
     1
 10
1.362320017332992
 20
0.1650709309046659
 11
1.358402087941635
 21
0.1650709309046659
 97
        0
 92
        1
 93
      107
 72
     1
 10
1.443756978253348
 20
0.1485596570410883
 11
1.446928635379685
 21
0.1492126452729816
 72
     1
 10
1.446928635379685
 20
0.1492126452729817
 11
1.449540588307256
 21
0.1498656335048746
 72
     1
 10
1.449540588307256
 20
0.1498656335048745
 11
1.451872689135445
 21
0.1506119057698948
 72
     1
 10
1.451872689135446
 20
0.1506119057698946
 11
1.45401822189738
 21
0.1514514620680426
 72
     1
 10
1.45401822189738
 20
0.1514514620680425
 11
1.455883902559929
 21
0.1521977343330632
 72
     1
 10
1.455883902559929
 20
0.1521977343330631
 11
1.457563015156225
 21
0.1530372906312111
 72
     1
 10
1.457563015156225
 20
0.1530372906312111
 11
1.459148843719394
 21
0.1539701309624869
 72
     1
 10
1.459148843719394
 20
0.1539701309624866
 11
1.460641388249434
 21
0.1549029712937624
 72
     1
 10
1.460641388249434
 20
0.1549029712937622
 11
1.462133932779476
 21
0.155835811625038
 72
     1
 10
1.462133932779476
 20
0.155835811625038
 11
1.463439909243262
 21
0.1568619359894408
 72
     1
 10
1.463439909243262
 20
0.1568619359894408
 11
1.464745885707048
 21
0.1579813443869714
 72
     1
 10
1.464745885707047
 20
0.1579813443869716
 11
1.465865294104579
 21
0.1591007527845022
 72
     1
 10
1.465865294104579
 20
0.1591007527845025
 11
1.466984702502109
 21
0.1602201611820331
 72
     1
 10
1.466984702502108
 20
0.1602201611820328
 11
1.468010826866511
 21
0.1613395695795634
 72
     1
 10
1.468010826866511
 20
0.1613395695795637
 11
1.468943667197788
 21
0.1625522620102216
 72
     1
 10
1.468943667197788
 20
0.1625522620102216
 11
1.469876507529063
 21
0.1636716704077522
 72
     1
 10
1.469876507529063
 20
0.1636716704077524
 11
1.470622779794084
 21
0.1648843628384107
 72
     1
 10
1.470622779794084
 20
0.1648843628384107
 11
1.471462336092232
 21
0.1661903393021964
 72
     1
 10
1.471462336092232
 20
0.1661903393021967
 11
1.472115324324125
 21
0.1674030317328546
 72
     1
 10
1.472115324324124
 20
0.1674030317328546
 11
1.472768312556016
 21
0.1686157241635125
 72
     1
 10
1.472768312556017
 20
0.1686157241635125
 11
1.473328016754783
 21
0.1699217006272986
 72
     1
 10
1.473328016754782
 20
0.1699217006272989
 11
1.47379443692042
 21
0.1711343930579568
 72
     1
 10
1.47379443692042
 20
0.1711343930579568
 11
1.474260857086057
 21
0.1724403695217425
 72
     1
 10
1.474260857086058
 20
0.1724403695217424
 11
1.474727277251697
 21
0.1736530619524008
 72
     1
 10
1.474727277251697
 20
0.173653061952401
 11
1.475380265483589
 21
0.1760784468137175
 72
     1
 10
1.475380265483588
 20
0.1760784468137173
 11
1.475846685649225
 21
0.1785038316750338
 72
     1
 10
1.475846685649226
 20
0.1785038316750335
 11
1.476219821781737
 21
0.1808359325032223
 72
     1
 10
1.476219821781738
 20
0.1808359325032223
 11
1.47649967388112
 21
0.1830747492982838
 72
     1
 10
1.47649967388112
 20
0.1830747492982838
 11
1.476592957914248
 21
0.1851269980270901
 72
     1
 10
1.476592957914248
 20
0.1851269980270902
 11
1.476686241947374
 21
0.1870859627227688
 72
     1
 10
1.476686241947375
 20
0.1870859627227687
 11
1.476592957914249
 21
0.1888583593521923
 72
     1
 10
1.476592957914248
 20
0.1888583593521922
 11
1.476499673881119
 21
0.1906307559816158
 72
     1
 10
1.47649967388112
 20
0.1906307559816159
 11
1.476406389847991
 21
0.1924031526110394
 72
     1
 10
1.476406389847991
 20
0.1924031526110394
 11
1.476126537748608
 21
0.1940822652073352
 72
     1
 10
1.476126537748608
 20
0.1940822652073352
 11
1.475846685649226
 21
0.195761377803631
 72
     1
 10
1.475846685649226
 20
0.1957613778036309
 11
1.475566833549843
 21
0.1974404903999272
 72
     1
 10
1.475566833549843
 20
0.1974404903999272
 11
1.475100413384206
 21
0.1990263189630953
 72
     1
 10
1.475100413384205
 20
0.1990263189630952
 11
1.474633993218568
 21
0.2006121475262637
 72
     1
 10
1.474633993218568
 20
0.2006121475262639
 11
1.47416757305293
 21
0.2021046920563051
 72
     1
 10
1.474167573052932
 20
0.2021046920563049
 11
1.473514584821038
 21
0.2035972365863457
 72
     1
 10
1.473514584821037
 20
0.2035972365863459
 11
1.472954880622271
 21
0.2050897811163867
 72
     1
 10
1.472954880622272
 20
0.2050897811163866
 11
1.472208608357252
 21
0.2064890416133
 72
     1
 10
1.472208608357252
 20
0.2064890416133001
 11
1.471462336092232
 21
0.2078883021102135
 72
     1
 10
1.471462336092232
 20
0.2078883021102136
 11
1.470622779794083
 21
0.2091942785739993
 72
     1
 10
1.470622779794084
 20
0.2091942785739991
 11
1.469783223495935
 21
0.2105002550377848
 72
     1
 10
1.469783223495934
 20
0.2105002550377851
 11
1.468850383164659
 21
0.2118062315015707
 72
     1
 10
1.468850383164661
 20
0.2118062315015709
 11
1.467917542833386
 21
0.2130189239322288
 72
     1
 10
1.467917542833385
 20
0.2130189239322289
 11
1.466891418468982
 21
0.2141383323297595
 72
     1
 10
1.466891418468982
 20
0.2141383323297595
 11
1.465772010071451
 21
0.2153510247604178
 72
     1
 10
1.46577201007145
 20
0.215351024760418
 11
1.464652601673919
 21
0.2163771491248209
 72
     1
 10
1.46465260167392
 20
0.2163771491248209
 11
1.463533193276389
 21
0.2174032734892238
 72
     1
 10
1.463533193276389
 20
0.2174032734892238
 11
1.462227216812603
 21
0.2184293978536266
 72
     1
 10
1.462227216812602
 20
0.2184293978536266
 11
1.461014524381945
 21
0.2193622381849024
 72
     1
 10
1.461014524381946
 20
0.2193622381849023
 11
1.459615263885032
 21
0.2202950785161781
 72
     1
 10
1.459615263885031
 20
0.2202950785161782
 11
1.458309287421245
 21
0.2211346348143262
 72
     1
 10
1.458309287421246
 20
0.221134634814326
 11
1.456816742891206
 21
0.221974191112474
 72
     1
 10
1.456816742891206
 20
0.2219741911124738
 11
1.455417482394292
 21
0.2227204633774945
 72
     1
 10
1.455417482394291
 20
0.2227204633774944
 11
1.453831653831122
 21
0.2233734516093874
 72
     1
 10
1.453831653831123
 20
0.2233734516093873
 11
1.452339109301082
 21
0.2240264398412803
 72
     1
 10
1.452339109301082
 20
0.2240264398412803
 11
1.450659996704785
 21
0.2245861440400459
 72
     1
 10
1.450659996704787
 20
0.2245861440400457
 11
1.44907416814162
 21
0.2251458482388108
 72
     1
 10
1.449074168141619
 20
0.2251458482388109
 11
1.447301771512194
 21
0.2256122684044489
 72
     1
 10
1.447301771512194
 20
0.2256122684044488
 11
1.445249522783388
 21
0.2261719726032139
 72
     1
 10
1.445249522783388
 20
0.226171972603214
 11
1.44329055808771
 21
0.2265451087357246
 72
     1
 10
1.443290558087712
 20
0.2265451087357244
 11
1.441145025325778
 21
0.2269182448682345
 72
     1
 10
1.441145025325776
 20
0.2269182448682345
 11
1.438906208530714
 21
0.2271980969676173
 72
     1
 10
1.438906208530714
 20
0.2271980969676173
 11
1.436387539636271
 21
0.2273846650338724
 72
     1
 10
1.436387539636271
 20
0.2273846650338724
 11
1.433495734609316
 21
0.2275712331001274
 72
     1
 10
1.433495734609317
 20
0.2275712331001274
 11
1.430044225383597
 21
0.2276645171332552
 72
     1
 10
1.430044225383597
 20
0.2276645171332549
 11
1.42612629599224
 21
0.2277578011663822
 72
     1
 10
1.42612629599224
 20
0.2277578011663825
 11
1.426033011959112
 21
0.2277578011663825
 72
     1
 10
1.426033011959111
 20
0.2277578011663825
 11
1.33489451159349
 21
0.2277578011663825
 72
     1
 10
1.334894511593491
 20
0.2277578011663825
 11
1.334894511593491
 21
0.0926825211976832
 72
     1
 10
1.334894511593491
 20
0.0926825211976832
 11
1.358588656007891
 21
0.0926825211976832
 72
     1
 10
1.358588656007891
 20
0.0926825211976832
 11
1.358588656007891
 21
0.0947347699264896
 72
     1
 10
1.358588656007891
 20
0.0947347699264896
 11
1.358588656007891
 21
0.1001452438478876
 72
     1
 10
1.358588656007891
 20
0.1001452438478875
 11
1.358588656007891
 21
0.1079811026306024
 72
     1
 10
1.358588656007891
 20
0.1079811026306024
 11
1.358588656007891
 21
0.1170296538439752
 72
     1
 10
1.358588656007891
 20
0.1170296538439753
 11
1.358588656007891
 21
0.1262647731236032
 72
     1
 10
1.358588656007891
 20
0.1262647731236031
 11
1.358588656007891
 21
0.1347536201382103
 72
     1
 10
1.358588656007891
 20
0.1347536201382104
 11
1.358588656007891
 21
0.1412835024571394
 72
     1
 10
1.358588656007891
 20
0.1412835024571393
 11
1.358588656007891
 21
0.1448282957159864
 72
     1
 10
1.358588656007891
 20
0.1448282957159865
 11
1.362320017332992
 21
0.1448282957159865
 72
     1
 10
1.362320017332992
 20
0.1448282957159865
 11
1.369409603850688
 21
0.1448282957159865
 72
     1
 10
1.369409603850688
 20
0.1448282957159865
 11
1.378738007163443
 21
0.1448282957159865
 72
     1
 10
1.378738007163443
 20
0.1448282957159865
 11
1.388999250807475
 21
0.1448282957159865
 72
     1
 10
1.388999250807473
 20
0.1448282957159865
 11
1.399260494451505
 21
0.1448282957159865
 72
     1
 10
1.399260494451506
 20
0.1448282957159865
 11
1.408215761631749
 21
0.1448282957159865
 72
     1
 10
1.408215761631748
 20
0.1448282957159865
 11
1.414745643950677
 21
0.1448282957159865
 72
     1
 10
1.414745643950678
 20
0.1448282957159865
 11
1.41773073301076
 21
0.1448282957159865
 72
     1
 10
1.417730733010761
 20
0.1448282957159865
 11
1.420062833838949
 21
0.1420297747221594
 72
     1
 10
1.420062833838949
 20
0.1420297747221597
 11
1.425193455660966
 21
0.1359663125688683
 72
     1
 10
1.425193455660965
 20
0.1359663125688683
 11
1.432283042178659
 21
0.1275707495873888
 72
     1
 10
1.432283042178659
 20
0.1275707495873886
 11
1.440305469027628
 21
0.1180557782083779
 72
     1
 10
1.440305469027629
 20
0.1180557782083781
 11
1.448234611843471
 21
0.1087273748956225
 72
     1
 10
1.448234611843471
 20
0.1087273748956225
 11
1.455044346261782
 21
0.1006116640135252
 72
     1
 10
1.455044346261782
 20
0.1006116640135252
 11
1.459895115984414
 21
0.0948280539596167
 72
     1
 10
1.459895115984414
 20
0.0948280539596169
 11
1.461760796646965
 21
0.0926825211976832
 72
     1
 10
1.461760796646967
 20
0.0926825211976832
 11
1.49254452757906
 21
0.0926825211976832
 72
     1
 10
1.492544527579059
 20
0.0926825211976832
 11
1.490678846916508
 21
0.0948280539596169
 72
     1
 10
1.490678846916508
 20
0.0948280539596169
 11
1.48564150912762
 21
0.100518379980398
 72
     1
 10
1.48564150912762
 20
0.1005183799803981
 11
1.478458638576797
 21
0.1088206589287502
 72
     1
 10
1.478458638576798
 20
0.1088206589287502
 11
1.470063075595318
 21
0.1183356303077609
 72
     1
 10
1.470063075595317
 20
0.118335630307761
 11
1.461480944547582
 21
0.1282237378192818
 72
     1
 10
1.461480944547582
 20
0.1282237378192818
 11
1.453551801731739
 21
0.1372722890326546
 72
     1
 10
1.45355180173174
 20
0.1372722890326546
 11
1.447395055545323
 21
0.1444551595834761
 72
     1
 10
1.447395055545323
 20
0.1444551595834759
 11
1.443756978253349
 21
0.1485596570410882
 97
        0
 75
     0
 76
     1
 98
        1
 10
-0.3743130907707726
 20
-0.2500502867693841
1001
ACAD
1010
0.0
1020
0.0
1030
0.0
  0
HATCH
  5
10237
330
10232
100
AcDbEntity
  8
Kawneer Logo-English
100
AcDbHatch
 10
0.0
 20
0.0
 30
0.0
210
0.0
220
0.0
230
1.0
  2
SOLID
 70
     1
 71
     0
 91
        1
 92
        1
 93
       87
 72
     1
 10
1.205602841678699
 20
0.1525708704655737
 11
1.207468522341251
 21
0.1525708704655737
 72
     1
 10
1.207468522341252
 20
0.1525708704655737
 11
1.211199883666355
 21
0.1525708704655737
 72
     1
 10
1.211199883666355
 20
0.1525708704655737
 11
1.216517073554626
 21
0.1525708704655737
 72
     1
 10
1.216517073554626
 20
0.1525708704655737
 11
1.223046955873555
 21
0.1525708704655737
 72
     1
 10
1.223046955873553
 20
0.1525708704655737
 11
1.230602962556885
 21
0.1525708704655737
 72
     1
 10
1.230602962556885
 20
0.1525708704655737
 11
1.238998525538365
 21
0.1525708704655737
 72
     1
 10
1.238998525538365
 20
0.1525708704655737
 11
1.247767224652354
 21
0.1525708704655737
 72
     1
 10
1.247767224652355
 20
0.1525708704655737
 11
1.256815775865728
 21
0.1525708704655737
 72
     1
 10
1.256815775865729
 20
0.1525708704655737
 11
1.265771043045974
 21
0.1525708704655737
 72
     1
 10
1.265771043045973
 20
0.1525708704655737
 11
1.274446458126836
 21
0.1525708704655737
 72
     1
 10
1.274446458126837
 20
0.1525708704655737
 11
1.282562169008935
 21
0.1525708704655737
 72
     1
 10
1.282562169008935
 20
0.1525708704655737
 11
1.289745039559756
 21
0.1525708704655737
 72
     1
 10
1.289745039559755
 20
0.1525708704655737
 11
1.295808501713046
 21
0.1525708704655737
 72
     1
 10
1.295808501713046
 20
0.1525708704655737
 11
1.300472703369423
 21
0.1525708704655737
 72
     1
 10
1.300472703369423
 20
0.1525708704655737
 11
1.303457792429505
 21
0.1525708704655737
 72
     1
 10
1.303457792429505
 20
0.1525708704655737
 11
1.304483916793908
 21
0.1525708704655737
 72
     1
 10
1.304483916793908
 20
0.1525708704655737
 11
1.304483916793908
 21
0.1730000737205081
 72
     1
 10
1.304483916793908
 20
0.1730000737205078
 11
1.303457792429505
 21
0.1730000737205078
 72
     1
 10
1.303457792429505
 20
0.1730000737205078
 11
1.300472703369423
 21
0.1730000737205078
 72
     1
 10
1.300472703369423
 20
0.1730000737205078
 11
1.295808501713045
 21
0.1730000737205078
 72
     1
 10
1.295808501713046
 20
0.1730000737205078
 11
1.289745039559754
 21
0.1730000737205078
 72
     1
 10
1.289745039559755
 20
0.1730000737205078
 11
1.282562169008934
 21
0.1730000737205078
 72
     1
 10
1.282562169008935
 20
0.1730000737205078
 11
1.274446458126837
 21
0.1730000737205078
 72
     1
 10
1.274446458126837
 20
0.1730000737205078
 11
1.265771043045975
 21
0.1730000737205078
 72
     1
 10
1.265771043045973
 20
0.1730000737205078
 11
1.256815775865728
 21
0.1730000737205078
 72
     1
 10
1.256815775865729
 20
0.1730000737205078
 11
1.247767224652355
 21
0.1730000737205078
 72
     1
 10
1.247767224652355
 20
0.1730000737205078
 11
1.238998525538365
 21
0.1730000737205078
 72
     1
 10
1.238998525538365
 20
0.1730000737205078
 11
1.230602962556885
 21
0.1730000737205078
 72
     1
 10
1.230602962556885
 20
0.1730000737205078
 11
1.223046955873553
 21
0.1730000737205078
 72
     1
 10
1.223046955873553
 20
0.1730000737205078
 11
1.216517073554625
 21
0.1730000737205078
 72
     1
 10
1.216517073554626
 20
0.1730000737205078
 11
1.211199883666355
 21
0.1730000737205078
 72
     1
 10
1.211199883666355
 20
0.1730000737205078
 11
1.207468522341252
 21
0.1730000737205078
 72
     1
 10
1.207468522341252
 20
0.1730000737205078
 11
1.205602841678701
 21
0.1730000737205078
 72
     1
 10
1.205602841678699
 20
0.1730000737205078
 11
1.205602841678699
 21
0.1754254585818243
 72
     1
 10
1.205602841678699
 20
0.1754254585818245
 11
1.205602841678699
 21
0.1794366720063095
 72
     1
 10
1.205602841678699
 20
0.1794366720063094
 11
1.205602841678699
 21
0.1843807257620694
 72
     1
 10
1.205602841678699
 20
0.1843807257620694
 11
1.205602841678699
 21
0.1898844837165951
 72
     1
 10
1.205602841678699
 20
0.1898844837165951
 11
1.205602841678699
 21
0.1952949576379935
 72
     1
 10
1.205602841678699
 20
0.1952949576379937
 11
1.205602841678699
 21
0.2003322954268815
 72
     1
 10
1.205602841678699
 20
0.2003322954268814
 11
1.205602841678699
 21
0.2042502248182386
 72
     1
 10
1.205602841678699
 20
0.2042502248182386
 11
1.205602841678699
 21
0.206675609679555
 72
     1
 10
1.205602841678699
 20
0.206675609679555
 11
1.207468522341251
 21
0.206675609679555
 72
     1
 10
1.207468522341252
 20
0.206675609679555
 11
1.211293167699483
 21
0.206675609679555
 72
     1
 10
1.211293167699483
 20
0.206675609679555
 11
1.21670364162088
 21
0.206675609679555
 72
     1
 10
1.216703641620879
 20
0.206675609679555
 11
1.223420092006063
 21
0.206675609679555
 72
     1
 10
1.223420092006064
 20
0.206675609679555
 11
1.231255950788778
 21
0.206675609679555
 72
     1
 10
1.231255950788778
 20
0.206675609679555
 11
1.239744797803386
 21
0.206675609679555
 72
     1
 10
1.239744797803385
 20
0.206675609679555
 11
1.248886633049885
 21
0.206675609679555
 72
     1
 10
1.248886633049885
 20
0.206675609679555
 11
1.258121752329513
 21
0.206675609679555
 72
     1
 10
1.258121752329514
 20
0.206675609679555
 11
1.267356871609143
 21
0.206675609679555
 72
     1
 10
1.267356871609142
 20
0.206675609679555
 11
1.276218854756259
 21
0.206675609679555
 72
     1
 10
1.276218854756259
 20
0.206675609679555
 11
1.284521133704611
 21
0.206675609679555
 72
     1
 10
1.284521133704611
 20
0.206675609679555
 11
1.291890572321688
 21
0.206675609679555
 72
     1
 10
1.291890572321688
 20
0.206675609679555
 11
1.298140602541234
 21
0.206675609679555
 72
     1
 10
1.298140602541234
 20
0.206675609679555
 11
1.30289808823074
 21
0.206675609679555
 72
     1
 10
1.30289808823074
 20
0.206675609679555
 11
1.305976461323949
 21
0.206675609679555
 72
     1
 10
1.305976461323949
 20
0.206675609679555
 11
1.30709586972148
 21
0.206675609679555
 72
     1
 10
1.307095869721479
 20
0.206675609679555
 11
1.307095869721479
 21
0.2277578011663822
 72
     1
 10
1.307095869721479
 20
0.2277578011663825
 11
1.304577200827036
 21
0.2277578011663825
 72
     1
 10
1.304577200827037
 20
0.2277578011663825
 11
1.182188549363684
 21
0.2277578011663825
 72
     1
 10
1.182188549363684
 20
0.2277578011663825
 11
1.182188549363684
 21
0.0926825211976832
 72
     1
 10
1.182188549363684
 20
0.0926825211976832
 11
1.311853355410986
 21
0.0926825211976832
 72
     1
 10
1.311853355410985
 20
0.0926825211976832
 11
1.311853355410985
 21
0.113671428651383
 72
     1
 10
1.311853355410985
 20
0.1136714286513832
 11
1.310733947013454
 21
0.1136714286513832
 72
     1
 10
1.310733947013455
 20
0.1136714286513832
 11
1.307469005853991
 21
0.1136714286513832
 72
     1
 10
1.307469005853991
 20
0.1136714286513832
 11
1.302431668065102
 21
0.1136714286513832
 72
     1
 10
1.302431668065103
 20
0.1136714286513832
 11
1.295901785746174
 21
0.1136714286513832
 72
     1
 10
1.295901785746174
 20
0.1136714286513832
 11
1.288159210996586
 21
0.1136714286513832
 72
     1
 10
1.288159210996587
 20
0.1136714286513832
 11
1.279483795915724
 21
0.1136714286513832
 72
     1
 10
1.279483795915723
 20
0.1136714286513832
 11
1.270155392602968
 21
0.1136714286513832
 72
     1
 10
1.270155392602969
 20
0.1136714286513832
 11
1.260547137190832
 21
0.1136714286513832
 72
     1
 10
1.260547137190831
 20
0.1136714286513832
 11
1.250752313712437
 21
0.1136714286513832
 72
     1
 10
1.250752313712437
 20
0.1136714286513832
 11
1.241330626366554
 21
0.1136714286513832
 72
     1
 10
1.241330626366555
 20
0.1136714286513832
 11
1.23237535918631
 21
0.1136714286513832
 72
     1
 10
1.232375359186308
 20
0.1136714286513832
 11
1.224166364271082
 21
0.1136714286513832
 72
     1
 10
1.224166364271083
 20
0.1136714286513832
 11
1.217170061786517
 21
0.1136714286513832
 72
     1
 10
1.217170061786517
 20
0.1136714286513832
 11
1.211479735765737
 21
0.1136714286513832
 72
     1
 10
1.211479735765737
 20
0.1136714286513832
 11
1.20756180637438
 21
0.1136714286513832
 72
     1
 10
1.207561806374379
 20
0.1136714286513832
 11
1.2056028416787
 21
0.1136714286513832
 72
     1
 10
1.205602841678699
 20
0.1136714286513832
 11
1.205602841678699
 21
0.1163766656120825
 72
     1
 10
1.205602841678699
 20
0.1163766656120823
 11
1.205602841678699
 21
0.1209475832353323
 72
     1
 10
1.205602841678699
 20
0.1209475832353325
 11
1.205602841678699
 21
0.1267311932892411
 72
     1
 10
1.205602841678699
 20
0.1267311932892408
 11
1.205602841678699
 21
0.1330745075419143
 72
     1
 10
1.205602841678699
 20
0.1330745075419144
 11
1.205602841678699
 21
0.1395111058277156
 72
     1
 10
1.205602841678699
 20
0.1395111058277158
 11
1.205602841678699
 21
0.1452947158816239
 72
     1
 10
1.205602841678699
 20
0.145294715881624
 11
1.205602841678699
 21
0.1498656335048746
 72
     1
 10
1.205602841678699
 20
0.1498656335048745
 11
1.205602841678699
 21
0.1525708704655738
 97
        0
 75
     0
 76
     1
 98
        1
 10
-0.3743130907707726
 20
-0.2500502867693841
1001
ACAD
1010
0.0
1020
0.0
1030
0.0
  0
HATCH
  5
10238
330
10232
100
AcDbEntity
  8
Kawneer Logo-English
100
AcDbHatch
 10
0.0
 20
0.0
 30
0.0
210
0.0
220
0.0
230
1.0
  2
SOLID
 70
     1
 71
     0
 91
        1
 92
        1
 93
       87
 72
     1
 10
1.049352086190046
 20
0.1525708704655737
 11
1.051217766852597
 21
0.1525708704655737
 72
     1
 10
1.051217766852596
 20
0.1525708704655737
 11
1.054949128177699
 21
0.1525708704655737
 72
     1
 10
1.0549491281777
 20
0.1525708704655737
 11
1.060173034032843
 21
0.1525708704655737
 72
     1
 10
1.060173034032843
 20
0.1525708704655737
 11
1.0667962003849
 21
0.1525708704655737
 72
     1
 10
1.0667962003849
 20
0.1525708704655737
 11
1.074352207068231
 21
0.1525708704655737
 72
     1
 10
1.074352207068232
 20
0.1525708704655737
 11
1.082747770049711
 21
0.1525708704655737
 72
     1
 10
1.082747770049711
 20
0.1525708704655737
 11
1.0915164691637
 21
0.1525708704655737
 72
     1
 10
1.091516469163701
 20
0.1525708704655737
 11
1.100565020377075
 21
0.1525708704655737
 72
     1
 10
1.100565020377073
 20
0.1525708704655737
 11
1.109520287557319
 21
0.1525708704655737
 72
     1
 10
1.10952028755732
 20
0.1525708704655737
 11
1.118195702638183
 21
0.1525708704655737
 72
     1
 10
1.118195702638182
 20
0.1525708704655737
 11
1.126218129487151
 21
0.1525708704655737
 72
     1
 10
1.126218129487152
 20
0.1525708704655737
 11
1.133401000037974
 21
0.1525708704655737
 72
     1
 10
1.133401000037974
 20
0.1525708704655737
 11
1.139557746224391
 21
0.1525708704655737
 72
     1
 10
1.139557746224392
 20
0.1525708704655737
 11
1.14422194788077
 21
0.1525708704655737
 72
     1
 10
1.144221947880769
 20
0.1525708704655737
 11
1.147207036940851
 21
0.1525708704655737
 72
     1
 10
1.147207036940852
 20
0.1525708704655737
 11
1.148233161305255
 21
0.1525708704655737
 72
     1
 10
1.148233161305255
 20
0.1525708704655737
 11
1.148233161305255
 21
0.1730000737205081
 72
     1
 10
1.148233161305255
 20
0.1730000737205078
 11
1.147207036940852
 21
0.1730000737205078
 72
     1
 10
1.147207036940852
 20
0.1730000737205078
 11
1.14422194788077
 21
0.1730000737205078
 72
     1
 10
1.144221947880769
 20
0.1730000737205078
 11
1.139557746224391
 21
0.1730000737205078
 72
     1
 10
1.139557746224392
 20
0.1730000737205078
 11
1.133494284071101
 21
0.1730000737205078
 72
     1
 10
1.133494284071101
 20
0.1730000737205078
 11
1.126218129487152
 21
0.1730000737205078
 72
     1
 10
1.126218129487152
 20
0.1730000737205078
 11
1.118195702638183
 21
0.1730000737205078
 72
     1
 10
1.118195702638182
 20
0.1730000737205078
 11
1.10952028755732
 21
0.1730000737205078
 72
     1
 10
1.10952028755732
 20
0.1730000737205078
 11
1.100565020377074
 21
0.1730000737205078
 72
     1
 10
1.100565020377073
 20
0.1730000737205078
 11
1.0915164691637
 21
0.1730000737205078
 72
     1
 10
1.091516469163701
 20
0.1730000737205078
 11
1.082747770049712
 21
0.1730000737205078
 72
     1
 10
1.082747770049711
 20
0.1730000737205078
 11
1.074352207068231
 21
0.1730000737205078
 72
     1
 10
1.074352207068232
 20
0.1730000737205078
 11
1.0667962003849
 21
0.1730000737205078
 72
     1
 10
1.0667962003849
 20
0.1730000737205078
 11
1.060173034032843
 21
0.1730000737205078
 72
     1
 10
1.060173034032843
 20
0.1730000737205078
 11
1.054949128177701
 21
0.1730000737205078
 72
     1
 10
1.0549491281777
 20
0.1730000737205078
 11
1.051217766852597
 21
0.1730000737205078
 72
     1
 10
1.051217766852596
 20
0.1730000737205078
 11
1.049352086190045
 21
0.1730000737205078
 72
     1
 10
1.049352086190046
 20
0.1730000737205078
 11
1.049352086190046
 21
0.1754254585818243
 72
     1
 10
1.049352086190046
 20
0.1754254585818245
 11
1.049352086190046
 21
0.1794366720063095
 72
     1
 10
1.049352086190046
 20
0.1794366720063094
 11
1.049352086190046
 21
0.1843807257620694
 72
     1
 10
1.049352086190046
 20
0.1843807257620694
 11
1.049352086190046
 21
0.1898844837165951
 72
     1
 10
1.049352086190046
 20
0.1898844837165951
 11
1.049352086190046
 21
0.1952949576379935
 72
     1
 10
1.049352086190046
 20
0.1952949576379937
 11
1.049352086190046
 21
0.2003322954268815
 72
     1
 10
1.049352086190046
 20
0.2003322954268814
 11
1.049352086190046
 21
0.2042502248182386
 72
     1
 10
1.049352086190046
 20
0.2042502248182386
 11
1.049352086190046
 21
0.206675609679555
 72
     1
 10
1.049352086190046
 20
0.206675609679555
 11
1.051217766852597
 21
0.206675609679555
 72
     1
 10
1.051217766852596
 20
0.206675609679555
 11
1.055042412210825
 21
0.206675609679555
 72
     1
 10
1.055042412210827
 20
0.206675609679555
 11
1.060452886132226
 21
0.206675609679555
 72
     1
 10
1.060452886132225
 20
0.206675609679555
 11
1.067169336517409
 21
0.206675609679555
 72
     1
 10
1.06716933651741
 20
0.206675609679555
 11
1.075005195300124
 21
0.206675609679555
 72
     1
 10
1.075005195300123
 20
0.206675609679555
 11
1.083494042314731
 21
0.206675609679555
 72
     1
 10
1.083494042314732
 20
0.206675609679555
 11
1.092542593528105
 21
0.206675609679555
 72
     1
 10
1.092542593528106
 20
0.206675609679555
 11
1.10187099684086
 21
0.206675609679555
 72
     1
 10
1.101870996840861
 20
0.206675609679555
 11
1.111106116120489
 21
0.206675609679555
 72
     1
 10
1.111106116120488
 20
0.206675609679555
 11
1.119968099267605
 21
0.206675609679555
 72
     1
 10
1.119968099267605
 20
0.206675609679555
 11
1.128270378215957
 21
0.206675609679555
 72
     1
 10
1.128270378215957
 20
0.206675609679555
 11
1.135639816833034
 21
0.206675609679555
 72
     1
 10
1.135639816833034
 20
0.206675609679555
 11
1.14188984705258
 21
0.206675609679555
 72
     1
 10
1.141889847052581
 20
0.206675609679555
 11
1.146647332742086
 21
0.206675609679555
 72
     1
 10
1.146647332742086
 20
0.206675609679555
 11
1.149725705835295
 21
0.206675609679555
 72
     1
 10
1.149725705835296
 20
0.206675609679555
 11
1.150845114232827
 21
0.206675609679555
 72
     1
 10
1.150845114232826
 20
0.206675609679555
 11
1.150845114232826
 21
0.2277578011663822
 72
     1
 10
1.150845114232826
 20
0.2277578011663825
 11
1.148326445338383
 21
0.2277578011663825
 72
     1
 10
1.148326445338383
 20
0.2277578011663825
 11
1.025937793875031
 21
0.2277578011663825
 72
     1
 10
1.025937793875032
 20
0.2277578011663825
 11
1.025937793875032
 21
0.0926825211976832
 72
     1
 10
1.025937793875032
 20
0.0926825211976832
 11
1.155602599922332
 21
0.0926825211976832
 72
     1
 10
1.155602599922332
 20
0.0926825211976832
 11
1.155602599922332
 21
0.113671428651383
 72
     1
 10
1.155602599922332
 20
0.1136714286513832
 11
1.154483191524801
 21
0.1136714286513832
 72
     1
 10
1.154483191524799
 20
0.1136714286513832
 11
1.151218250365336
 21
0.1136714286513832
 72
     1
 10
1.151218250365338
 20
0.1136714286513832
 11
1.146180912576449
 21
0.1136714286513832
 72
     1
 10
1.146180912576449
 20
0.1136714286513832
 11
1.13965103025752
 21
0.1136714286513832
 72
     1
 10
1.13965103025752
 20
0.1136714286513832
 11
1.131908455507932
 21
0.1136714286513832
 72
     1
 10
1.131908455507931
 20
0.1136714286513832
 11
1.12323304042707
 21
0.1136714286513832
 72
     1
 10
1.123233040427071
 20
0.1136714286513832
 11
1.113904637114314
 21
0.1136714286513832
 72
     1
 10
1.113904637114314
 20
0.1136714286513832
 11
1.104296381702177
 21
0.1136714286513832
 72
     1
 10
1.104296381702177
 20
0.1136714286513832
 11
1.094501558223783
 21
0.1136714286513832
 72
     1
 10
1.094501558223784
 20
0.1136714286513832
 11
1.085079870877901
 21
0.1136714286513832
 72
     1
 10
1.085079870877899
 20
0.1136714286513832
 11
1.076124603697654
 21
0.1136714286513832
 72
     1
 10
1.076124603697655
 20
0.1136714286513832
 11
1.067915608782429
 21
0.1136714286513832
 72
     1
 10
1.067915608782429
 20
0.1136714286513832
 11
1.060919306297863
 21
0.1136714286513832
 72
     1
 10
1.060919306297863
 20
0.1136714286513832
 11
1.055228980277083
 21
0.1136714286513832
 72
     1
 10
1.055228980277082
 20
0.1136714286513832
 11
1.051311050885725
 21
0.1136714286513832
 72
     1
 10
1.051311050885726
 20
0.1136714286513832
 11
1.049352086190046
 21
0.1136714286513832
 72
     1
 10
1.049352086190046
 20
0.1136714286513832
 11
1.049352086190046
 21
0.1163766656120825
 72
     1
 10
1.049352086190046
 20
0.1163766656120823
 11
1.049352086190046
 21
0.1209475832353323
 72
     1
 10
1.049352086190046
 20
0.1209475832353325
 11
1.049352086190046
 21
0.1267311932892411
 72
     1
 10
1.049352086190046
 20
0.1267311932892408
 11
1.049352086190046
 21
0.1330745075419143
 72
     1
 10
1.049352086190046
 20
0.1330745075419144
 11
1.049352086190046
 21
0.1395111058277156
 72
     1
 10
1.049352086190046
 20
0.1395111058277158
 11
1.049352086190046
 21
0.1452947158816239
 72
     1
 10
1.049352086190046
 20
0.145294715881624
 11
1.049352086190046
 21
0.1498656335048746
 72
     1
 10
1.049352086190046
 20
0.1498656335048745
 11
1.049352086190046
 21
0.1525708704655738
 97
        0
 75
     0
 76
     1
 98
        1
 10
-0.3743130907707726
 20
-0.2500502867693841
1001
ACAD
1010
0.0
1020
0.0
1030
0.0
  0
HATCH
  5
10239
330
10232
100
AcDbEntity
  8
Kawneer Logo-English
100
AcDbHatch
 10
0.0
 20
0.0
 30
0.0
210
0.0
220
0.0
230
1.0
  2
SOLID
 70
     1
 71
     0
 91
        1
 92
        1
 93
       42
 72
     1
 10
0.9725793269260698
 20
0.2277578011663825
 11
0.9725793269260698
 21
0.1354998924032311
 72
     1
 10
0.9725793269260698
 20
0.1354998924032311
 11
0.9729524630585808
 21
0.1264513411898582
 72
     1
 10
0.9729524630585796
 20
0.1264513411898583
 11
0.9729524630585796
 21
0.1255185008585825
 72
     1
 10
0.9729524630585796
 20
0.1255185008585824
 11
0.9731390311248343
 21
0.1238393882622866
 72
     1
 10
0.9731390311248349
 20
0.1238393882622866
 11
0.9717397706279211
 21
0.1254252168254551
 72
     1
 10
0.97173977062792
 20
0.1254252168254551
 11
0.9710867823960281
 21
0.1262647731236031
 72
     1
 10
0.9710867823960294
 20
0.1262647731236031
 11
0.9641837639445897
 21
0.1339140638400625
 72
     1
 10
0.9641837639445899
 20
0.1339140638400624
 11
0.8755639324734129
 21
0.2277578011663823
 72
     1
 10
0.8755639324734115
 20
0.2277578011663825
 11
0.8529891964565429
 21
0.2277578011663825
 72
     1
 10
0.8529891964565434
 20
0.2277578011663825
 11
0.8529891964565434
 21
0.0926825211976832
 72
     1
 10
0.8529891964565434
 20
0.0926825211976832
 11
0.8756572165065401
 21
0.0926825211976832
 72
     1
 10
0.875657216506541
 20
0.0926825211976832
 11
0.875657216506541
 21
0.1927762887435495
 72
     1
 10
0.875657216506541
 20
0.1927762887435495
 11
0.875657216506541
 21
0.1931494248760597
 72
     1
 10
0.875657216506541
 20
0.1931494248760596
 11
0.8755639324734129
 21
0.193988981174208
 72
     1
 10
0.8755639324734115
 20
0.1939889811742079
 11
0.8754706484402849
 21
0.1952949576379935
 72
     1
 10
0.8754706484402859
 20
0.1952949576379937
 11
0.8753773644071577
 21
0.1967875021680344
 72
     1
 10
0.875377364407158
 20
0.1967875021680343
 11
0.8755639324734126
 21
0.1965076500686515
 72
     1
 10
0.8755639324734115
 20
0.1965076500686517
 11
0.8756572165065396
 21
0.1963210820023967
 72
     1
 10
0.875657216506541
 20
0.1963210820023967
 11
0.8764967728046894
 21
0.1954815257042487
 72
     1
 10
0.8764967728046887
 20
0.1954815257042488
 11
0.8781758854009835
 21
0.1936158450416976
 72
     1
 10
0.8781758854009842
 20
0.1936158450416973
 11
0.8797617139641527
 21
0.1917501643791464
 72
     1
 10
0.879761713964152
 20
0.1917501643791466
 11
0.8805079862291723
 21
0.1909106080809982
 72
     1
 10
0.8805079862291727
 20
0.190910608080998
 11
0.8816273946267036
 21
0.1897911996834678
 72
     1
 10
0.8816273946267028
 20
0.1897911996834681
 11
0.884519199653657
 21
0.1867128265902584
 72
     1
 10
0.8845191996536581
 20
0.1867128265902582
 11
0.8891834013100353
 21
0.1818620568676254
 72
     1
 10
0.889183401310035
 20
0.1818620568676252
 11
0.8951535794301982
 21
0.1756120266480794
 72
     1
 10
0.8951535794301985
 20
0.1756120266480794
 11
0.9021498819147662
 21
0.1681493039978751
 72
     1
 10
0.9021498819147669
 20
0.1681493039978752
 11
0.9099857406974814
 21
0.1598470250495227
 72
     1
 10
0.9099857406974813
 20
0.1598470250495225
 11
0.9183813036789613
 21
0.1509850419024051
 72
     1
 10
0.9183813036789612
 20
0.1509850419024052
 11
0.9271500027929521
 21
0.1418432066559046
 72
     1
 10
0.9271500027929509
 20
0.1418432066559046
 11
0.9358254178738118
 21
0.1326080873762767
 72
     1
 10
0.9358254178738132
 20
0.1326080873762767
 11
0.9442209808552931
 21
0.1237461042291589
 72
     1
 10
0.9442209808552931
 20
0.1237461042291589
 11
0.9520568396380092
 21
0.1154438252808068
 72
     1
 10
0.9520568396380092
 20
0.1154438252808068
 11
0.9590531421225751
 21
0.1079811026306025
 72
     1
 10
0.959053142122574
 20
0.1079811026306024
 11
0.9650233202427372
 21
0.101731072411056
 72
     1
 10
0.9650233202427376
 20
0.101731072411056
 11
0.9695942378659868
 21
0.0968803026884232
 72
     1
 10
0.9695942378659871
 20
0.096880302688423
 11
0.9725793269260696
 21
0.0938019295952138
 72
     1
 10
0.9725793269260698
 20
0.093801929595214
 11
0.9736054512904727
 21
0.0926825211976834
 72
     1
 10
0.9736054512904726
 20
0.0926825211976832
 11
0.9952473469760661
 21
0.0926825211976832
 72
     1
 10
0.9952473469760651
 20
0.0926825211976832
 11
0.9952473469760651
 21
0.2277578011663825
 72
     1
 10
0.9952473469760651
 20
0.2277578011663825
 11
0.9927286780816201
 21
0.2277578011663825
 72
     1
 10
0.9927286780816203
 20
0.2277578011663825
 11
0.9725793269260686
 21
0.2277578011663825
 97
        0
 75
     0
 76
     1
 98
        1
 10
-0.3743130907707726
 20
-0.2500502867693841
1001
ACAD
1010
0.0
1020
0.0
1030
0.0
  0
HATCH
  5
1023A
330
10232
100
AcDbEntity
  8
Kawneer Logo-English
100
AcDbHatch
 10
0.0
 20
0.0
 30
0.0
210
0.0
220
0.0
230
1.0
  2
SOLID
 70
     1
 71
     0
 91
        2
 92
       16
 93
       32
 72
     1
 10
0.5269615006757409
 20
0.144641727649731
 11
0.5290137494045469
 21
0.148652941074216
 72
     1
 10
0.5290137494045464
 20
0.1486529410742159
 11
0.5322786905640116
 21
0.1551828233931449
 72
     1
 10
0.532278690564012
 20
0.1551828233931452
 11
0.5364764720547521
 21
0.1633918183083696
 72
     1
 10
0.5364764720547526
 20
0.1633918183083696
 11
0.5409541056448736
 21
0.1722538014554874
 72
     1
 10
0.5409541056448726
 20
0.1722538014554873
 11
0.545338455201869
 21
0.1808359325032223
 72
     1
 10
0.5453384552018701
 20
0.1808359325032223
 11
0.5490698165269726
 21
0.1882053711202994
 72
     1
 10
0.549069816526973
 20
0.1882053711202996
 11
0.5515884854214162
 21
0.1932427089091875
 72
     1
 10
0.5515884854214148
 20
0.1932427089091872
 11
0.5526146097858177
 21
0.1952016736048658
 72
     1
 10
0.5526146097858194
 20
0.1952016736048658
 11
0.552801177852074
 21
0.195761377803631
 72
     1
 10
0.5528011778520723
 20
0.1957613778036309
 11
0.5533608820508379
 21
0.1970673542674166
 72
     1
 10
0.5533608820508378
 20
0.1970673542674169
 11
0.5542004383489863
 21
0.1990263189630955
 72
     1
 10
0.5542004383489872
 20
0.1990263189630952
 11
0.5550399946471356
 21
0.2012651357581567
 72
     1
 10
0.5550399946471352
 20
0.2012651357581567
 11
0.5555064148127727
 21
0.2001457273606265
 72
     1
 10
0.5555064148127729
 20
0.2001457273606264
 11
0.5560661190115385
 21
0.198933034929968
 72
     1
 10
0.5560661190115379
 20
0.198933034929968
 11
0.5567191072434298
 21
0.197533774433055
 72
     1
 10
0.5567191072434304
 20
0.197533774433055
 11
0.5574653795084506
 21
0.1959479458698865
 72
     1
 10
0.557465379508451
 20
0.1959479458698865
 11
0.5583049358065995
 21
0.1942688332735902
 72
     1
 10
0.5583049358065986
 20
0.1942688332735903
 11
0.5606370366347874
 21
0.1896046316172126
 72
     1
 10
0.5606370366347871
 20
0.1896046316172126
 11
0.5639952618273804
 21
0.1828881812320289
 72
     1
 10
0.5639952618273814
 20
0.1828881812320287
 11
0.5680064752518651
 21
0.1748657543830587
 72
     1
 10
0.5680064752518637
 20
0.1748657543830589
 11
0.57239082480886
 21
0.1661903393021966
 72
     1
 10
0.5723908248088612
 20
0.1661903393021967
 11
0.5765886062996012
 21
0.1577947763207168
 72
     1
 10
0.5765886062996
 20
0.1577947763207165
 11
0.5803199676247008
 21
0.1503320536705122
 72
     1
 10
0.5803199676247015
 20
0.1503320536705122
 11
0.5831184886185295
 21
0.144641727649731
 72
     1
 10
0.5831184886185295
 20
0.144641727649731
 11
0.5791072751940441
 21
0.144641727649731
 72
     1
 10
0.5791072751940436
 20
0.144641727649731
 11
0.5724841088419869
 21
0.144641727649731
 72
     1
 10
0.5724841088419872
 20
0.144641727649731
 11
0.5641818298936356
 21
0.144641727649731
 72
     1
 10
0.5641818298936352
 20
0.144641727649731
 11
0.5550399946471351
 21
0.144641727649731
 72
     1
 10
0.5550399946471352
 20
0.144641727649731
 11
0.5458981594006351
 21
0.144641727649731
 72
     1
 10
0.5458981594006352
 20
0.144641727649731
 11
0.5375958804522815
 21
0.144641727649731
 72
     1
 10
0.5375958804522814
 20
0.144641727649731
 11
0.5310659981333528
 21
0.144641727649731
 72
     1
 10
0.5310659981333524
 20
0.144641727649731
 11
0.5269615006757405
 21
0.144641727649731
 97
        0
 92
        1
 93
      141
 72
     1
 10
0.5656743744236757
 20
0.2277578011663825
 11
0.544405614870593
 21
0.2277578011663825
 72
     1
 10
0.544405614870593
 20
0.2277578011663825
 11
0.4748157261574382
 21
0.0934287934627039
 72
     1
 10
0.4748157261574378
 20
0.0934287934627039
 11
0.4729500454948865
 21
0.0955743262246376
 72
     1
 10
0.4729500454948874
 20
0.0955743262246376
 11
0.4699649564348049
 21
0.0991191194834847
 72
     1
 10
0.4699649564348043
 20
0.0991191194834847
 11
0.4661403110765752
 21
0.1036900371067346
 72
     1
 10
0.4661403110765754
 20
0.1036900371067347
 11
0.4615693934533244
 21
0.1091005110281331
 72
     1
 10
0.461569393453325
 20
0.109100511028133
 11
0.456345487598182
 21
0.1152572572145517
 72
     1
 10
0.4563454875981812
 20
0.1152572572145516
 11
0.4506551615774008
 21
0.1219737075997353
 72
     1
 10
0.4506551615774015
 20
0.1219737075997354
 11
0.4447782674903648
 21
0.1290632941174296
 72
     1
 10
0.4447782674903636
 20
0.1290632941174296
 11
0.4387148053370722
 21
0.1362461646682511
 72
     1
 10
0.4387148053370727
 20
0.1362461646682512
 11
0.4326513431837832
 21
0.1433357511859454
 72
     1
 10
0.4326513431837844
 20
0.1433357511859453
 11
0.4268677331298759
 21
0.1502387696373844
 72
     1
 10
0.4268677331298756
 20
0.1502387696373844
 11
0.4214572592084763
 21
0.1566753679231857
 72
     1
 10
0.4214572592084754
 20
0.1566753679231858
 11
0.4165132054527153
 21
0.1625522620102216
 72
     1
 10
0.4165132054527163
 20
0.1625522620102216
 11
0.4123154239619763
 21
0.1674963157659821
 72
     1
 10
0.4123154239619753
 20
0.1674963157659822
 11
0.4088639147362555
 21
0.1715075291904667
 72
     1
 10
0.4088639147362568
 20
0.1715075291904669
 11
0.4065318139080681
 21
0.1743993342174211
 72
     1
 10
0.4065318139080665
 20
0.1743993342174211
 11
0.405319121477409
 21
0.1757985947143345
 72
     1
 10
0.4053191214774104
 20
0.1757985947143345
 11
0.4067183819743243
 21
0.1769180031118651
 72
     1
 10
0.4067183819743235
 20
0.1769180031118651
 11
0.4094236189350213
 21
0.1788769678075437
 72
     1
 10
0.4094236189350218
 20
0.1788769678075437
 11
0.4132482642932526
 21
0.1816754888013702
 72
     1
 10
0.4132482642932525
 20
0.1816754888013703
 11
0.4179124659496298
 21
0.1852202820602174
 72
     1
 10
0.417912465949629
 20
0.1852202820602174
 11
0.4232296558379
 21
0.189138211451575
 72
     1
 10
0.4232296558379001
 20
0.1891382114515751
 11
0.4291065499249351
 21
0.1935225610085696
 72
     1
 10
0.4291065499249367
 20
0.1935225610085698
 11
0.4352632961113562
 21
0.1981867626649482
 72
     1
 10
0.4352632961113554
 20
0.1981867626649479
 11
0.4416066103640296
 21
0.2028509643213252
 72
     1
 10
0.4416066103640293
 20
0.2028509643213252
 11
0.4479499246167016
 21
0.2076084500108307
 72
     1
 10
0.4479499246167018
 20
0.2076084500108307
 11
0.4540133867699932
 21
0.2120860836009535
 72
     1
 10
0.4540133867699927
 20
0.2120860836009535
 11
0.4596104287576467
 21
0.2162838650916932
 72
     1
 10
0.4596104287576468
 20
0.216283865091693
 11
0.4646477665465351
 21
0.2200152264167952
 72
     1
 10
0.464647766546535
 20
0.2200152264167951
 11
0.4689388320704013
 21
0.223186883543132
 72
     1
 10
0.4689388320704016
 20
0.2231868835431323
 11
0.4721104891967386
 21
0.2256122684044488
 72
     1
 10
0.4721104891967376
 20
0.2256122684044488
 11
0.4742560219586717
 21
0.2271980969676172
 72
     1
 10
0.4742560219586727
 20
0.2271980969676173
 11
0.475002294223693
 21
0.2277578011663825
 72
     1
 10
0.4750022942236929
 20
0.2277578011663825
 11
0.4674462875403612
 21
0.2277578011663825
 72
     1
 10
0.4674462875403611
 20
0.2277578011663825
 11
0.4395543616352215
 21
0.2277578011663825
 72
     1
 10
0.439554361635222
 20
0.2277578011663825
 11
0.4386215213039473
 21
0.2270115289013622
 72
     1
 10
0.4386215213039466
 20
0.2270115289013622
 11
0.4359162843432469
 21
0.2250525642056836
 72
     1
 10
0.4359162843432465
 20
0.2250525642056836
 11
0.4318117868856346
 21
0.2220674751456017
 72
     1
 10
0.4318117868856351
 20
0.2220674751456017
 11
0.4264013129642376
 21
0.2180562617211167
 72
     1
 10
0.4264013129642379
 20
0.2180562617211168
 11
0.4200579987115638
 21
0.2132987760316117
 72
     1
 10
0.4200579987115641
 20
0.2132987760316114
 11
0.4128751281607416
 21
0.2079815861433408
 72
     1
 10
0.4128751281607408
 20
0.2079815861433408
 11
0.4051325534111546
 21
0.20229126012256
 72
     1
 10
0.4051325534111552
 20
0.20229126012256
 11
0.397016842529058
 21
0.1963210820023964
 72
     1
 10
0.3970168425290583
 20
0.1963210820023967
 11
0.3889011316469611
 21
0.1903509038822331
 72
     1
 10
0.3889011316469611
 20
0.190350903882233
 11
0.3808787047979902
 21
0.1844740097951972
 72
     1
 10
0.3808787047979898
 20
0.1844740097951974
 11
0.3733226981146581
 21
0.1787836837744166
 72
     1
 10
0.373322698114658
 20
0.1787836837744166
 11
0.3663263956300919
 21
0.173653061952401
 72
     1
 10
0.3663263956300931
 20
0.173653061952401
 11
0.3601696494436735
 21
0.169082144329151
 72
     1
 10
0.3601696494436726
 20
0.1690821443291508
 11
0.3550390276216579
 21
0.1653507830040483
 72
     1
 10
0.3550390276216584
 20
0.1653507830040482
 11
0.3513076662965558
 21
0.1625522620102218
 72
     1
 10
0.3513076662965551
 20
0.1625522620102216
 11
0.3490688495014928
 21
0.1609664334470531
 72
     1
 10
0.3490688495014926
 20
0.1609664334470531
 11
0.3490688495014926
 21
0.1631119662089868
 72
     1
 10
0.3490688495014926
 20
0.1631119662089868
 11
0.3490688495014926
 21
0.1662836233353237
 72
     1
 10
0.3490688495014926
 20
0.1662836233353238
 11
0.3490688495014926
 21
0.1702948367598088
 72
     1
 10
0.3490688495014926
 20
0.1702948367598088
 11
0.3490688495014926
 21
0.1749590384161865
 72
     1
 10
0.3490688495014926
 20
0.1749590384161865
 11
0.3490688495014926
 21
0.1801829442713294
 72
     1
 10
0.3490688495014926
 20
0.1801829442713296
 11
0.3490688495014926
 21
0.185779986258983
 72
     1
 10
0.3490688495014926
 20
0.1857799862589829
 11
0.3490688495014926
 21
0.1916568803460187
 72
     1
 10
0.3490688495014926
 20
0.1916568803460186
 11
0.3490688495014926
 21
0.1975337744330549
 72
     1
 10
0.3490688495014926
 20
0.197533774433055
 11
0.3490688495014926
 21
0.2033173844869632
 72
     1
 10
0.3490688495014926
 20
0.2033173844869631
 11
0.3490688495014926
 21
0.2088211424414888
 72
     1
 10
0.3490688495014926
 20
0.2088211424414888
 11
0.3490688495014926
 21
0.2139517642635044
 72
     1
 10
0.3490688495014926
 20
0.2139517642635044
 11
0.3490688495014926
 21
0.2185226818867544
 72
     1
 10
0.3490688495014926
 20
0.2185226818867545
 11
0.3490688495014926
 21
0.2222540432118567
 72
     1
 10
0.3490688495014926
 20
0.2222540432118567
 11
0.3490688495014926
 21
0.2252391322719387
 72
     1
 10
0.3490688495014926
 20
0.2252391322719387
 11
0.3490688495014926
 21
0.2271048129344895
 72
     1
 10
0.3490688495014926
 20
0.2271048129344895
 11
0.3490688495014926
 21
0.2277578011663825
 72
     1
 10
0.3490688495014926
 20
0.2277578011663825
 11
0.3258411252527322
 21
0.2277578011663825
 72
     1
 10
0.3258411252527336
 20
0.2277578011663825
 11
0.3258411252527336
 21
0.0926825211976832
 72
     1
 10
0.3258411252527336
 20
0.0926825211976832
 11
0.3486957133689848
 21
0.0926825211976832
 72
     1
 10
0.3486957133689845
 20
0.0926825211976832
 11
0.3486957133689845
 21
0.0943616337939795
 72
     1
 10
0.3486957133689845
 20
0.0943616337939795
 11
0.3486957133689845
 21
0.0988392673841017
 72
     1
 10
0.3486957133689845
 20
0.0988392673841017
 11
0.3486957133689845
 21
0.1051825816367752
 72
     1
 10
0.3486957133689845
 20
0.1051825816367753
 11
0.3486957133689845
 21
0.1125520202538523
 72
     1
 10
0.3486957133689845
 20
0.1125520202538524
 11
0.3486957133689845
 21
0.1200147429040567
 72
     1
 10
0.3486957133689845
 20
0.1200147429040567
 11
0.3486957133689845
 21
0.1267311932892408
 72
     1
 10
0.3486957133689845
 20
0.1267311932892408
 11
0.3486957133689845
 21
0.1317685310781287
 72
     1
 10
0.3486957133689845
 20
0.1317685310781289
 11
0.3486957133689845
 21
0.1342871999725727
 72
     1
 10
0.3486957133689845
 20
0.1342871999725725
 11
0.3507479620977905
 21
0.1356864604694859
 72
     1
 10
0.35074796209779
 20
0.1356864604694859
 11
0.3548524595554018
 21
0.1387648335626952
 72
     1
 10
0.3548524595554015
 20
0.1387648335626952
 11
0.3605427855761835
 21
0.1428693310203079
 72
     1
 10
0.3605427855761842
 20
0.1428693310203079
 11
0.3668860998288565
 21
0.1476268167098129
 72
     1
 10
0.3668860998288568
 20
0.1476268167098129
 11
0.373322698114659
 21
0.1522910183661906
 72
     1
 10
0.373322698114658
 20
0.1522910183661908
 11
0.3791995922016947
 21
0.1565820838900582
 72
     1
 10
0.3791995922016946
 20
0.1565820838900582
 11
0.3836772257918156
 21
0.1599403090826502
 72
     1
 10
0.3836772257918159
 20
0.1599403090826503
 11
0.386195894686261
 21
0.1618059897452011
 72
     1
 10
0.3861958946862609
 20
0.1618059897452011
 11
0.3873153030837921
 21
0.1604067292482882
 72
     1
 10
0.3873153030837915
 20
0.1604067292482878
 11
0.3894608358457238
 21
0.1577947763207163
 72
     1
 10
0.3894608358457248
 20
0.1577947763207165
 11
0.3925392089389353
 21
0.1541566990287417
 72
     1
 10
0.3925392089389348
 20
0.1541566990287417
 11
0.396457138330292
 21
0.149492497372364
 72
     1
 10
0.3964571383302933
 20
0.149492497372364
 11
0.4009347719204161
 21
0.1442685915172211
 72
     1
 10
0.4009347719204146
 20
0.1442685915172209
 11
0.4057855416430466
 21
0.138391697430185
 72
     1
 10
0.4057855416430463
 20
0.1383916974301853
 11
0.4109161634650628
 21
0.1322349512437666
 72
     1
 10
0.410916163465064
 20
0.1322349512437666
 11
0.4162333533533335
 21
0.1259849210242201
 72
     1
 10
0.4162333533533334
 20
0.1259849210242201
 11
0.4215505432416044
 21
0.1196416067715466
 72
     1
 10
0.4215505432416045
 20
0.1196416067715466
 11
0.4265878810304927
 21
0.113671428651383
 72
     1
 10
0.4265878810304931
 20
0.1136714286513832
 11
0.4312520826868704
 21
0.1079811026306024
 72
     1
 10
0.4312520826868696
 20
0.1079811026306024
 11
0.4355431482107378
 21
0.1029437648417141
 72
     1
 10
0.435543148210738
 20
0.1029437648417139
 11
0.4390879414695842
 21
0.0987459833509739
 72
     1
 10
0.4390879414695843
 20
0.0987459833509741
 11
0.4417931784302841
 21
0.0954810421915098
 72
     1
 10
0.4417931784302845
 20
0.0954810421915096
 11
0.4435655750597076
 21
0.0934287934627037
 72
     1
 10
0.4435655750597074
 20
0.0934287934627039
 11
0.4442185632915993
 21
0.0926825211976832
 72
     1
 10
0.4442185632915985
 20
0.0926825211976832
 11
0.4743493059918004
 21
0.0926825211976832
 72
     1
 10
0.4743493059918001
 20
0.0926825211976832
 11
0.4753754303562029
 21
0.0926825211976832
 72
     1
 10
0.4753754303562033
 20
0.0926825211976832
 11
0.5008419714000258
 21
0.0926825211976832
 72
     1
 10
0.5008419714000265
 20
0.0926825211976832
 11
0.5014949596319184
 21
0.0939884976614689
 72
     1
 10
0.501494959631919
 20
0.0939884976614688
 11
0.5031740722282155
 21
0.0973467228540609
 72
     1
 10
0.503174072228215
 20
0.0973467228540612
 11
0.5055061730564038
 21
0.1021042085435666
 72
     1
 10
0.505506173056403
 20
0.1021042085435665
 11
0.5083046940502291
 21
0.1077012505312196
 72
     1
 10
0.5083046940502292
 20
0.1077012505312194
 11
0.5111032150440553
 21
0.1134848605851279
 72
     1
 10
0.5111032150440549
 20
0.1134848605851281
 11
0.5137151679716264
 21
0.1186154824071433
 72
     1
 10
0.5137151679716277
 20
0.1186154824071433
 11
0.5156741326673071
 21
0.1226266958316283
 72
     1
 10
0.5156741326673076
 20
0.122626695831628
 11
0.5167002570317104
 21
0.1247722285935621
 72
     1
 10
0.5167002570317103
 20
0.1247722285935622
 11
0.5180062334954961
 21
0.1247722285935622
 72
     1
 10
0.5180062334954961
 20
0.1247722285935622
 11
0.5207114704561957
 21
0.1247722285935622
 72
     1
 10
0.5207114704561944
 20
0.1247722285935622
 11
0.5246293998475517
 21
0.1247722285935622
 72
     1
 10
0.5246293998475525
 20
0.1247722285935622
 11
0.5295734536033125
 21
0.1247722285935622
 72
     1
 10
0.5295734536033115
 20
0.1247722285935622
 11
0.5352637796240919
 21
0.1247722285935622
 72
     1
 10
0.5352637796240929
 20
0.1247722285935622
 11
0.5415138098436386
 21
0.1247722285935622
 72
     1
 10
0.5415138098436394
 20
0.1247722285935622
 11
0.5482302602288245
 21
0.1247722285935622
 72
     1
 10
0.5482302602288236
 20
0.1247722285935622
 11
0.5551332786802616
 21
0.1247722285935622
 72
     1
 10
0.5551332786802608
 20
0.1247722285935622
 11
0.5620362971317004
 21
0.1247722285935622
 72
     1
 10
0.5620362971317015
 20
0.1247722285935622
 11
0.5687527475168847
 21
0.1247722285935622
 72
     1
 10
0.5687527475168839
 20
0.1247722285935622
 11
0.5750027777364317
 21
0.1247722285935622
 72
     1
 10
0.5750027777364322
 20
0.1247722285935622
 11
0.5806931037572126
 21
0.1247722285935622
 72
     1
 10
0.5806931037572119
 20
0.1247722285935622
 11
0.585637157512972
 21
0.1247722285935622
 72
     1
 10
0.5856371575129727
 20
0.1247722285935622
 11
0.5895550869043299
 21
0.1247722285935622
 72
     1
 10
0.5895550869043289
 20
0.1247722285935622
 11
0.5922603238650286
 21
0.1247722285935622
 72
     1
 10
0.5922603238650291
 20
0.1247722285935622
 11
0.5935663003288148
 21
0.1247722285935622
 72
     1
 10
0.5935663003288148
 20
0.1247722285935622
 11
0.5945924246932176
 21
0.1226266958316281
 72
     1
 10
0.5945924246932175
 20
0.122626695831628
 11
0.5965513893888953
 21
0.1186154824071431
 72
     1
 10
0.5965513893888957
 20
0.1186154824071433
 11
0.5991633423164672
 21
0.1134848605851281
 72
     1
 10
0.5991633423164667
 20
0.1134848605851281
 11
0.6019618633102946
 21
0.1077012505312196
 72
     1
 10
0.6019618633102959
 20
0.1077012505312194
 11
0.604760384304122
 21
0.1021042085435664
 72
     1
 10
0.6047603843041221
 20
0.1021042085435665
 11
0.6070924851323109
 21
0.0973467228540611
 72
     1
 10
0.6070924851323101
 20
0.0973467228540612
 11
0.6087715977286067
 21
0.0939884976614691
 72
     1
 10
0.6087715977286062
 20
0.0939884976614688
 11
0.609424585960498
 21
0.0926825211976832
 72
     1
 10
0.6094245859604986
 20
0.0926825211976832
 11
0.6363836715343633
 21
0.0926825211976832
 72
     1
 10
0.6363836715343641
 20
0.0926825211976832
 11
0.5671669189537184
 21
0.2277578011663825
 72
     1
 10
0.5671669189537179
 20
0.2277578011663825
 11
0.5656743744236758
 21
0.2277578011663825
 97
        0
 75
     0
 76
     1
 98
        1
 10
-0.3743130907707726
 20
-0.2500502867693841
1001
ACAD
1010
0.0
1020
0.0
1030
0.0
  0
HATCH
  5
1023B
330
10232
100
AcDbEntity
  8
Kawneer Logo-English
100
AcDbHatch
 10
0.0
 20
0.0
 30
0.0
210
0.0
220
0.0
230
1.0
  2
SOLID
 70
     1
 71
     0
 91
        1
 92
        1
 93
       69
 72
     1
 10
0.8092389849197205
 20
0.2277578011663825
 11
0.778921674153266
 21
0.1309289747799811
 72
     1
 10
0.778921674153267
 20
0.1309289747799809
 11
0.7781754018882468
 21
0.1287834420180468
 72
     1
 10
0.7781754018882468
 20
0.1287834420180467
 11
0.7776156976894812
 21
0.1270110453886236
 72
     1
 10
0.7776156976894813
 20
0.1270110453886237
 11
0.7771492775238438
 21
0.1253319327923275
 72
     1
 10
0.7771492775238436
 20
0.1253319327923274
 11
0.7766828573582045
 21
0.1238393882622867
 72
     1
 10
0.7766828573582046
 20
0.1238393882622866
 11
0.7764030052588217
 21
0.1248655126266895
 72
     1
 10
0.776403005258822
 20
0.1248655126266896
 11
0.7761231531594392
 21
0.1259849210242202
 72
     1
 10
0.7761231531594391
 20
0.1259849210242201
 11
0.7759365850931844
 21
0.1268244773223681
 72
     1
 10
0.7759365850931843
 20
0.1268244773223682
 11
0.7758433010600562
 21
0.1271976134548783
 72
     1
 10
0.7758433010600552
 20
0.1271976134548783
 11
0.7755634489606744
 21
0.1280371697530267
 72
     1
 10
0.775563448960674
 20
0.1280371697530267
 11
0.7750970287950349
 21
0.1291565781505569
 72
     1
 10
0.7750970287950363
 20
0.1291565781505568
 11
0.773977620397507
 21
0.1323282352768938
 72
     1
 10
0.7739776203975062
 20
0.1323282352768939
 11
0.7721119397349549
 21
0.1372722890326544
 72
     1
 10
0.7721119397349554
 20
0.1372722890326546
 11
0.7697798389067666
 21
0.1436156032853281
 72
     1
 10
0.769779838906767
 20
0.1436156032853281
 11
0.7670746019460673
 21
0.1511716099686602
 72
     1
 10
0.7670746019460668
 20
0.15117160996866
 11
0.7639962288528581
 21
0.1595671729501399
 72
     1
 10
0.7639962288528582
 20
0.15956717295014
 11
0.7606380036602665
 21
0.1686157241635125
 72
     1
 10
0.7606380036602652
 20
0.1686157241635125
 11
0.7572797784676718
 21
0.1778508434431408
 72
     1
 10
0.7572797784676726
 20
0.1778508434431408
 11
0.753921553275081
 21
0.187179246755896
 72
     1
 10
0.7539215532750814
 20
0.1871792467558961
 11
0.7505633280824898
 21
0.1962277979692689
 72
     1
 10
0.7505633280824902
 20
0.1962277979692689
 11
0.7474849549892814
 21
0.2046233609507488
 72
     1
 10
0.7474849549892797
 20
0.2046233609507488
 11
0.74477971802858
 21
0.2121793676340809
 72
     1
 10
0.7447797180285814
 20
0.2121793676340809
 11
0.7424476172003926
 21
0.2185226818867544
 72
     1
 10
0.7424476172003929
 20
0.2185226818867545
 11
0.7405819365378416
 21
0.2234667356425151
 72
     1
 10
0.7405819365378408
 20
0.2234667356425151
 11
0.7394625281403098
 21
0.2266383927688516
 72
     1
 10
0.7394625281403103
 20
0.2266383927688516
 11
0.7390893920078009
 21
0.2277578011663822
 72
     1
 10
0.7390893920078004
 20
0.2277578011663825
 11
0.7191266089185034
 21
0.2277578011663825
 72
     1
 10
0.7191266089185029
 20
0.2277578011663825
 11
0.6843316645619254
 21
0.1336342117406798
 72
     1
 10
0.6843316645619267
 20
0.1336342117406795
 11
0.6832122561643957
 21
0.130649122680598
 72
     1
 10
0.6832122561643961
 20
0.1306491226805981
 11
0.6823726998662476
 21
0.1282237378192816
 72
     1
 10
0.6823726998662468
 20
0.1282237378192818
 11
0.6817197116343549
 21
0.1260782050573481
 72
     1
 10
0.6817197116343552
 20
0.1260782050573481
 11
0.6811600074355896
 21
0.1241192403616695
 72
     1
 10
0.6811600074355884
 20
0.1241192403616695
 11
0.6808801553362055
 21
0.1250520806929446
 72
     1
 10
0.6808801553362059
 20
0.1250520806929445
 11
0.6805070192036949
 21
0.1261714890904751
 72
     1
 10
0.680507019203696
 20
0.1261714890904752
 11
0.6802271671043131
 21
0.1272908974880058
 72
     1
 10
0.680227167104313
 20
0.1272908974880061
 11
0.6798540309718037
 21
0.1286901579849195
 72
     1
 10
0.6798540309718031
 20
0.1286901579849194
 11
0.6794808948392922
 21
0.12980956638245
 72
     1
 10
0.6794808948392932
 20
0.1298095663824503
 11
0.6784547704748904
 21
0.1328879394756595
 72
     1
 10
0.67845477047489
 20
0.1328879394756595
 11
0.6769622259448497
 21
0.1378319932314196
 72
     1
 10
0.6769622259448496
 20
0.1378319932314196
 11
0.6750032612491701
 21
0.1441753074840938
 72
     1
 10
0.6750032612491697
 20
0.1441753074840937
 11
0.6725778763878547
 21
0.1516380301342981
 72
     1
 10
0.6725778763878556
 20
0.1516380301342981
 11
0.6699659234602841
 21
0.160033593115778
 72
     1
 10
0.6699659234602829
 20
0.160033593115778
 11
0.6671674024664549
 21
0.168988860296023
 72
     1
 10
0.6671674024664554
 20
0.168988860296023
 11
0.6642755974395012
 21
0.1782239795756509
 72
     1
 10
0.6642755974395019
 20
0.178223979575651
 11
0.6613837924125477
 21
0.1874590988552789
 72
     1
 10
0.6613837924125466
 20
0.1874590988552789
 11
0.6585852714187205
 21
0.1964143660355239
 72
     1
 10
0.6585852714187204
 20
0.1964143660355237
 11
0.6559733184911489
 21
0.2047166449838762
 72
     1
 10
0.6559733184911494
 20
0.2047166449838765
 11
0.6536412176629606
 21
0.2122726516672082
 72
     1
 10
0.6536412176629614
 20
0.2122726516672082
 11
0.6515889689341538
 21
0.2186159659198823
 72
     1
 10
0.6515889689341537
 20
0.2186159659198821
 11
0.6500964244041133
 21
0.2234667356425149
 72
     1
 10
0.6500964244041132
 20
0.2234667356425151
 11
0.6490703000397104
 21
0.2266383927688516
 72
     1
 10
0.6490703000397105
 20
0.2266383927688516
 11
0.6487904479403276
 21
0.2277578011663822
 72
     1
 10
0.648790447940328
 20
0.2277578011663825
 11
0.6237903270621445
 21
0.2277578011663825
 72
     1
 10
0.6237903270621437
 20
0.2277578011663825
 11
0.6676338226320932
 21
0.0926825211976832
 72
     1
 10
0.6676338226320926
 20
0.0926825211976832
 11
0.6922608073777669
 21
0.0926825211976832
 72
     1
 10
0.6922608073777666
 20
0.0926825211976832
 11
0.726029627369941
 21
0.1855001341596003
 72
     1
 10
0.7260296273699423
 20
0.1855001341596003
 11
0.7269624677012189
 21
0.1882986551534267
 72
     1
 10
0.7269624677012177
 20
0.1882986551534266
 11
0.7278020239993661
 21
0.1906307559816158
 72
     1
 10
0.727802023999367
 20
0.1906307559816159
 11
0.7284550122312589
 21
0.1927762887435496
 72
     1
 10
0.7284550122312581
 20
0.1927762887435495
 11
0.7290147164300237
 21
0.1947352534392281
 72
     1
 10
0.7290147164300232
 20
0.1947352534392282
 11
0.7298542727281716
 21
0.192216584544784
 72
     1
 10
0.729854272728173
 20
0.1922165845447839
 11
0.7306938290263214
 21
0.1894180635509575
 72
     1
 10
0.7306938290263206
 20
0.1894180635509575
 11
0.7318132374238499
 21
0.1863396904577483
 72
     1
 10
0.7318132374238511
 20
0.1863396904577481
 11
0.7331192138876387
 21
0.1827016131657736
 72
     1
 10
0.7331192138876382
 20
0.1827016131657737
 11
0.7654887733828987
 21
0.0926825211976834
 72
     1
 10
0.7654887733828986
 20
0.0926825211976832
 11
0.7895560539298075
 21
0.0926825211976832
 72
     1
 10
0.7895560539298075
 20
0.0926825211976832
 11
0.8341458217647785
 21
0.2277578011663825
 72
     1
 10
0.8341458217647783
 20
0.2277578011663825
 11
0.830601028505932
 21
0.2277578011663825
 72
     1
 10
0.8306010285059324
 20
0.2277578011663825
 11
0.8092389849197216
 21
0.2277578011663825
 97
        0
 75
     0
 76
     1
 98
        1
 10
-0.3743130907707726
 20
-0.2500502867693841
1001
ACAD
1010
0.0
1020
0.0
1030
0.0
  0
ENDBLK
  5
1023F
330
10232
100
AcDbEntity
  8
0
100
AcDbBlockEnd
  0
ENDSEC
  0
SECTION
  2
ENTITIES
  0
LINE
  5
20CE
330
17
100
AcDbEntity
  8
0
100
AcDbLine
 10
0.0
 20
0.0
 30
0.0
 11
0.0
 21
48.98563790462714
 31
0.0
  0
LINE
  5
20CF
330
17
100
AcDbEntity
  8
0
100
AcDbLine
 10
0.0
 20
0.0
 30
0.0
 11
77.3474268709846
 21
0.0
 31
0.0
  0
LINE
  5
F479
330
17
100
AcDbEntity
  8
R-ANNO-DIMS
100
AcDbLine
 10
14.35645177858413
 20
34.73579407000734
 30
0.0
 11
14.35645177858413
 21
23.0221103339779
 31
0.0
  0
LINE
  5
F482
330
17
100
AcDbEntity
  8
R-ANNO-DIMS
100
AcDbLine
 10
16.23145177858413
 20
23.0221103339779
 30
0.0
 11
14.17645177858413
 21
23.0221103339779
 31
0.0
  0
LINE
  5
F483
330
17
100
AcDbEntity
  8
R-ANNO-DIMS
100
AcDbLine
 10
16.48145177858413
 20
23.5221103339779
 30
0.0
 11
14.80145177858413
 21
23.5221103339779
 31
0.0
  0
TEXT
  5
F484
330
17
100
AcDbEntity
  8
0
  6
Continuous
 62
     2
100
AcDbText
 10
15.42964676387494
 20
20.06937188370345
 30
0.0
 40
0.375
  1
SECTION THRU "F" and "T" ANCHOR
 72
     1
 11
19.94934321680809
 21
20.06937188370345
 31
0.0
100
AcDbText
  0
LINE
  5
F485
330
17
100
AcDbEntity
  8
R-ANNO-DIMS
100
AcDbLine
 10
14.98145177858413
 20
22.7721103339779
 30
0.0
 11
14.98145177858413
 21
21.48877700064456
 31
0.0
  0
MTEXT
  5
F486
330
17
100
AcDbEntity
  8
R-ANNO-DIMS
100
AcDbMText
 10
14.75645177858413
 20
22.00544366731123
 30
0.0
 40
0.25
 41
0.0
 71
     5
 72
     1
  1
\A1;1/2"
 11
0.0000000000000001
 21
1.0
 31
0.0
 73
     1
 44
1.0
1001
ACAD
1000
MTEXTBEGIN
1070
    73
1070
     1
1070
    44
1040
1.0
1070
    74
1070
     0
1000
MTEXTEND
  0
SOLID
  5
F487
330
17
100
AcDbEntity
  8
R-ANNO-DIMS
100
AcDbTrace
 10
14.31478511191746
 20
23.2721103339779
 30
0.0
 11
14.39811844525079
 21
23.2721103339779
 31
0.0
 12
14.35645177858413
 22
23.0221103339779
 32
0.0
 13
14.35645177858413
 23
23.0221103339779
 33
0.0
  0
SOLID
  5
F488
330
17
100
AcDbEntity
  8
R-ANNO-DIMS
100
AcDbTrace
 10
14.93978511191746
 20
22.7721103339779
 30
0.0
 11
15.02311844525079
 21
22.7721103339779
 31
0.0
 12
14.98145177858413
 22
23.0221103339779
 32
0.0
 13
14.98145177858413
 23
23.0221103339779
 33
0.0
  0
SOLID
  5
F489
330
17
100
AcDbEntity
  8
R-ANNO-DIMS
100
AcDbTrace
 10
14.93978511191746
 20
23.7721103339779
 30
0.0
 11
15.02311844525079
 21
23.7721103339779
 31
0.0
 12
14.98145177858413
 22
23.5221103339779
 32
0.0
 13
14.98145177858413
 23
23.5221103339779
 33
0.0
  0
LINE
  5
F48A
330
17
100
AcDbEntity
  8
R-ANNO-DIMS
100
AcDbLine
 10
14.98145177858413
 20
23.7721103339779
 30
0.0
 11
14.98145177858413
 21
24.0221103339779
 31
0.0
  0
SOLID
  5
F48B
330
17
100
AcDbEntity
  8
R-ANNO-DIMS
100
AcDbTrace
 10
14.93978511191746
 20
23.7721103339779
 30
0.0
 11
15.02311844525079
 21
23.7721103339779
 31
0.0
 12
14.98145177858413
 22
23.5221103339779
 32
0.0
 13
14.98145177858413
 23
23.5221103339779
 33
0.0
  0
LINE
  5
F4EC
330
17
100
AcDbEntity
  8
R-ANNO-DIMS
100
AcDbLine
 10
16.23145177858413
 20
34.98579407000735
 30
0.0
 11
14.17645177858413
 21
34.98579407000735
 31
0.0
  0
LINE
  5
F4ED
330
17
100
AcDbEntity
  8
R-ANNO-DIMS
100
AcDbLine
 10
16.48145177858413
 20
34.48579407000734
 30
0.0
 11
14.80145177858413
 21
34.48579407000734
 31
0.0
  0
TEXT
  5
F4EE
330
17
100
AcDbEntity
  8
R-ANNO-DIMS
  6
ByBlock
100
AcDbText
 10
14.23145177858413
 20
27.11387804842159
 30
0.0
 40
0.25
  1
OPENING DIMENSION
 50
90.0
 72
     1
 11
14.10645177858413
 21
28.95732961731655
 31
0.0
100
AcDbText
 73
     2
  0
LINE
  5
F4EF
330
17
100
AcDbEntity
  8
R-ANNO-DIMS
100
AcDbLine
 10
14.98145177858413
 20
35.23579407000735
 30
0.0
 11
14.98145177858413
 21
36.51912740334068
 31
0.0
  0
MTEXT
  5
F4F0
330
17
100
AcDbEntity
  8
R-ANNO-DIMS
100
AcDbMText
 10
14.75645177858413
 20
36.002460736674
 30
0.0
 40
0.25
 41
0.0
 71
     5
 72
     1
  1
\A1;1/2"
 11
0.0000000000000001
 21
1.0
 31
0.0
 73
     1
 44
1.0
1001
ACAD
1000
MTEXTBEGIN
1070
    73
1070
     1
1070
    44
1040
1.0
1070
    74
1070
     0
1000
MTEXTEND
  0
SOLID
  5
F4F1
330
17
100
AcDbEntity
  8
R-ANNO-DIMS
100
AcDbTrace
 10
14.31478511191746
 20
34.73579407000734
 30
0.0
 11
14.3981184452508
 21
34.73579407000734
 31
0.0
 12
14.35645177858413
 22
34.98579407000735
 32
0.0
 13
14.35645177858413
 23
34.98579407000735
 33
0.0
  0
SOLID
  5
F4F2
330
17
100
AcDbEntity
  8
R-ANNO-DIMS
100
AcDbTrace
 10
14.93978511191746
 20
34.23579407000735
 30
0.0
 11
15.0231184452508
 21
34.23579407000735
 31
0.0
 12
14.98145177858413
 22
34.48579407000734
 32
0.0
 13
14.98145177858413
 23
34.48579407000734
 33
0.0
  0
LINE
  5
F4F3
330
17
100
AcDbEntity
  8
R-ANNO-DIMS
100
AcDbLine
 10
14.98145177858413
 20
34.23579407000735
 30
0.0
 11
14.98145177858413
 21
33.98579407000735
 31
0.0
  0
SOLID
  5
F4F4
330
17
100
AcDbEntity
  8
R-ANNO-DIMS
100
AcDbTrace
 10
14.93978511191746
 20
34.23579407000735
 30
0.0
 11
15.02311844525079
 21
34.23579407000735
 31
0.0
 12
14.98145177858413
 22
34.48579407000734
 32
0.0
 13
14.98145177858413
 23
34.48579407000734
 33
0.0
  0
SOLID
  5
F4F5
330
17
100
AcDbEntity
  8
R-ANNO-DIMS
100
AcDbTrace
 10
14.93978511191746
 20
35.23579407000735
 30
0.0
 11
15.02311844525079
 21
35.23579407000735
 31
0.0
 12
14.98145177858413
 22
34.98579407000735
 32
0.0
 13
14.98145177858413
 23
34.98579407000735
 33
0.0
  0
TEXT
  5
F4F6
330
17
100
AcDbEntity
  8
PART_NUMBERS
100
AcDbText
 10
24.8865465008658
 20
27.09355585429475
 30
0.0
 40
0.25
  1
162329 "F" ANCHOR OR
100
AcDbText
  0
TEXT
  5
F4F7
330
17
100
AcDbEntity
  8
PART_NUMBERS
100
AcDbText
 10
24.8865465008658
 20
26.69699234369023
 30
0.0
 40
0.25
  1
162330 "T" ANCHOR
100
AcDbText
  0
TEXT
  5
F4F8
330
17
100
AcDbEntity
  8
PART_NUMBERS
100
AcDbText
 10
24.8865465008658
 20
30.2882316832774
 30
0.0
 40
0.25
  1
162330 "T" ANCHOR
100
AcDbText
  0
TEXT
  5
F4F9
330
17
100
AcDbEntity
  8
PART_NUMBERS
100
AcDbText
 10
24.8865465008658
 20
30.68479519388193
 30
0.0
 40
0.25
  1
162329 "F" ANCHOR OR
100
AcDbText
  0
LINE
  5
F521
330
17
100
AcDbEntity
  8
PART_NUMBERS
100
AcDbLine
 10
23.59139591867844
 20
26.37308105113045
 30
0.0
 11
24.12786459283602
 21
27.18868276956642
 31
0.0
  0
SOLID
  5
F522
330
17
100
AcDbEntity
  8
PART_NUMBERS
100
AcDbTrace
 10
23.56528749753677
 20
26.39025407781445
 30
0.0
 11
23.6175043398201
 21
26.35590802444645
 31
0.0
 12
23.48835775857444
 22
26.21643052428045
 32
0.0
 13
23.48835775857444
 23
26.21643052428045
 33
0.0
  0
LINE
  5
F523
330
17
100
AcDbEntity
  8
PART_NUMBERS
100
AcDbLine
 10
24.12786459283604
 20
27.18868276956642
 30
0.0
 11
24.69762603124866
 21
27.18868276956642
 31
0.0
  0
LINE
  5
F526
330
17
100
AcDbEntity
  8
PART_NUMBERS
100
AcDbLine
 10
23.59139591867846
 20
31.60148180452034
 30
0.0
 11
24.12786459283602
 21
30.78588008608437
 31
0.0
  0
SOLID
  5
F527
330
17
100
AcDbEntity
  8
PART_NUMBERS
100
AcDbTrace
 10
23.56528749753679
 20
31.58430877783634
 30
0.0
 11
23.61750433982011
 21
31.61865483120434
 31
0.0
 12
23.48835775857445
 22
31.75813233137034
 32
0.0
 13
23.48835775857445
 23
31.75813233137034
 33
0.0
  0
LINE
  5
F528
330
17
100
AcDbEntity
  8
PART_NUMBERS
100
AcDbLine
 10
24.12786459283604
 20
30.78588008608437
 30
0.0
 11
24.69762603124866
 21
30.78588008608437
 31
0.0
  0
MTEXT
  5
F6EC
330
17
100
AcDbEntity
  8
0
100
AcDbMText
 10
52.90095494013465
 20
16.42873680581967
 30
0.0
 40
0.375
 41
15.38902103739951
 71
     1
 72
     5
  1
NOTE:\PT-ANCHORS MUST BE USED IF MULLION END-REACTIONS EXCEEDS 350 POUNDS.\PIF MULLION END-REACTIONS ARE LESS THAN 350 POUNDS, THEN PERIMETER ANCHORING MAY BE USED.
 73
     1
 44
1.0
1001
ACAD
1000
MTEXTBEGIN
1070
    73
1070
     1
1070
    44
1040
1.0
1070
    74
1070
     0
1000
MTEXTEND
  0
CIRCLE
  5
F7E8
330
17
100
AcDbEntity
  8
R-SWTS-DET3
100
AcDbCircle
 10
17.87045177858412
 20
34.73579407000734
 30
0.0
 40
0.25
  0
ARC
  5
F7E9
330
17
100
AcDbEntity
  8
R-SWTS-DET3
100
AcDbCircle
 10
17.18295177858412
 20
34.73579407000734
 30
0.0
 40
0.3125
100
AcDbArc
 50
306.8698976458441
 51
53.13010235415587
  0
LINE
  5
F7EA
330
17
100
AcDbEntity
  8
R-ANNO-DIMS
100
AcDbLine
 10
17.10645177858413
 20
29.274072890039
 30
0.0
 11
24.10645177858413
 21
29.274072890039
 31
0.0
  0
LWPOLYLINE
  5
F7EB
330
17
100
AcDbEntity
  8
R-SWTS-DET2
100
AcDbPolyline
 90
       32
 70
     1
 43
0.0
 10
22.96645177858413
 20
33.6417940700073
 10
22.98145177858413
 20
33.6567940700073
 10
22.99645177858413
 20
33.6417940700073
 10
23.35501206963169
 20
33.6417940700073
 10
23.42645177858425
 20
33.76553127559107
 42
-3.732050807569199
 10
23.53645177858416
 20
33.76553127559116
 10
23.60789148753685
 20
33.6417940700073
 10
24.07145177858422
 20
33.6417940700073
 42
0.4142135623730951
 10
24.19645177858422
 20
33.7667940700073
 10
24.19645177858422
 20
34.0792940700073
 42
1.000000000000014
 10
24.07145177858422
 20
34.0792940700073
 10
24.07145177858423
 20
33.79179407000731
 10
23.74145177858405
 20
33.7917940700073
 10
23.74145177858405
 20
33.86079407000734
 42
1.0
 10
23.2214517785842
 20
33.86079407000734
 10
23.2214517785842
 20
33.7917940700073
 10
20.24145177858405
 20
33.7917940700073
 10
20.24145177858405
 20
33.86079407000734
 42
1.0
 10
19.7214517785842
 20
33.86079407000734
 10
19.7214517785842
 20
33.7917940700073
 10
17.80145177858402
 20
33.79179407000731
 10
17.80145177858403
 20
34.0092940700073
 42
1.000000000000014
 10
17.67645177858403
 20
34.0092940700073
 10
17.67645177858403
 20
33.7667940700073
 42
0.4142135623730951
 10
17.80145177858402
 20
33.6417940700073
 10
19.85501206963169
 20
33.6417940700073
 10
19.92645177858425
 20
33.76553127559107
 42
-3.732050807569199
 10
20.03645177858416
 20
33.76553127559116
 10
20.10789148753685
 20
33.6417940700073
 10
20.46645177858413
 20
33.6417940700073
 10
20.48145177858413
 20
33.6567940700073
 10
20.49645177858413
 20
33.6417940700073
  0
LWPOLYLINE
  5
F7EC
330
17
100
AcDbEntity
  8
R-SWTS-DET1
100
AcDbPolyline
 90
      115
 70
     1
 43
0.0
 10
24.23145177858414
 20
34.45579407000735
 10
24.23145177858413
 20
33.7017940700073
 42
-0.4142135623730864
 10
24.17145177858413
 20
33.6417940700073
 10
23.49645177858413
 20
33.6417940700073
 10
23.48145177858413
 20
33.62679407000729
 10
23.46645177858412
 20
33.6417940700073
 10
19.99645177858412
 20
33.6417940700073
 10
19.98145177858412
 20
33.62679407000729
 10
19.96645177858412
 20
33.6417940700073
 10
17.63145177858412
 20
33.6417940700073
 10
17.63145177858413
 20
34.08179407000734
 42
0.3961370976168942
 10
17.49545177858412
 20
34.22651449012835
 10
17.49545177858412
 20
34.33079407000739
 42
-0.4142135623731037
 10
17.52545177858413
 20
34.3607940700074
 10
17.64968099606373
 20
34.3607940700074
 42
0.2617284103142166
 10
17.75645177858411
 20
34.30079407000734
 10
18.10145177858412
 20
34.30079407000734
 42
0.414213562373099
 10
18.20145177858412
 20
34.40079407000734
 10
18.20145177858412
 20
34.48579407000734
 10
18.13145177858412
 20
34.48579407000734
 10
18.13145177858412
 20
34.42579407000734
 10
17.75645177858411
 20
34.42579407000734
 10
17.75645177858411
 20
34.48579407000739
 10
17.40045177858415
 20
34.4857940700074
 10
17.37045177858413
 20
34.39579407000734
 10
17.37045177858412
 20
34.31579407000731
 42
-0.8490904586570231
 10
17.27308090145484
 20
34.29979407000732
 10
17.16986411318019
 20
34.24020182951205
 42
0.5773502691895778
 10
17.16986411318019
 20
34.13138631050259
 10
17.27308090145484
 20
34.07179407000732
 42
-0.849090458657033
 10
17.37045177858413
 20
34.05579407000732
 10
17.37045177858413
 20
33.99579407000732
 10
17.40045177858412
 20
33.99579407000732
 42
0.414213562373069
 10
17.42045177858412
 20
34.01579407000732
 10
17.42045177858413
 20
34.08179407000734
 42
-0.414213562373069
 10
17.44045177858412
 20
34.10179407000735
 10
17.48645177858412
 20
34.10179407000735
 42
-0.4142135623730822
 10
17.50645177858413
 20
34.08179407000734
 10
17.50645177858411
 20
32.38979407000729
 42
-0.4142135623730951
 10
17.48645177858411
 20
32.3697940700073
 10
17.44045177858412
 20
32.3697940700073
 42
-0.4142135623730432
 10
17.42045177858413
 20
32.38979407000729
 10
17.42045177858412
 20
32.45579407000731
 42
0.414213562373069
 10
17.40045177858412
 20
32.47579407000732
 10
17.37045177858412
 20
32.47579407000732
 10
17.37045177858413
 20
32.41579407000731
 42
-0.849090458657033
 10
17.27308090145484
 20
32.39979407000732
 10
17.16986411318019
 20
32.34020182951205
 42
0.5773502691895816
 10
17.16986411318019
 20
32.2313863105026
 10
17.27308090145484
 20
32.17179407000732
 42
-0.8490904586570231
 10
17.37045177858412
 20
32.15579407000732
 10
17.37045177858413
 20
32.07579407000729
 10
17.40045177858412
 20
31.98579407000729
 10
17.58645177858413
 20
31.9857940700073
 42
0.4142135623730951
 10
17.60645177858413
 20
32.0057940700073
 10
17.60645177858414
 20
32.08779407000729
 42
0.6693764950686362
 10
17.58081011997471
 20
32.09836549857873
 42
-0.1997729274168773
 10
17.51696016831826
 20
32.0717940700073
 10
17.50645177858413
 20
32.0717940700073
 42
-0.4142135623730951
 10
17.45645177858413
 20
32.1217940700073
 10
17.45645177858413
 20
32.2097940700073
 42
-0.4142135623730951
 10
17.50645177858413
 20
32.2597940700073
 10
17.51696016831826
 20
32.2597940700073
 42
-0.199772927416874
 10
17.58081011997472
 20
32.23322264143587
 42
0.6693764950687078
 10
17.60645177858413
 20
32.2437940700073
 10
17.60645177858412
 20
32.7357940700073
 10
17.63145177858411
 20
33.2667940700073
 10
17.63145177858412
 20
33.45679407000729
 42
-0.4142135623730961
 10
17.69145177858411
 20
33.51679407000729
 10
19.10645177858411
 20
33.51679407000729
 10
19.10645177858411
 20
33.43431214324704
 42
0.2446984432290121
 10
19.13203719240305
 20
33.3851630205897
 10
19.33365907167464
 20
33.24398586085572
 42
-0.661885561195681
 10
19.32217604844541
 20
33.18996248402362
 10
19.22072750872281
 20
33.17024288551078
 42
0.9083360464535829
 10
19.22645177858411
 20
33.11079407000735
 10
19.38645177858409
 20
33.11079407000734
 42
0.4142135623730982
 10
19.44645177858409
 20
33.17079407000734
 10
19.44645177858409
 20
33.28637035778471
 42
0.2446984432290308
 10
19.42086636476516
 20
33.33551948044205
 10
19.23145177858411
 20
33.4681490015329
 10
19.23145177858411
 20
33.51679407000729
 10
19.78645177858409
 20
33.51679407000729
 10
19.78645177858409
 20
33.36079407000731
 42
0.205257701954655
 10
19.84696901996341
 20
33.21958717345558
 42
1.000000000000025
 10
19.91593453720481
 20
33.29200096655902
 42
-2.499999999999964
 10
20.04696901996343
 20
33.29200096655902
 42
0.6411140465858911
 10
20.07645177858412
 20
33.20604469815199
 10
20.07645177858412
 20
33.16079407000737
 42
0.9999999999999998
 10
20.17645177858418
 20
33.16079407000737
 10
20.17645177858418
 20
33.51679407000729
 10
20.46645177858413
 20
33.51679407000729
 10
20.48145177858413
 20
33.53179407000729
 10
20.49645177858413
 20
33.51679407000729
 10
22.96645177858414
 20
33.51679407000729
 10
22.98145177858413
 20
33.53179407000729
 10
22.99645177858413
 20
33.51679407000729
 10
23.28645177858409
 20
33.51679407000729
 10
23.28645177858409
 20
33.16079407000737
 42
0.9999999999999998
 10
23.38645177858413
 20
33.16079407000737
 10
23.38645177858413
 20
33.20604469815196
 42
0.64111404658594
 10
23.41593453720482
 20
33.29200096655902
 42
-2.499999999999964
 10
23.54696901996343
 20
33.29200096655902
 42
1.000000000000044
 10
23.61593453720484
 20
33.21958717345558
 42
0.2052577019546721
 10
23.67645177858418
 20
33.36079407000732
 10
23.67645177858418
 20
33.5167940700073
 10
24.17145177858413
 20
33.5167940700073
 42
-0.4142135623731037
 10
24.23145177858413
 20
33.4567940700073
 10
24.23145177858413
 20
33.22057758138188
 42
-0.359036686576936
 10
24.20717604844543
 20
33.19112876587845
 10
24.09972750872284
 20
33.17024288551078
 42
0.9083360464535829
 10
24.10545177858413
 20
33.11079407000735
 10
24.35645177858413
 20
33.11079407000735
 10
24.35645177858413
 20
34.48579407000734
 10
24.26145177858413
 20
34.48579407000734
 42
0.4142135623730951
  0
LWPOLYLINE
  5
F7ED
330
17
100
AcDbEntity
  8
R-SWTS-DET3
100
AcDbPolyline
 90
        4
 70
     0
 43
0.0
 10
18.85645177858414
 20
29.98579407000731
 10
18.85645177858414
 20
32.4232940700073
 10
17.85645177858414
 20
32.4232940700073
 10
17.85645177858414
 20
29.98579407000731
  0
LWPOLYLINE
  5
F7EE
330
17
100
AcDbEntity
  8
R-SWTS-DET1
100
AcDbPolyline
 90
        4
 70
     0
 43
0.0
 10
24.35645177858413
 20
29.9857940700073
 10
24.35645177858413
 20
34.48579407000734
 10
16.85645177858413
 20
34.48579407000734
 10
16.85645177858413
 20
29.9857940700073
  0
LWPOLYLINE
  5
F7EF
330
17
100
AcDbEntity
  8
R-SWTS-DET1
100
AcDbPolyline
 90
        6
 70
     0
 43
0.0
 10
16.60645177858413
 20
29.9857940700073
 10
20.51270177858413
 20
29.9857940700073
 10
20.56577036032063
 20
30.19800926298952
 10
20.67332144832181
 20
29.77359452199934
 10
20.7263900300583
 20
29.98580971498154
 10
24.6326400300583
 20
29.98580971498154
  0
LINE
  5
F7F0
330
17
100
AcDbEntity
  8
R-ANNO-DIMS
100
AcDbLine
 10
16.85645177858413
 20
29.6107940700073
 30
0.0
 11
16.85645177858413
 21
29.10384558739345
 31
0.0
  0
LWPOLYLINE
  5
F7F4
330
17
100
AcDbEntity
  8
R-SWTS-DET2
100
AcDbPolyline
 90
        3
 70
     0
 43
0.0
 10
17.85669685656024
 20
31.84887301287604
 10
17.31669685656025
 20
31.9254084459469
 10
17.31669685656024
 20
31.98579407000732
  0
LINE
  5
F7F5
330
17
100
AcDbEntity
  8
R-SWTS-DET2
100
AcDbLine
 10
17.31669685656025
 20
31.9254084459469
 30
0.0
 11
17.31669685656026
 21
29.9857940700073
 31
0.0
  0
SOLID
  5
F7FB
330
17
100
AcDbEntity
  8
R-ANNO-DIMS
100
AcDbTrace
 10
17.10645177858413
 20
29.31573955670566
 30
0.0
 11
17.10645177858413
 21
29.23240622337233
 31
0.0
 12
16.85645177858413
 22
29.274072890039
 32
0.0
 13
16.85645177858413
 23
29.274072890039
 33
0.0
  0
LWPOLYLINE
  5
F806
330
17
100
AcDbEntity
  8
R-SWTS-DET1
100
AcDbPolyline
 90
       16
 70
     1
 43
0.0
 10
16.91645177858413
 20
32.03579407000735
 10
16.91645177858413
 20
34.43579407000734
 10
17.21045177858412
 20
34.43579407000735
 10
17.21045177858412
 20
34.41579407000733
 42
1.0
 10
17.29045177858412
 20
34.41579407000733
 10
17.29045177858412
 20
34.43579407000734
 10
17.32545177858412
 20
34.43579407000735
 42
1.0
 10
17.32545177858412
 20
34.48579407000734
 10
16.85645177858413
 20
34.48579407000734
 10
16.85645177858413
 20
31.98579407000735
 10
17.32545177858412
 20
31.98579407000735
 42
1.0
 10
17.32545177858412
 20
32.03579407000735
 10
17.29045177858412
 20
32.03579407000736
 10
17.29045177858412
 20
32.05579407000737
 42
1.0
 10
17.21045177858412
 20
32.05579407000737
 10
17.21045177858412
 20
32.03579407000735
  0
LWPOLYLINE
  5
F807
330
17
100
AcDbEntity
  8
0
100
AcDbPolyline
 90
       37
 70
     1
 43
0.0
 10
17.16145177858414
 20
32.16665769298935
 42
0.577350269189641
 10
17.17645177858414
 20
32.1753179470272
 10
17.17645177858414
 20
32.20079407000725
 42
-0.5773502691896422
 10
17.19145177858413
 20
32.20945432404509
 10
17.23145177858414
 20
32.18636031327751
 42
-0.2679491924311216
 10
17.23645177858413
 20
32.17770005923966
 10
17.23645177858413
 20
32.17579407000725
 42
0.4142135623730387
 10
17.24645177858414
 20
32.16579407000725
 10
17.28045177858413
 20
32.16579407000726
 42
-1.0
 10
17.36045177858413
 20
32.16579407000726
 10
17.36045177858413
 20
32.07579407000726
 42
-0.4142135623730951
 10
17.33045177858413
 20
32.04579407000726
 10
17.30045177858413
 20
32.04579407000726
 42
0.8490904586570254
 10
17.20308090145485
 20
32.06179407000726
 10
17.06645177858413
 20
32.14067693087583
 42
-0.2679491924311085
 10
17.02645177858413
 20
32.20995896317858
 10
17.02645177858413
 20
32.36162917683594
 42
-0.2679491924311077
 10
17.06645177858413
 20
32.43091120913869
 10
17.20308090145485
 20
32.50979407000726
 42
0.8490904586570254
 10
17.30045177858413
 20
32.52579407000726
 10
17.33045177858413
 20
32.52579407000726
 42
-0.4142135623730951
 10
17.36045177858413
 20
32.49579407000726
 10
17.36045177858413
 20
32.40579407000726
 42
-1.0
 10
17.28045177858413
 20
32.40579407000726
 10
17.24645177858414
 20
32.40579407000726
 42
0.4142135623730353
 10
17.23645177858413
 20
32.39579407000727
 10
17.23645177858413
 20
32.39388808077485
 42
-0.2679491924311216
 10
17.23145177858414
 20
32.38522782673701
 10
17.19145177858413
 20
32.36213381596942
 42
-0.5773502691896422
 10
17.17645177858414
 20
32.37079407000726
 10
17.17645177858414
 20
32.39579407000727
 42
0.4142135623730888
 10
17.16645177858413
 20
32.40579407000727
 10
17.16294761746771
 20
32.40579407000727
 10
17.10145177858413
 20
32.37028943087378
 42
0.2679491924311086
 10
17.09645177858413
 20
32.36162917683594
 10
17.09645177858413
 20
32.20995896317858
 42
0.2679491924311096
 10
17.10145177858413
 20
32.20129870914073
  0
LWPOLYLINE
  5
F808
330
17
100
AcDbEntity
  8
0
100
AcDbPolyline
 90
       37
 70
     1
 43
0.0
 10
17.16145177858414
 20
34.30493044702534
 42
-0.577350269189641
 10
17.17645177858414
 20
34.29627019298749
 10
17.17645177858414
 20
34.27079407000744
 42
0.5773502691896422
 10
17.19145177858413
 20
34.2621338159696
 10
17.23145177858414
 20
34.28522782673719
 42
0.2679491924311216
 10
17.23645177858413
 20
34.29388808077503
 10
17.23645177858413
 20
34.29579407000744
 42
-0.4142135623730387
 10
17.24645177858414
 20
34.30579407000744
 10
17.28045177858413
 20
34.30579407000743
 42
1.0
 10
17.36045177858413
 20
34.30579407000743
 10
17.36045177858413
 20
34.39579407000743
 42
0.4142135623730951
 10
17.33045177858413
 20
34.42579407000744
 10
17.30045177858413
 20
34.42579407000744
 42
-0.8490904586570254
 10
17.20308090145485
 20
34.40979407000743
 10
17.06645177858413
 20
34.33091120913887
 42
0.2679491924311085
 10
17.02645177858413
 20
34.26162917683612
 10
17.02645177858413
 20
34.10995896317876
 42
0.2679491924311077
 10
17.06645177858413
 20
34.04067693087601
 10
17.20308090145485
 20
33.96179407000744
 42
-0.8490904586570254
 10
17.30045177858413
 20
33.94579407000744
 10
17.33045177858413
 20
33.94579407000744
 42
0.4142135623730951
 10
17.36045177858413
 20
33.97579407000743
 10
17.36045177858413
 20
34.06579407000744
 42
1.0
 10
17.28045177858413
 20
34.06579407000744
 10
17.24645177858414
 20
34.06579407000743
 42
-0.4142135623730353
 10
17.23645177858413
 20
34.07579407000743
 10
17.23645177858413
 20
34.07770005923984
 42
0.2679491924311216
 10
17.23145177858414
 20
34.08636031327768
 10
17.19145177858413
 20
34.10945432404527
 42
0.5773502691896422
 10
17.17645177858414
 20
34.10079407000742
 10
17.17645177858414
 20
34.07579407000743
 42
-0.4142135623730888
 10
17.16645177858413
 20
34.06579407000743
 10
17.16294761746771
 20
34.06579407000743
 10
17.10145177858413
 20
34.10129870914091
 42
-0.2679491924311086
 10
17.09645177858413
 20
34.10995896317876
 10
17.09645177858413
 20
34.26162917683612
 42
-0.2679491924311096
 10
17.10145177858413
 20
34.27028943087396
  0
LINE
  5
F809
330
17
100
AcDbEntity
  8
R-ANNO-DIMS
100
AcDbLine
 10
24.35645177858413
 20
29.6107940700073
 30
0.0
 11
24.35645177858413
 21
29.10384558739345
 31
0.0
  0
LWPOLYLINE
  5
F80B
330
17
100
AcDbEntity
  8
R-SWTS-DET1
100
AcDbPolyline
 90
       40
 70
     1
 43
0.0
 10
24.2844514339721
 20
33.0947940700073
 10
24.2844514339721
 20
33.0797940700073
 10
24.0744514339721
 20
33.0797940700073
 10
24.0744514339721
 20
33.16379407000729
 42
-0.4142135623730951
 10
24.1054514339721
 20
33.1947940700073
 10
24.15945143397209
 20
33.1947940700073
 42
0.9999999999999998
 10
24.15945143397209
 20
33.2567940700073
 10
24.07445143397209
 20
33.2567940700073
 42
0.4142135623730951
 10
23.94945143397209
 20
33.1317940700073
 10
23.94945143397209
 20
33.07979407000729
 42
0.4142135623730868
 10
24.07445143397209
 20
32.9547940700073
 10
24.1864514339721
 20
32.9547940700073
 42
-0.4142135623731038
 10
24.2464514339721
 20
32.8947940700073
 10
24.24645143397209
 20
32.14579407000734
 42
-0.4142135623730864
 10
24.18645143397209
 20
32.08579407000734
 10
19.40645143397209
 20
32.08579407000735
 42
-0.4142135623730776
 10
19.34645143397209
 20
32.14579407000734
 10
19.34645143397209
 20
32.20979407000735
 42
0.4142135623730839
 10
19.20645143397209
 20
32.34979407000734
 10
19.19645143397209
 20
32.34979407000734
 10
19.19645143397209
 20
33.16479407000735
 42
-0.4142135623730951
 10
19.22645143397209
 20
33.19479407000735
 10
19.28045143397206
 20
33.19479407000735
 42
0.9999999999999998
 10
19.28045143397206
 20
33.25679407000734
 10
19.1664514339721
 20
33.25679407000734
 42
0.4142135623730993
 10
19.1064514339721
 20
33.19679407000734
 10
19.10645143397209
 20
32.24379407000735
 42
0.669376495068664
 10
19.1320930925815
 20
32.23322264143592
 42
-0.1997729274168802
 10
19.19594304423796
 20
32.25979407000735
 10
19.20645143397209
 20
32.25979407000735
 42
-0.4142135623730847
 10
19.25645143397209
 20
32.20979407000735
 10
19.25645143397209
 20
32.12179407000735
 42
-0.4142135623730847
 10
19.20645143397209
 20
32.07179407000734
 10
19.19594304423796
 20
32.07179407000735
 42
-0.1997729274168791
 10
19.1320930925815
 20
32.09836549857878
 42
0.669376495068719
 10
19.10645143397209
 20
32.08779407000734
 10
19.10645143397209
 20
32.00579407000735
 42
0.4142135623730432
 10
19.12645143397209
 20
31.98579407000734
 10
24.34645143397209
 20
31.98579407000734
 10
24.34645143397209
 20
33.0947940700073
  0
LWPOLYLINE
  5
F80C
330
17
100
AcDbEntity
  8
R-SWTS-DET2
100
AcDbPolyline
 90
        3
 70
     0
 43
0.0
 10
18.85620670060802
 20
31.84887301287604
 10
19.39620670060802
 20
31.9254084459469
 10
19.39620670060803
 20
31.98579407000732
  0
LINE
  5
F80D
330
17
100
AcDbEntity
  8
R-SWTS-DET2
100
AcDbLine
 10
19.39620670060802
 20
31.9254084459469
 30
0.0
 11
19.39620670060801
 21
29.9857940700073
 31
0.0
  0
LWPOLYLINE
  5
F80E
330
17
100
AcDbEntity
  8
R-SWTS-DET3
100
AcDbPolyline
 90
        2
 70
     0
 43
0.0
 10
18.60645177858414
 20
29.98579407000731
 10
18.60645177858414
 20
32.4232940700073
  0
LWPOLYLINE
  5
F80F
330
17
100
AcDbEntity
  8
R-SWTS-DET3
100
AcDbPolyline
 90
        2
 70
     0
 43
0.0
 10
18.10645177858414
 20
29.98579407000731
 10
18.10645177858414
 20
32.4232940700073
  0
MTEXT
  5
F810
330
17
100
AcDbEntity
  8
R-ANNO-DIMS
100
AcDbMText
 10
20.60645177858413
 20
29.49907289003899
 30
0.0
 40
0.25
 41
0.0
 71
     5
 72
     1
  1
\A1;7 1/2"
 73
     1
 44
1.0
1001
ACAD
1000
MTEXTBEGIN
1070
    73
1070
     1
1070
    44
1040
1.0
1070
    74
1070
     0
1000
MTEXTEND
  0
LWPOLYLINE
  5
F811
330
17
100
AcDbEntity
  8
R-SWTS-DET3
100
AcDbPolyline
 90
        2
 70
     0
 43
0.0
 10
18.60645177858414
 20
32.17329407000729
 10
18.10645177858414
 20
32.17329407000729
  0
ARC
  5
F812
330
17
100
AcDbEntity
  8
R-SWTS-DET2
100
AcDbCircle
 10
19.89970185858412
 20
33.77904415000734
 30
0.0
 40
0.06474996
100
AcDbArc
 50
0.0
 51
89.99990999999999
  0
ARC
  5
F813
330
17
100
AcDbEntity
  8
R-SWTS-DET2
100
AcDbCircle
 10
20.06320175858413
 20
33.77904415000734
 30
0.0
 40
0.06474996
100
AcDbArc
 50
89.99996999999993
 51
180.0
  0
ARC
  5
F814
330
17
100
AcDbEntity
  8
R-SWTS-DET2
100
AcDbCircle
 10
20.06320175858413
 20
33.94254399000734
 30
0.0
 40
0.06474996
100
AcDbArc
 50
180.0
 51
270.0
  0
ARC
  5
F815
330
17
100
AcDbEntity
  8
R-SWTS-DET2
100
AcDbCircle
 10
19.89970185858412
 20
33.94254399000734
 30
0.0
 40
0.06474996
100
AcDbArc
 50
270.0
 51
0.0
  0
CIRCLE
  5
F816
330
17
100
AcDbEntity
  8
R-SWTS-DET2
100
AcDbCircle
 10
19.98145177858413
 20
33.86079407000734
 30
0.0
 40
0.2125
  0
LINE
  5
F817
330
17
100
AcDbEntity
  8
R-SWTS-DET2
100
AcDbLine
 10
19.96445181858412
 20
33.73129407000734
 30
0.0
 11
19.99845179858413
 21
33.73129407000734
 31
0.0
  0
LINE
  5
F818
330
17
100
AcDbEntity
  8
R-SWTS-DET2
100
AcDbLine
 10
19.96445181858412
 20
33.99029407000734
 30
0.0
 11
19.99845179858413
 21
33.99029407000734
 31
0.0
  0
LINE
  5
F819
330
17
100
AcDbEntity
  8
R-SWTS-DET2
100
AcDbLine
 10
19.85195177858413
 20
33.87779407000734
 30
0.0
 11
19.85195177858413
 21
33.84379407000734
 31
0.0
  0
LINE
  5
F81A
330
17
100
AcDbEntity
  8
R-SWTS-DET2
100
AcDbLine
 10
19.99845179858413
 20
33.77904415000734
 30
0.0
 11
19.99845179858413
 21
33.73129407000734
 31
0.0
  0
LINE
  5
F81B
330
17
100
AcDbEntity
  8
R-SWTS-DET2
100
AcDbLine
 10
20.11095177858413
 20
33.87779407000734
 30
0.0
 11
20.11095177858413
 21
33.84379407000734
 31
0.0
  0
LINE
  5
F81C
330
17
100
AcDbEntity
  8
R-SWTS-DET2
100
AcDbLine
 10
20.06320175858413
 20
33.84379407000734
 30
0.0
 11
20.11095177858413
 21
33.84379407000734
 31
0.0
  0
LINE
  5
F81D
330
17
100
AcDbEntity
  8
R-SWTS-DET2
100
AcDbLine
 10
20.06320175858413
 20
33.87779407000734
 30
0.0
 11
20.11095177858413
 21
33.87779407000734
 31
0.0
  0
LINE
  5
F81E
330
17
100
AcDbEntity
  8
R-SWTS-DET2
100
AcDbLine
 10
19.85195177858413
 20
33.84379407000734
 30
0.0
 11
19.89970185858412
 21
33.84379407000734
 31
0.0
  0
LINE
  5
F81F
330
17
100
AcDbEntity
  8
R-SWTS-DET2
100
AcDbLine
 10
19.85195177858413
 20
33.87779407000734
 30
0.0
 11
19.89970185858412
 21
33.87779407000734
 31
0.0
  0
LINE
  5
F820
330
17
100
AcDbEntity
  8
R-SWTS-DET2
100
AcDbLine
 10
19.99845179858413
 20
33.99029407000734
 30
0.0
 11
19.99845179858413
 21
33.94254399000734
 31
0.0
  0
LINE
  5
F821
330
17
100
AcDbEntity
  8
R-SWTS-DET2
100
AcDbLine
 10
19.96445181858412
 20
33.99029407000734
 30
0.0
 11
19.96445181858412
 21
33.94254399000734
 31
0.0
  0
LINE
  5
F822
330
17
100
AcDbEntity
  8
R-SWTS-DET2
100
AcDbLine
 10
19.96445181858412
 20
33.77904415000734
 30
0.0
 11
19.96445181858412
 21
33.73129407000734
 31
0.0
  0
ARC
  5
F823
330
17
100
AcDbEntity
  8
R-SWTS-DET2
100
AcDbCircle
 10
20.48145177858413
 20
33.70259197000729
 30
0.0
 40
0.3367977
100
AcDbArc
 50
233.0332999999999
 51
306.9667000000001
  0
ARC
  5
F824
330
17
100
AcDbEntity
  8
R-SWTS-DET2
100
AcDbCircle
 10
20.29395187858413
 20
33.45347021000729
 30
0.0
 40
0.02500004
100
AcDbArc
 50
179.9997999999998
 51
233.0329999999998
  0
ARC
  5
F825
330
17
100
AcDbEntity
  8
R-SWTS-DET2
100
AcDbCircle
 10
20.66895167858413
 20
33.45347021000729
 30
0.0
 40
0.02500004
100
AcDbArc
 50
306.9669999999998
 51
0.0
  0
LINE
  5
F826
330
17
100
AcDbEntity
  8
R-SWTS-DET2
100
AcDbLine
 10
20.48145188395123
 20
34.14179407000729
 30
0.0
 11
20.37345197858413
 21
34.03379407000729
 31
0.0
  0
LINE
  5
F827
330
17
100
AcDbEntity
  8
R-SWTS-DET2
100
AcDbLine
 10
20.48145167321703
 20
34.14179407000729
 30
0.0
 11
20.58945157858413
 21
34.03379407000729
 31
0.0
  0
LINE
  5
F828
330
17
100
AcDbEntity
  8
R-SWTS-DET2
100
AcDbLine
 10
20.58945177858413
 20
33.51679407000729
 30
0.0
 11
20.58945177858413
 21
34.0337939700073
 31
0.0
  0
LINE
  5
F829
330
17
100
AcDbEntity
  8
R-SWTS-DET2
100
AcDbLine
 10
20.37345177858413
 20
33.51679407000729
 30
0.0
 11
20.37345177858413
 21
34.0337939700073
 31
0.0
  0
LINE
  5
F82A
330
17
100
AcDbEntity
  8
R-SWTS-DET2
100
AcDbLine
 10
20.69395177858413
 20
33.45347021000729
 30
0.0
 11
20.69395177858413
 21
33.51679407000729
 31
0.0
  0
LINE
  5
F82B
330
17
100
AcDbEntity
  8
R-SWTS-DET2
100
AcDbLine
 10
20.26895177858413
 20
33.45347021000729
 30
0.0
 11
20.26895177858413
 21
33.51679407000729
 31
0.0
  0
LINE
  5
F82C
330
17
100
AcDbEntity
  8
R-SWTS-DET2
100
AcDbLine
 10
20.26895177858413
 20
33.51679407000729
 30
0.0
 11
20.69395177858413
 21
33.51679407000729
 31
0.0
  0
SOLID
  5
F82D
330
17
100
AcDbEntity
  8
R-ANNO-DIMS
100
AcDbTrace
 10
24.10645177858413
 20
29.31573955670566
 30
0.0
 11
24.10645177858413
 21
29.23240622337233
 31
0.0
 12
24.35645177858413
 22
29.274072890039
 32
0.0
 13
24.35645177858413
 23
29.274072890039
 33
0.0
  0
CIRCLE
  5
F82E
330
17
100
AcDbEntity
  8
R-SWTS-DET2
100
AcDbCircle
 10
23.48145177858413
 20
33.86079407000734
 30
0.0
 40
0.2125
  0
LINE
  5
F82F
330
17
100
AcDbEntity
  8
R-SWTS-DET2
100
AcDbLine
 10
23.56320175858412
 20
33.84379407000734
 30
0.0
 11
23.61095177858413
 21
33.84379407000734
 31
0.0
  0
LINE
  5
F830
330
17
100
AcDbEntity
  8
R-SWTS-DET2
100
AcDbLine
 10
23.56320175858412
 20
33.87779407000734
 30
0.0
 11
23.61095177858413
 21
33.87779407000734
 31
0.0
  0
ARC
  5
F831
330
17
100
AcDbEntity
  8
R-SWTS-DET2
100
AcDbCircle
 10
22.98145177858413
 20
33.70259197000729
 30
0.0
 40
0.3367977
100
AcDbArc
 50
233.0332999999999
 51
306.9667000000001
  0
ARC
  5
F832
330
17
100
AcDbEntity
  8
R-SWTS-DET2
100
AcDbCircle
 10
23.16895167858413
 20
33.45347021000729
 30
0.0
 40
0.02500004
100
AcDbArc
 50
306.9669999999998
 51
0.0002000000001805
  0
ARC
  5
F833
330
17
100
AcDbEntity
  8
R-SWTS-DET2
100
AcDbCircle
 10
22.79395187858413
 20
33.45347021000729
 30
0.0
 40
0.02500004
100
AcDbArc
 50
180.0
 51
233.0329999999998
  0
LINE
  5
F834
330
17
100
AcDbEntity
  8
R-SWTS-DET2
100
AcDbLine
 10
22.98145167321703
 20
34.14179407000729
 30
0.0
 11
23.08945157858413
 21
34.03379407000729
 31
0.0
  0
LINE
  5
F835
330
17
100
AcDbEntity
  8
R-SWTS-DET2
100
AcDbLine
 10
22.98145188395123
 20
34.14179407000729
 30
0.0
 11
22.87345197858413
 21
34.03379407000729
 31
0.0
  0
LINE
  5
F836
330
17
100
AcDbEntity
  8
R-SWTS-DET2
100
AcDbLine
 10
22.87345177858413
 20
33.51679407000729
 30
0.0
 11
22.87345177858413
 21
34.0337939700073
 31
0.0
  0
LINE
  5
F837
330
17
100
AcDbEntity
  8
R-SWTS-DET2
100
AcDbLine
 10
23.08945177858413
 20
33.51679407000729
 30
0.0
 11
23.08945177858413
 21
34.0337939700073
 31
0.0
  0
LINE
  5
F838
330
17
100
AcDbEntity
  8
R-SWTS-DET2
100
AcDbLine
 10
22.76895177858413
 20
33.45347021000729
 30
0.0
 11
22.76895177858413
 21
33.51679407000729
 31
0.0
  0
LINE
  5
F839
330
17
100
AcDbEntity
  8
R-SWTS-DET2
100
AcDbLine
 10
23.19395177858413
 20
33.45347021000729
 30
0.0
 11
23.19395177858413
 21
33.51679407000729
 31
0.0
  0
LINE
  5
F83A
330
17
100
AcDbEntity
  8
R-SWTS-DET2
100
AcDbLine
 10
23.19395177858413
 20
33.51679407000729
 30
0.0
 11
22.76895177858413
 21
33.51679407000729
 31
0.0
  0
ARC
  5
F83B
330
17
100
AcDbEntity
  8
R-SWTS-DET2
100
AcDbCircle
 10
23.39970185858412
 20
33.77904415000734
 30
0.0
 40
0.06474996
100
AcDbArc
 50
0.0
 51
89.99990999999999
  0
ARC
  5
F83C
330
17
100
AcDbEntity
  8
R-SWTS-DET2
100
AcDbCircle
 10
23.56320175858412
 20
33.77904415000734
 30
0.0
 40
0.06474996
100
AcDbArc
 50
89.99996999999993
 51
180.0
  0
ARC
  5
F83D
330
17
100
AcDbEntity
  8
R-SWTS-DET2
100
AcDbCircle
 10
23.56320175858412
 20
33.94254399000734
 30
0.0
 40
0.06474996
100
AcDbArc
 50
180.0
 51
270.0
  0
ARC
  5
F83E
330
17
100
AcDbEntity
  8
R-SWTS-DET2
100
AcDbCircle
 10
23.39970185858412
 20
33.94254399000734
 30
0.0
 40
0.06474996
100
AcDbArc
 50
270.0
 51
0.0
  0
LINE
  5
F83F
330
17
100
AcDbEntity
  8
R-SWTS-DET2
100
AcDbLine
 10
23.46445181858412
 20
33.73129407000734
 30
0.0
 11
23.49845179858412
 21
33.73129407000734
 31
0.0
  0
LINE
  5
F840
330
17
100
AcDbEntity
  8
R-SWTS-DET2
100
AcDbLine
 10
23.46445181858412
 20
33.99029407000734
 30
0.0
 11
23.49845179858412
 21
33.99029407000734
 31
0.0
  0
LINE
  5
F841
330
17
100
AcDbEntity
  8
R-SWTS-DET2
100
AcDbLine
 10
23.35195177858413
 20
33.87779407000734
 30
0.0
 11
23.35195177858413
 21
33.84379407000734
 31
0.0
  0
LINE
  5
F842
330
17
100
AcDbEntity
  8
R-SWTS-DET2
100
AcDbLine
 10
23.49845179858412
 20
33.77904415000734
 30
0.0
 11
23.49845179858412
 21
33.73129407000734
 31
0.0
  0
LINE
  5
F843
330
17
100
AcDbEntity
  8
R-SWTS-DET2
100
AcDbLine
 10
23.35195177858413
 20
33.84379407000734
 30
0.0
 11
23.39970185858412
 21
33.84379407000734
 31
0.0
  0
LINE
  5
F844
330
17
100
AcDbEntity
  8
R-SWTS-DET2
100
AcDbLine
 10
23.35195177858413
 20
33.87779407000734
 30
0.0
 11
23.39970185858412
 21
33.87779407000734
 31
0.0
  0
LINE
  5
F845
330
17
100
AcDbEntity
  8
R-SWTS-DET2
100
AcDbLine
 10
23.49845179858412
 20
33.99029407000734
 30
0.0
 11
23.49845179858412
 21
33.94254399000734
 31
0.0
  0
LINE
  5
F846
330
17
100
AcDbEntity
  8
R-SWTS-DET2
100
AcDbLine
 10
23.46445181858412
 20
33.99029407000734
 30
0.0
 11
23.46445181858412
 21
33.94254399000734
 31
0.0
  0
LINE
  5
F847
330
17
100
AcDbEntity
  8
R-SWTS-DET2
100
AcDbLine
 10
23.46445181858412
 20
33.77904415000734
 30
0.0
 11
23.46445181858412
 21
33.73129407000734
 31
0.0
  0
LINE
  5
F848
330
17
100
AcDbEntity
  8
R-SWTS-DET2
100
AcDbLine
 10
23.61095177858413
 20
33.87779407000734
 30
0.0
 11
23.61095177858413
 21
33.84379407000734
 31
0.0
  0
LINE
  5
F849
330
17
100
AcDbEntity
  8
R-SWTS-DET3
100
AcDbLine
 10
16.60645177858413
 20
34.98579407000735
 30
0.0
 11
24.6326400300583
 21
34.98579407000735
 31
0.0
  0
LWPOLYLINE
  5
F85B
330
17
100
AcDbEntity
  8
R-SWTS-DET2
100
AcDbPolyline
 90
       32
 70
     1
 43
0.0
 10
20.0427491565436
 20
24.24237312839404
 10
20.11418886549629
 20
24.3661103339779
 10
20.47274915654357
 20
24.3661103339779
 10
20.48774915654357
 20
24.3511103339779
 10
20.50274915654357
 20
24.3661103339779
 10
22.97274915654357
 20
24.3661103339779
 10
22.98774915654357
 20
24.3511103339779
 10
23.00274915654357
 20
24.3661103339779
 10
23.36130944759113
 20
24.3661103339779
 10
23.43274915654369
 20
24.24237312839414
 42
3.732050807569199
 10
23.5427491565436
 20
24.24237312839404
 10
23.61418886549629
 20
24.3661103339779
 10
23.96774915654367
 20
24.3661103339779
 42
-0.4142135623730951
 10
24.09274915654366
 20
24.2411103339779
 10
24.09274915654366
 20
23.9496103339779
 42
-1.000000000000014
 10
23.96774915654366
 20
23.9496103339779
 10
23.96774915654367
 20
24.2161103339779
 10
23.74774915654349
 20
24.2161103339779
 10
23.74774915654349
 20
24.14711033397786
 42
-1.0
 10
23.22774915654365
 20
24.14711033397786
 10
23.22774915654365
 20
24.2161103339779
 10
20.24774915654349
 20
24.2161103339779
 10
20.24774915654349
 20
24.14711033397786
 42
-1.0
 10
19.72774915654364
 20
24.14711033397786
 10
19.72774915654364
 20
24.2161103339779
 10
19.50774915654347
 20
24.2161103339779
 10
19.50774915654347
 20
23.9496103339779
 42
-1.000000000000014
 10
19.38274915654347
 20
23.94961033397789
 10
19.38274915654347
 20
24.2411103339779
 42
-0.4142135623730951
 10
19.50774915654347
 20
24.3661103339779
 10
19.86130944759113
 20
24.3661103339779
 10
19.93274915654369
 20
24.24237312839413
 42
3.732050807569199
  0
LWPOLYLINE
  5
F85C
330
17
100
AcDbEntity
  8
R-SWTS-DET2
100
AcDbPolyline
 90
       20
 70
     1
 43
0.0
 10
18.92201002745147
 20
23.96711033397793
 42
1.0
 10
18.92201002745147
 20
24.09211033397793
 10
18.5070100274515
 20
24.09211033397793
 42
-0.4142135623730951
 10
18.4070100274515
 20
24.19211033397794
 10
18.4070100274515
 20
24.55961033397794
 42
1.0
 10
18.4070100274515
 20
24.67961033397794
 10
18.4070100274515
 20
25.04711033397794
 42
-0.4142135623730951
 10
18.5070100274515
 20
25.14711033397794
 10
18.92201002745149
 20
25.14711033397794
 42
1.0
 10
18.92201002745149
 20
25.27211033397794
 10
17.7670100274515
 20
25.27211033397794
 42
1.0
 10
17.7670100274515
 20
25.14711033397794
 10
18.1820100274515
 20
25.14711033397794
 42
-0.4142135623730951
 10
18.2820100274515
 20
25.04711033397794
 10
18.2820100274515
 20
24.67961033397794
 42
1.0
 10
18.2820100274515
 20
24.55961033397794
 10
18.2820100274515
 20
24.19211033397794
 42
-0.4142135623730951
 10
18.1820100274515
 20
24.09211033397793
 10
17.76701002745152
 20
24.09211033397793
 42
1.0
 10
17.76701002745152
 20
23.96711033397793
  0
LWPOLYLINE
  5
F85D
330
17
100
AcDbEntity
  8
R-SWTS-DET1
100
AcDbPolyline
 90
       16
 70
     1
 43
0.0
 10
16.92274915654357
 20
23.57211033397795
 10
16.92274915654357
 20
25.97211033397794
 10
17.21674915654357
 20
25.97211033397794
 10
17.21674915654357
 20
25.95211033397792
 42
1.0
 10
17.29674915654356
 20
25.95211033397792
 10
17.29674915654356
 20
25.97211033397794
 10
17.33174915654356
 20
25.97211033397794
 42
1.0
 10
17.33174915654356
 20
26.02211033397794
 10
16.86274915654357
 20
26.02211033397794
 10
16.86274915654357
 20
23.52211033397795
 10
17.33174915654356
 20
23.52211033397795
 42
1.0
 10
17.33174915654356
 20
23.57211033397795
 10
17.29674915654356
 20
23.57211033397795
 10
17.29674915654356
 20
23.59211033397797
 42
1.0
 10
17.21674915654357
 20
23.59211033397797
 10
17.21674915654357
 20
23.57211033397795
  0
LWPOLYLINE
  5
F85E
330
17
100
AcDbEntity
  8
R-SWTS-DET1
100
AcDbPolyline
 90
      153
 70
     1
 43
0.0
 10
17.27937827941428
 20
23.70811033397787
 10
17.17616149113962
 20
23.76770257447315
 42
-0.5773502691895742
 10
17.17616149113962
 20
23.8765180934826
 10
17.27937827941428
 20
23.93611033397787
 42
0.8490904586570334
 10
17.37674915654357
 20
23.95211033397786
 10
17.37674915654356
 20
24.00611033397787
 10
17.40674915654356
 20
24.00611033397787
 42
-0.414213562373069
 10
17.42674915654356
 20
23.98611033397787
 10
17.42674915654356
 20
23.9461103339779
 42
0.414213562373069
 10
17.44674915654356
 20
23.92611033397789
 10
17.49274915654355
 20
23.92611033397789
 42
0.4142135623731015
 10
17.51274915654355
 20
23.9461103339779
 10
17.51274915654356
 20
25.63811033397789
 42
0.4142135623731015
 10
17.49274915654356
 20
25.65811033397789
 10
17.44674915654356
 20
25.65811033397789
 42
0.414213562373069
 10
17.42674915654356
 20
25.6381103339779
 10
17.42674915654356
 20
25.55211033397787
 42
-0.414213562373069
 10
17.40674915654356
 20
25.53211033397787
 10
17.37674915654357
 20
25.53211033397787
 10
17.37674915654357
 20
25.59211033397787
 42
0.8490904586570314
 10
17.27937827941428
 20
25.60811033397787
 10
17.17616149113962
 20
25.66770257447314
 42
-0.577350269189573
 10
17.17616149113962
 20
25.77651809348259
 10
17.27937827941428
 20
25.83611033397787
 42
0.8490904586570302
 10
17.37674915654356
 20
25.85211033397787
 10
17.37674915654357
 20
25.9321103339779
 10
17.40674915654356
 20
26.02211033397789
 10
17.59274915654357
 20
26.02211033397789
 42
-0.4142135623730951
 10
17.61274915654357
 20
26.00211033397789
 10
17.61274915654357
 20
25.92011033397789
 42
-0.6693764950686579
 10
17.58710749793415
 20
25.90953890540646
 42
0.1997729274168739
 10
17.5232575462777
 20
25.93611033397789
 10
17.51274915654357
 20
25.93611033397789
 42
0.4142135623731054
 10
17.46274915654356
 20
25.88611033397789
 10
17.46274915654357
 20
25.79811033397789
 42
0.4142135623730951
 10
17.51274915654357
 20
25.74811033397789
 10
17.5232575462777
 20
25.74811033397789
 42
0.1997729274168763
 10
17.58710749793416
 20
25.77468176254932
 42
-0.6693764950687103
 10
17.61274915654356
 20
25.76411033397789
 10
17.61274915654356
 20
25.27211033397789
 10
17.64274915654355
 20
24.2471103339779
 10
17.64274915654355
 20
24.02711033397789
 42
0.4142135623730993
 10
17.70274915654354
 20
23.9671103339779
 10
19.0527491565435
 20
23.9671103339779
 42
0.41421356237308
 10
19.11274915654351
 20
24.02711033397789
 10
19.11274915654354
 20
24.74711033397789
 10
19.04674915654355
 20
24.74711033397789
 42
-0.4142135623731484
 10
18.94674915654355
 20
24.8471103339779
 10
18.94674915654355
 20
24.8771103339779
 42
-0.4142135623730951
 10
18.96674915654355
 20
24.8971103339779
 10
19.02674915654355
 20
24.8971103339779
 42
-0.4142135623730951
 10
19.03674915654355
 20
24.8871103339779
 10
19.03674915654355
 20
24.8471103339779
 42
0.4142135623731471
 10
19.04674915654355
 20
24.8371103339779
 10
19.10274915654354
 20
24.83711033397789
 42
0.4142135623730951
 10
19.11274915654354
 20
24.84711033397789
 10
19.11274915654357
 20
25.76411033397792
 42
-0.6693764950686824
 10
19.13839081515298
 20
25.77468176254935
 42
0.199772927416878
 10
19.20224076680944
 20
25.74811033397792
 10
19.21274915654357
 20
25.74811033397792
 42
0.4142135623730744
 10
19.26274915654357
 20
25.79811033397792
 10
19.26274915654358
 20
25.88611033397792
 42
0.4142135623730744
 10
19.21274915654358
 20
25.93611033397792
 10
19.20224076680944
 20
25.93611033397792
 42
0.1997729274168749
 10
19.13839081515299
 20
25.90953890540649
 42
-0.6693764950687778
 10
19.11274915654357
 20
25.92011033397792
 10
19.11274915654357
 20
26.0021103339779
 42
-0.4142135623730887
 10
19.13274915654357
 20
26.02211033397789
 10
19.34274915654348
 20
26.02211033397789
 42
-0.4142135623731015
 10
19.36274915654348
 20
26.00211033397789
 10
19.36274915654348
 20
25.95211033397783
 10
19.44374915654352
 20
25.95211033397783
 42
-1.0
 10
19.44374915654352
 20
25.89211033397783
 10
19.36274915654357
 20
25.89211033397783
 10
19.36274915654357
 20
25.73811033397789
 42
-0.4142135623730887
 10
19.26274915654357
 20
25.63811033397789
 10
19.23774915654357
 20
25.63811033397789
 10
19.23774915654352
 20
24.49111033397846
 10
19.78474915654357
 20
24.49111033397809
 10
19.78474915654357
 20
24.6471103339783
 42
-0.202245309578678
 10
19.84605788137579
 20
24.79248083491067
 42
-0.9999999999999984
 10
19.92144043171136
 20
24.71514086397127
 42
2.458658802525793
 10
20.05405788137578
 20
24.71514086397127
 42
-0.9999999999999984
 10
20.12944043171135
 20
24.79248083491067
 42
-0.2022453095786804
 10
20.19074915654357
 20
24.6471103339783
 10
20.19074915654357
 20
24.49111033397838
 10
20.47274915654357
 20
24.49111033397812
 10
20.48774915654357
 20
24.47611033397812
 10
20.5027491565438
 20
24.49111033397835
 10
22.97274915654357
 20
24.49111033397812
 10
22.98774915654357
 20
24.47611033397812
 10
23.00274915654357
 20
24.49111033397812
 10
23.28474915654358
 20
24.49111033397809
 10
23.28474915654358
 20
24.6471103339783
 42
-0.202245309578678
 10
23.34605788137579
 20
24.79248083491067
 42
-0.9999999999999984
 10
23.42144043171136
 20
24.71514086397127
 42
2.458658802525796
 10
23.55405788137578
 20
24.71514086397127
 42
-0.9999999999999984
 10
23.62944043171135
 20
24.79248083491067
 42
-0.2022453095786801
 10
23.69074915654357
 20
24.6471103339783
 10
23.69074915654357
 20
24.49111033397806
 10
24.17774915654356
 20
24.49111033397801
 42
0.4142135623731226
 10
24.23774915654357
 20
24.55111033397801
 10
24.23774915654357
 20
25.69011033397791
 42
0.4142135623731341
 10
24.21774915654357
 20
25.71011033397791
 10
24.15574915654357
 20
25.7101103339779
 10
24.21191133325105
 20
25.86441464630914
 10
24.34567808873171
 20
25.99818140178979
 42
-0.6681786379192923
 10
24.36274915654357
 20
25.99111033397793
 10
24.36274915654357
 20
23.5221103339779
 10
24.11274915654357
 20
23.52211033397789
 10
24.11274915654357
 20
23.5821103339779
 10
23.83774915654357
 20
23.5821103339779
 10
23.83774915654357
 20
23.52211033397789
 10
23.76774915654357
 20
23.52211033397789
 10
23.76774915654357
 20
23.5821103339779
 42
-0.4142135623730894
 10
23.85774915654357
 20
23.6721103339779
 10
24.17774915654357
 20
23.6721103339779
 42
0.4142135623730971
 10
24.23774915654357
 20
23.7321103339779
 10
24.23774915654357
 20
24.30611033397801
 42
0.4142135623730664
 10
24.17774915654357
 20
24.36611033397801
 10
19.297749156544
 20
24.36611033397846
 42
0.4142135623729048
 10
19.23774915654399
 20
24.30611033397851
 10
19.2377491565435
 20
23.64461033397782
 42
-1.000000000000373
 10
19.1127491565435
 20
23.64461033397792
 10
19.11274915654356
 20
23.7221103339779
 42
0.4142135623730826
 10
18.98774915654356
 20
23.8471103339779
 10
18.94774915654356
 20
23.8471103339779
 42
0.4142135623731079
 10
18.82274915654356
 20
23.72211033397789
 10
18.82274915654357
 20
23.6221103339779
 42
-0.4142135623731086
 10
18.72274915654357
 20
23.52211033397789
 10
18.65274915654358
 20
23.52211033397789
 42
-0.4142135623730778
 10
18.62274915654358
 20
23.5521103339779
 10
18.62274915654358
 20
23.5921103339779
 42
-0.414213562373108
 10
18.65274915654358
 20
23.62211033397789
 10
18.70274915654357
 20
23.6221103339779
 10
18.70274915654355
 20
23.7871103339779
 42
0.414213562373055
 10
18.64274915654355
 20
23.8471103339779
 10
18.29774915654355
 20
23.8471103339779
 42
0.4142135623730993
 10
18.23774915654355
 20
23.7871103339779
 10
18.23774915654356
 20
23.52211033397789
 10
18.12774915654356
 20
23.52211033397789
 10
18.12774915654355
 20
23.7871103339779
 42
0.414213562373093
 10
18.06774915654355
 20
23.8471103339779
 10
17.63674915654356
 20
23.8471103339779
 42
0.4142135623731063
 10
17.49674915654356
 20
23.70711033397789
 10
17.49674915654356
 20
23.67211033397785
 42
0.4142135623730778
 10
17.52674915654356
 20
23.64211033397785
 10
17.70274915654356
 20
23.64211033397785
 42
-0.4142135623730971
 10
17.76274915654355
 20
23.58211033397784
 10
17.76274915654355
 20
23.52211033397785
 10
17.40674915654356
 20
23.52211033397785
 10
17.37674915654357
 20
23.61211033397784
 10
17.37674915654356
 20
23.69211033397787
 42
0.8490904586570177
  0
LINE
  5
F85F
330
17
100
AcDbEntity
  8
R-SWTS-DET2
100
AcDbLine
 10
20.59574915654357
 20
24.49111033397795
 30
0.0
 11
20.59574915654357
 21
23.97411043397795
 31
0.0
  0
LINE
  5
F860
330
17
100
AcDbEntity
  8
R-SWTS-DET2
100
AcDbLine
 10
20.37974915654357
 20
24.49111033397795
 30
0.0
 11
20.37974915654357
 21
23.97411043397795
 31
0.0
  0
LINE
  5
F861
330
17
100
AcDbEntity
  8
R-SWTS-DET2
100
AcDbLine
 10
22.87974915654357
 20
24.49111033397795
 30
0.0
 11
22.87974915654357
 21
23.97411043397795
 31
0.0
  0
LINE
  5
F862
330
17
100
AcDbEntity
  8
R-SWTS-DET2
100
AcDbLine
 10
23.09574915654357
 20
24.49111033397795
 30
0.0
 11
23.09574915654357
 21
23.97411043397795
 31
0.0
  0
LWPOLYLINE
  5
F863
330
17
100
AcDbEntity
  8
R-SWTS-DET1
100
AcDbPolyline
 90
        4
 70
     0
 43
0.0
 10
24.36274915654357
 20
28.02211033397792
 10
24.36274915654357
 20
23.5221103339779
 10
16.86274915654357
 20
23.5221103339779
 10
16.86274915654357
 20
28.02211033397794
  0
LINE
  5
F865
330
17
100
AcDbEntity
  8
0
  6
HIDDEN2
100
AcDbLine
 10
18.36274915654358
 20
24.1233603339779
 30
0.0
 11
17.08074915654357
 21
24.1233603339779
 31
0.0
  0
CIRCLE
  5
F866
330
17
100
AcDbEntity
  8
R-SWTS-DET3
100
AcDbCircle
 10
17.87674915654356
 20
23.2721103339779
 30
0.0
 40
0.25
  0
LINE
  5
F867
330
17
100
AcDbEntity
  8
R-SWTS-DET3
100
AcDbLine
 10
16.61274915654357
 20
23.0221103339779
 30
0.0
 11
24.63893740801775
 21
23.0221103339779
 31
0.0
  0
LWPOLYLINE
  5
F872
330
17
100
AcDbEntity
  8
0
100
AcDbPolyline
 90
       37
 70
     1
 43
0.0
 10
17.16774915654358
 20
23.70297395695995
 42
0.577350269189641
 10
17.18274915654358
 20
23.7116342109978
 10
17.18274915654358
 20
23.73711033397785
 42
-0.5773502691896422
 10
17.19774915654357
 20
23.74577058801569
 10
17.23774915654358
 20
23.7226765772481
 42
-0.2679491924311216
 10
17.24274915654357
 20
23.71401632321026
 10
17.24274915654357
 20
23.71211033397785
 42
0.4142135623730387
 10
17.25274915654358
 20
23.70211033397785
 10
17.28674915654357
 20
23.70211033397786
 42
-1.0
 10
17.36674915654357
 20
23.70211033397786
 10
17.36674915654357
 20
23.61211033397786
 42
-0.4142135623730951
 10
17.33674915654357
 20
23.58211033397786
 10
17.30674915654357
 20
23.58211033397786
 42
0.8490904586570254
 10
17.20937827941429
 20
23.59811033397786
 10
17.07274915654357
 20
23.67699319484643
 42
-0.2679491924311085
 10
17.03274915654357
 20
23.74627522714918
 10
17.03274915654357
 20
23.89794544080654
 42
-0.2679491924311077
 10
17.07274915654357
 20
23.96722747310929
 10
17.20937827941429
 20
24.04611033397785
 42
0.8490904586570254
 10
17.30674915654357
 20
24.06211033397786
 10
17.33674915654357
 20
24.06211033397786
 42
-0.4142135623730951
 10
17.36674915654357
 20
24.03211033397786
 10
17.36674915654357
 20
23.94211033397786
 42
-1.0
 10
17.28674915654357
 20
23.94211033397786
 10
17.25274915654358
 20
23.94211033397786
 42
0.4142135623730353
 10
17.24274915654357
 20
23.93211033397787
 10
17.24274915654357
 20
23.93020434474545
 42
-0.2679491924311216
 10
17.23774915654358
 20
23.92154409070761
 10
17.19774915654357
 20
23.89845007994003
 42
-0.5773502691896422
 10
17.18274915654358
 20
23.90711033397787
 10
17.18274915654358
 20
23.93211033397787
 42
0.4142135623730888
 10
17.17274915654357
 20
23.94211033397787
 10
17.16924499542716
 20
23.94211033397787
 10
17.10774915654357
 20
23.90660569484438
 42
0.2679491924311086
 10
17.10274915654357
 20
23.89794544080654
 10
17.10274915654357
 20
23.74627522714918
 42
0.2679491924311096
 10
17.10774915654357
 20
23.73761497311133
  0
SOLID
  5
F873
330
17
100
AcDbEntity
  8
0
100
AcDbTrace
 10
17.11199915654357
 20
23.45961033397795
 30
0.0
 11
17.04949915654357
 21
23.45961033397795
 31
0.0
 12
17.08074915654357
 22
23.27211033397794
 32
0.0
 13
17.08074915654357
 23
23.27211033397794
 33
0.0
  0
LWPOLYLINE
  5
F874
330
17
100
AcDbEntity
  8
0
100
AcDbPolyline
 90
        5
 70
     0
 43
0.0
 10
16.92449915654357
 20
23.52211033397795
 10
16.92449915654357
 20
23.57211033397794
 10
17.23699915654357
 20
23.52211033397795
 10
17.23699915654357
 20
23.57211033397794
 10
16.92449915654357
 20
23.52211033397795
  0
LINE
  5
F875
330
17
100
AcDbEntity
  8
0
  6
HIDDEN2
100
AcDbLine
 10
17.08074915654357
 20
23.45961033397795
 30
0.0
 11
17.08074915654357
 21
24.1233603339779
 31
0.0
  0
LWPOLYLINE
  5
F876
330
17
100
AcDbEntity
  8
0
100
AcDbPolyline
 90
        5
 70
     0
 43
0.0
 10
17.64274915654355
 20
23.9671103339779
 10
17.51274915654355
 20
23.9671103339779
 10
17.64274915654355
 20
24.2796103339779
 10
17.51274915654355
 20
24.2796103339779
 10
17.64274915654355
 20
23.9671103339779
  0
ARC
  5
F877
330
17
100
AcDbEntity
  8
R-SWTS-DET3
100
AcDbCircle
 10
17.18924915654357
 20
23.2721103339779
 30
0.0
 40
0.3125
100
AcDbArc
 50
306.8698976458439
 51
53.1301023541561
  0
ARC
  5
F87B
330
17
100
AcDbEntity
  8
R-SWTS-DET2
100
AcDbCircle
 10
19.90599923654357
 20
24.22886025397791
 30
0.0
 40
0.06474996
100
AcDbArc
 50
270.00009
 51
0.0
  0
ARC
  5
F87C
330
17
100
AcDbEntity
  8
R-SWTS-DET2
100
AcDbCircle
 10
20.06949913654357
 20
24.22886025397791
 30
0.0
 40
0.06474996
100
AcDbArc
 50
180.0
 51
270.00003
  0
ARC
  5
F87D
330
17
100
AcDbEntity
  8
R-SWTS-DET2
100
AcDbCircle
 10
20.06949913654357
 20
24.06536041397791
 30
0.0
 40
0.06474996
100
AcDbArc
 50
90.0
 51
180.0
  0
ARC
  5
F87E
330
17
100
AcDbEntity
  8
R-SWTS-DET2
100
AcDbCircle
 10
19.90599923654357
 20
24.06536041397791
 30
0.0
 40
0.06474996
100
AcDbArc
 50
0.0
 51
90.0
  0
CIRCLE
  5
F87F
330
17
100
AcDbEntity
  8
R-SWTS-DET2
100
AcDbCircle
 10
19.98774915654357
 20
24.14711033397791
 30
0.0
 40
0.2125
  0
LINE
  5
F880
330
17
100
AcDbEntity
  8
R-SWTS-DET2
100
AcDbLine
 10
19.97074919654357
 20
24.27661033397791
 30
0.0
 11
20.00474917654357
 21
24.27661033397791
 31
0.0
  0
LINE
  5
F881
330
17
100
AcDbEntity
  8
R-SWTS-DET2
100
AcDbLine
 10
19.97074919654357
 20
24.01761033397791
 30
0.0
 11
20.00474917654357
 21
24.01761033397791
 31
0.0
  0
LINE
  5
F882
330
17
100
AcDbEntity
  8
R-SWTS-DET2
100
AcDbLine
 10
19.85824915654356
 20
24.13011033397791
 30
0.0
 11
19.85824915654356
 21
24.16411033397791
 31
0.0
  0
LINE
  5
F883
330
17
100
AcDbEntity
  8
R-SWTS-DET2
100
AcDbLine
 10
20.00474917654357
 20
24.22886025397791
 30
0.0
 11
20.00474917654357
 21
24.27661033397791
 31
0.0
  0
LINE
  5
F884
330
17
100
AcDbEntity
  8
R-SWTS-DET2
100
AcDbLine
 10
20.11724915654357
 20
24.13011033397791
 30
0.0
 11
20.11724915654357
 21
24.16411033397791
 31
0.0
  0
LINE
  5
F885
330
17
100
AcDbEntity
  8
R-SWTS-DET2
100
AcDbLine
 10
20.06949913654357
 20
24.16411033397791
 30
0.0
 11
20.11724915654357
 21
24.16411033397791
 31
0.0
  0
LINE
  5
F886
330
17
100
AcDbEntity
  8
R-SWTS-DET2
100
AcDbLine
 10
20.06949913654357
 20
24.13011033397791
 30
0.0
 11
20.11724915654357
 21
24.13011033397791
 31
0.0
  0
LINE
  5
F887
330
17
100
AcDbEntity
  8
R-SWTS-DET2
100
AcDbLine
 10
19.85824915654356
 20
24.16411033397791
 30
0.0
 11
19.90599923654357
 21
24.16411033397791
 31
0.0
  0
LINE
  5
F888
330
17
100
AcDbEntity
  8
R-SWTS-DET2
100
AcDbLine
 10
19.85824915654356
 20
24.13011033397791
 30
0.0
 11
19.90599923654357
 21
24.13011033397791
 31
0.0
  0
LINE
  5
F889
330
17
100
AcDbEntity
  8
R-SWTS-DET2
100
AcDbLine
 10
20.00474917654357
 20
24.01761033397791
 30
0.0
 11
20.00474917654357
 21
24.06536041397791
 31
0.0
  0
LINE
  5
F88A
330
17
100
AcDbEntity
  8
R-SWTS-DET2
100
AcDbLine
 10
19.97074919654357
 20
24.01761033397791
 30
0.0
 11
19.97074919654357
 21
24.06536041397791
 31
0.0
  0
LINE
  5
F88B
330
17
100
AcDbEntity
  8
R-SWTS-DET2
100
AcDbLine
 10
19.97074919654357
 20
24.22886025397791
 30
0.0
 11
19.97074919654357
 21
24.27661033397791
 31
0.0
  0
LINE
  5
F88C
330
17
100
AcDbEntity
  8
R-SWTS-DET2
100
AcDbLine
 10
20.48774926191067
 20
23.86611033397795
 30
0.0
 11
20.37974935654357
 21
23.97411033397795
 31
0.0
  0
LINE
  5
F88D
330
17
100
AcDbEntity
  8
R-SWTS-DET2
100
AcDbLine
 10
20.48774905117647
 20
23.86611033397795
 30
0.0
 11
20.59574895654357
 21
23.97411033397795
 31
0.0
  0
CIRCLE
  5
F88E
330
17
100
AcDbEntity
  8
R-SWTS-DET2
100
AcDbCircle
 10
23.48774915654357
 20
24.14711033397786
 30
0.0
 40
0.2125
  0
LINE
  5
F88F
330
17
100
AcDbEntity
  8
R-SWTS-DET2
100
AcDbLine
 10
23.56949913654357
 20
24.16411033397786
 30
0.0
 11
23.61724915654357
 21
24.16411033397786
 31
0.0
  0
LINE
  5
F890
330
17
100
AcDbEntity
  8
R-SWTS-DET2
100
AcDbLine
 10
23.56949913654357
 20
24.13011033397787
 30
0.0
 11
23.61724915654357
 21
24.13011033397787
 31
0.0
  0
ARC
  5
F891
330
17
100
AcDbEntity
  8
R-SWTS-DET2
100
AcDbCircle
 10
23.40599923654357
 20
24.22886025397787
 30
0.0
 40
0.06474996
100
AcDbArc
 50
270.00009
 51
0.0
  0
ARC
  5
F892
330
17
100
AcDbEntity
  8
R-SWTS-DET2
100
AcDbCircle
 10
23.56949913654357
 20
24.22886025397787
 30
0.0
 40
0.06474996
100
AcDbArc
 50
180.0
 51
270.00003
  0
ARC
  5
F893
330
17
100
AcDbEntity
  8
R-SWTS-DET2
100
AcDbCircle
 10
23.56949913654357
 20
24.06536041397786
 30
0.0
 40
0.06474996
100
AcDbArc
 50
90.0
 51
180.0
  0
ARC
  5
F894
330
17
100
AcDbEntity
  8
R-SWTS-DET2
100
AcDbCircle
 10
23.40599923654357
 20
24.06536041397786
 30
0.0
 40
0.06474996
100
AcDbArc
 50
0.0
 51
90.0
  0
LINE
  5
F895
330
17
100
AcDbEntity
  8
R-SWTS-DET2
100
AcDbLine
 10
23.47074919654357
 20
24.27661033397786
 30
0.0
 11
23.50474917654357
 21
24.27661033397786
 31
0.0
  0
LINE
  5
F896
330
17
100
AcDbEntity
  8
R-SWTS-DET2
100
AcDbLine
 10
23.47074919654357
 20
24.01761033397786
 30
0.0
 11
23.50474917654357
 21
24.01761033397786
 31
0.0
  0
LINE
  5
F897
330
17
100
AcDbEntity
  8
R-SWTS-DET2
100
AcDbLine
 10
23.35824915654357
 20
24.13011033397787
 30
0.0
 11
23.35824915654357
 21
24.16411033397786
 31
0.0
  0
LINE
  5
F898
330
17
100
AcDbEntity
  8
R-SWTS-DET2
100
AcDbLine
 10
23.50474917654357
 20
24.22886025397787
 30
0.0
 11
23.50474917654357
 21
24.27661033397786
 31
0.0
  0
LINE
  5
F899
330
17
100
AcDbEntity
  8
R-SWTS-DET2
100
AcDbLine
 10
23.35824915654357
 20
24.16411033397786
 30
0.0
 11
23.40599923654357
 21
24.16411033397786
 31
0.0
  0
LINE
  5
F89A
330
17
100
AcDbEntity
  8
R-SWTS-DET2
100
AcDbLine
 10
23.35824915654357
 20
24.13011033397787
 30
0.0
 11
23.40599923654357
 21
24.13011033397787
 31
0.0
  0
LINE
  5
F89B
330
17
100
AcDbEntity
  8
R-SWTS-DET2
100
AcDbLine
 10
23.50474917654357
 20
24.01761033397786
 30
0.0
 11
23.50474917654357
 21
24.06536041397786
 31
0.0
  0
LINE
  5
F89C
330
17
100
AcDbEntity
  8
R-SWTS-DET2
100
AcDbLine
 10
23.47074919654357
 20
24.01761033397786
 30
0.0
 11
23.47074919654357
 21
24.06536041397786
 31
0.0
  0
LINE
  5
F89D
330
17
100
AcDbEntity
  8
R-SWTS-DET2
100
AcDbLine
 10
23.47074919654357
 20
24.22886025397787
 30
0.0
 11
23.47074919654357
 21
24.27661033397786
 31
0.0
  0
LINE
  5
F89E
330
17
100
AcDbEntity
  8
R-SWTS-DET2
100
AcDbLine
 10
22.98774905117647
 20
23.86611033397795
 30
0.0
 11
23.09574895654357
 21
23.97411033397795
 31
0.0
  0
LINE
  5
F89F
330
17
100
AcDbEntity
  8
R-SWTS-DET2
100
AcDbLine
 10
22.98774926191067
 20
23.86611033397795
 30
0.0
 11
22.87974935654357
 21
23.97411033397795
 31
0.0
  0
LINE
  5
F8A0
330
17
100
AcDbEntity
  8
R-SWTS-DET2
100
AcDbLine
 10
23.61724915654357
 20
24.13011033397787
 30
0.0
 11
23.61724915654357
 21
24.16411033397786
 31
0.0
  0
LWPOLYLINE
  5
F8A1
330
17
100
AcDbEntity
  8
R-SWTS-DET2
100
AcDbPolyline
 90
       12
 70
     1
 43
0.0
 10
17.83774915654356
 20
25.27211033397795
 10
17.83774915654356
 20
25.38311033397795
 10
17.69774915654357
 20
25.38311033397794
 42
-1.0
 10
17.69774915654357
 20
25.47311033397795
 10
17.83774915654356
 20
25.47311033397794
 10
17.83774915654356
 20
25.58411033397794
 10
18.88774915654357
 20
25.58411033397795
 10
18.88774915654357
 20
25.47311033397795
 10
19.02774915654356
 20
25.47311033397794
 42
-1.0
 10
19.02774915654356
 20
25.38311033397794
 10
18.88774915654357
 20
25.38311033397795
 10
18.88774915654357
 20
25.27211033397795
  0
LWPOLYLINE
  5
F8A2
330
17
100
AcDbEntity
  8
R-SWTS-DET1
100
AcDbPolyline
 90
        6
 70
     0
 43
0.0
 10
16.61274915654357
 20
28.02211033397794
 10
20.51899915654357
 20
28.02211033397794
 10
20.57206773828007
 20
28.23432552696015
 10
20.67961882628125
 20
27.80991078596997
 10
20.73268740801774
 20
28.02212597895218
 10
24.63893740801774
 20
28.02212597895218
  0
LWPOLYLINE
  5
F8A3
330
17
100
AcDbEntity
  8
R-SWTS-DET3
100
AcDbPolyline
 90
        4
 70
     0
 43
0.0
 10
18.86274915654358
 20
28.02211033397794
 10
18.86274915654358
 20
25.58461033397795
 10
17.86274915654358
 20
25.58461033397795
 10
17.86274915654358
 20
28.02211033397794
  0
LINE
  5
F8A6
330
17
100
AcDbEntity
  8
R-SWTS-DET2
100
AcDbLine
 10
17.32299423451969
 20
26.08249595803834
 30
0.0
 11
17.3229942345197
 21
28.02211033397794
 31
0.0
  0
LINE
  5
F8AC
330
17
100
AcDbEntity
  8
R-SWTS-DET2
100
AcDbLine
 10
17.86299423451969
 20
25.54249595803835
 30
0.0
 11
17.86299423451969
 21
26.15903139110921
 31
0.0
  0
LWPOLYLINE
  5
F8AD
330
17
100
AcDbEntity
  8
0
100
AcDbPolyline
 90
       37
 70
     1
 43
0.0
 10
17.16774915654358
 20
25.84124671099594
 42
-0.577350269189641
 10
17.18274915654358
 20
25.83258645695809
 10
17.18274915654358
 20
25.80711033397804
 42
0.5773502691896422
 10
17.19774915654357
 20
25.7984500799402
 10
17.23774915654358
 20
25.82154409070778
 42
0.2679491924311216
 10
17.24274915654357
 20
25.83020434474562
 10
17.24274915654357
 20
25.83211033397804
 42
-0.4142135623730387
 10
17.25274915654358
 20
25.84211033397803
 10
17.28674915654357
 20
25.84211033397803
 42
1.0
 10
17.36674915654357
 20
25.84211033397803
 10
17.36674915654357
 20
25.93211033397803
 42
0.4142135623730951
 10
17.33674915654357
 20
25.96211033397803
 10
17.30674915654357
 20
25.96211033397803
 42
-0.8490904586570254
 10
17.20937827941429
 20
25.94611033397803
 10
17.07274915654357
 20
25.86722747310946
 42
0.2679491924311085
 10
17.03274915654357
 20
25.79794544080671
 10
17.03274915654357
 20
25.64627522714935
 42
0.2679491924311077
 10
17.07274915654357
 20
25.5769931948466
 10
17.20937827941429
 20
25.49811033397804
 42
-0.8490904586570254
 10
17.30674915654357
 20
25.48211033397803
 10
17.33674915654357
 20
25.48211033397803
 42
0.4142135623730951
 10
17.36674915654357
 20
25.51211033397803
 10
17.36674915654357
 20
25.60211033397803
 42
1.0
 10
17.28674915654357
 20
25.60211033397803
 10
17.25274915654358
 20
25.60211033397802
 42
-0.4142135623730353
 10
17.24274915654357
 20
25.61211033397802
 10
17.24274915654357
 20
25.61401632321044
 42
0.2679491924311216
 10
17.23774915654358
 20
25.62267657724828
 10
17.19774915654357
 20
25.64577058801587
 42
0.5773502691896422
 10
17.18274915654358
 20
25.63711033397802
 10
17.18274915654358
 20
25.61211033397802
 42
-0.4142135623730888
 10
17.17274915654357
 20
25.60211033397802
 10
17.16924499542716
 20
25.60211033397802
 10
17.10774915654357
 20
25.6376149731115
 42
-0.2679491924311086
 10
17.10274915654357
 20
25.64627522714935
 10
17.10274915654357
 20
25.79794544080671
 42
-0.2679491924311096
 10
17.10774915654357
 20
25.80660569484456
  0
LINE
  5
F8AE
330
17
100
AcDbEntity
  8
R-SWTS-DET2
100
AcDbLine
 10
17.61299423451969
 20
25.54249595803835
 30
0.0
 11
17.86299423451969
 21
25.54249595803835
 31
0.0
  0
LWPOLYLINE
  5
F8AF
330
17
100
AcDbEntity
  8
R-SWTS-DET2
100
AcDbPolyline
 90
        3
 70
     0
 43
0.0
 10
17.86299423451969
 20
26.15903139110921
 10
17.32299423451969
 20
26.08249595803834
 10
17.32299423451968
 20
26.02211033397793
  0
LINE
  5
F8B4
330
17
100
AcDbEntity
  8
R-SWTS-DET2
100
AcDbLine
 10
19.40250407856747
 20
26.08249595803834
 30
0.0
 11
19.40250407856745
 21
28.02211033397794
 31
0.0
  0
LWPOLYLINE
  5
F8B5
330
17
100
AcDbEntity
  8
R-SWTS-DET3
100
AcDbPolyline
 90
        2
 70
     0
 43
0.0
 10
18.61274915654358
 20
28.02211033397794
 10
18.61274915654358
 20
25.58461033397795
  0
LWPOLYLINE
  5
F8B6
330
17
100
AcDbEntity
  8
R-SWTS-DET3
100
AcDbPolyline
 90
        2
 70
     0
 43
0.0
 10
18.11274915654358
 20
28.02211033397794
 10
18.11274915654358
 20
25.58461033397795
  0
LINE
  5
F8B7
330
17
100
AcDbEntity
  8
R-SWTS-DET2
100
AcDbLine
 10
19.11250407856746
 20
25.64549595803834
 30
0.0
 11
19.02709092278531
 21
25.54573327553966
 31
0.0
  0
ARC
  5
F8B8
330
17
100
AcDbEntity
  8
R-SWTS-DET2
100
AcDbCircle
 10
19.00050407856742
 20
25.56849595803834
 30
0.0
 40
0.0350000000000276
100
AcDbArc
 50
220.000000000039
 51
319.4310723805837
  0
LINE
  5
F8B9
330
17
100
AcDbEntity
  8
R-SWTS-DET2
100
AcDbLine
 10
18.97369252305825
 20
25.54599839169927
 30
0.0
 11
18.86250407856746
 21
25.67850761987607
 31
0.0
  0
LWPOLYLINE
  5
F8BA
330
17
100
AcDbEntity
  8
R-SWTS-DET2
100
AcDbPolyline
 90
        3
 70
     0
 43
0.0
 10
18.86250407856747
 20
26.15903139110921
 10
19.40250407856747
 20
26.08249595803834
 10
19.40250407856747
 20
26.02211033397793
  0
LWPOLYLINE
  5
F8BB
330
17
100
AcDbEntity
  8
R-SWTS-DET3
100
AcDbPolyline
 90
        2
 70
     0
 43
0.0
 10
18.61274915654358
 20
25.83461033397794
 10
18.11274915654358
 20
25.83461033397794
  0
ARC
  5
F8BC
330
17
100
AcDbEntity
  8
R-SWTS-DET2
100
AcDbCircle
 10
20.48774915654357
 20
24.30531243397795
 30
0.0
 40
0.3367977
100
AcDbArc
 50
53.03330000000016
 51
126.9666999999999
  0
ARC
  5
F8BD
330
17
100
AcDbEntity
  8
R-SWTS-DET2
100
AcDbCircle
 10
20.30024925654357
 20
24.55443419397795
 30
0.0
 40
0.02500004
100
AcDbArc
 50
126.967
 51
180.0001999999999
  0
ARC
  5
F8BE
330
17
100
AcDbEntity
  8
R-SWTS-DET2
100
AcDbCircle
 10
20.67524905654357
 20
24.55443419397795
 30
0.0
 40
0.02500004
100
AcDbArc
 50
0.0
 51
53.03299999999993
  0
LINE
  5
F8BF
330
17
100
AcDbEntity
  8
R-SWTS-DET2
100
AcDbLine
 10
20.70024915654357
 20
24.55443419397795
 30
0.0
 11
20.70024915654357
 21
24.49111033397795
 31
0.0
  0
LINE
  5
F8C0
330
17
100
AcDbEntity
  8
R-SWTS-DET2
100
AcDbLine
 10
20.27524915654357
 20
24.55443419397795
 30
0.0
 11
20.27524915654357
 21
24.49111033397795
 31
0.0
  0
LINE
  5
F8C1
330
17
100
AcDbEntity
  8
R-SWTS-DET2
100
AcDbLine
 10
20.27524915654357
 20
24.49111033397795
 30
0.0
 11
20.70024915654357
 21
24.49111033397795
 31
0.0
  0
ARC
  5
F8C3
330
17
100
AcDbEntity
  8
R-SWTS-DET2
100
AcDbCircle
 10
22.98774915654357
 20
24.30531243397795
 30
0.0
 40
0.3367977
100
AcDbArc
 50
53.03330000000016
 51
126.9666999999999
  0
ARC
  5
F8C4
330
17
100
AcDbEntity
  8
R-SWTS-DET2
100
AcDbCircle
 10
23.17524905654357
 20
24.55443419397795
 30
0.0
 40
0.02500004
100
AcDbArc
 50
359.9998000000001
 51
53.03299999999993
  0
ARC
  5
F8C5
330
17
100
AcDbEntity
  8
R-SWTS-DET2
100
AcDbCircle
 10
22.80024925654357
 20
24.55443419397795
 30
0.0
 40
0.02500004
100
AcDbArc
 50
126.967
 51
180.0
  0
LINE
  5
F8C6
330
17
100
AcDbEntity
  8
R-SWTS-DET2
100
AcDbLine
 10
22.77524915654357
 20
24.55443419397795
 30
0.0
 11
22.77524915654357
 21
24.49111033397795
 31
0.0
  0
LINE
  5
F8C7
330
17
100
AcDbEntity
  8
R-SWTS-DET2
100
AcDbLine
 10
23.20024915654357
 20
24.55443419397795
 30
0.0
 11
23.20024915654357
 21
24.49111033397795
 31
0.0
  0
LINE
  5
F8C8
330
17
100
AcDbEntity
  8
R-SWTS-DET2
100
AcDbLine
 10
23.20024915654357
 20
24.49111033397795
 30
0.0
 11
22.77524915654357
 21
24.49111033397795
 31
0.0
  0
LINE
  5
F8D3
330
17
100
AcDbEntity
  8
R-SWTS-DET2
  6
HIDDEN
100
AcDbLine
 10
24.13645177858417
 20
34.98579407000735
 30
0.0
 11
24.13645177858417
 21
31.73579407000735
 31
0.0
  0
LINE
  5
F8D4
330
17
100
AcDbEntity
  8
R-SWTS-DET2
  6
HIDDEN
100
AcDbLine
 10
19.38645177858417
 20
34.98579407000735
 30
0.0
 11
19.38645177858417
 21
31.73579407000735
 31
0.0
  0
LINE
  5
F8D6
330
17
100
AcDbEntity
  8
R-SWTS-DET2
  6
HIDDEN
100
AcDbLine
 10
19.38645177858417
 20
31.73579407000735
 30
0.0
 11
24.13645177858417
 21
31.73579407000735
 31
0.0
  0
LINE
  5
F8D7
330
17
100
AcDbEntity
  8
R-SWTS-DET2
  6
HIDDEN
100
AcDbLine
 10
19.38645177858417
 20
34.73579407000734
 30
0.0
 11
24.13645177858418
 21
34.73579407000735
 31
0.0
  0
LINE
  5
F8D8
330
17
100
AcDbEntity
  8
R-SWTS-DET2
  6
HIDDEN
100
AcDbLine
 10
19.38645177858417
 20
34.98579407000735
 30
0.0
 11
24.13645177858417
 21
34.98579407000735
 31
0.0
  0
LINE
  5
F8D9
330
17
100
AcDbEntity
  8
R-SWTS-DET2
  6
HIDDEN
100
AcDbLine
 10
19.38645177858417
 20
23.2721103339779
 30
0.0
 11
24.13645177858418
 21
23.27211033397789
 31
0.0
  0
LINE
  5
F8DA
330
17
100
AcDbEntity
  8
R-SWTS-DET2
  6
HIDDEN
100
AcDbLine
 10
19.38645177858417
 20
23.0221103339779
 30
0.0
 11
24.13645177858417
 21
23.0221103339779
 31
0.0
  0
LINE
  5
F8DB
330
17
100
AcDbEntity
  8
R-SWTS-DET2
  6
HIDDEN
100
AcDbLine
 10
24.13645177858417
 20
23.0221103339779
 30
0.0
 11
24.13645177858417
 21
26.2721103339779
 31
0.0
  0
LINE
  5
F8DC
330
17
100
AcDbEntity
  8
R-SWTS-DET2
  6
HIDDEN
100
AcDbLine
 10
19.38645177858417
 20
26.2721103339779
 30
0.0
 11
24.13645177858417
 21
26.2721103339779
 31
0.0
  0
LINE
  5
F8DD
330
17
100
AcDbEntity
  8
R-SWTS-DET2
  6
HIDDEN
100
AcDbLine
 10
19.38645177858417
 20
23.0221103339779
 30
0.0
 11
19.38645177858417
 21
26.2721103339779
 31
0.0
  0
LINE
  5
F8DE
330
17
100
AcDbEntity
  8
R-SWTS-DET3
  6
CENTER
100
AcDbLine
 10
21.76145177858417
 20
36.29713875321727
 30
0.0
 11
21.76145177858417
 21
34.56607644365231
 31
0.0
  0
LINE
  5
F8DF
330
17
100
AcDbEntity
  8
R-SWTS-DET3
  6
CENTER
100
AcDbLine
 10
21.76145177858417
 20
23.53819730045088
 30
0.0
 11
21.76145177858417
 21
21.79169685470852
 31
0.0
  0
LINE
  5
FAB3
330
17
100
AcDbEntity
  8
R-SWTS-DET1
  6
HIDDEN
100
AcDbLine
 10
36.15692485674146
 20
24.491110333977
 30
0.0
 11
43.95962009217401
 21
24.491110333977
 31
0.0
  0
LINE
  5
FAB4
330
17
100
AcDbEntity
  8
R-SWTS-DET1
  6
HIDDEN
100
AcDbLine
 10
36.15692485674145
 20
24.366110333977
 30
0.0
 11
43.95962009217401
 21
24.366110333977
 31
0.0
  0
LINE
  5
FAB5
330
17
100
AcDbEntity
  8
R-SWTS-DET1
  6
HIDDEN
100
AcDbLine
 10
36.15692485674226
 20
33.51679407000729
 30
0.0
 11
43.95962009217481
 21
33.51679407000729
 31
0.0
  0
LINE
  5
FAB6
330
17
100
AcDbEntity
  8
R-SWTS-DET1
  6
HIDDEN
100
AcDbLine
 10
36.15692485674227
 20
33.6417940700073
 30
0.0
 11
43.95962009217481
 21
33.6417940700073
 31
0.0
  0
TEXT
  5
FAB7
330
17
100
AcDbEntity
  8
PART_NUMBERS
100
AcDbText
 10
37.15270944364511
 20
36.60629805417317
 30
0.0
 40
0.25
  1
162329 "F" ANCHOR
100
AcDbText
  0
LINE
  5
FAB8
330
17
100
AcDbEntity
  8
R-SWTS-DET3
100
AcDbLine
 10
41.42877726588532
 20
34.98488325260731
 30
0.0
 11
40.66845251410049
 21
35.74520800439216
 31
0.0
  0
LINE
  5
FAB9
330
17
100
AcDbEntity
  8
0
 62
     5
100
AcDbLine
 10
32.09006111197536
 20
34.98579407000734
 30
0.0
 11
43.95027437639501
 21
34.98579407000734
 31
0.0
  0
LINE
  5
FABA
330
17
100
AcDbEntity
  8
0
 62
     1
100
AcDbLine
 10
36.15692485674227
 20
34.4588239752672
 30
0.0
 11
43.95962009217481
 21
34.4588239752672
 31
0.0
  0
LINE
  5
FABB
330
17
100
AcDbEntity
  8
0
 62
     1
100
AcDbLine
 10
36.15692485674227
 20
31.9588239752672
 30
0.0
 11
43.92850612905728
 21
31.9588239752672
 31
0.0
  0
LINE
  5
FABC
330
17
100
AcDbEntity
  8
0
100
AcDbLine
 10
33.71692485674227
 20
34.95882397526722
 30
0.0
 11
41.59692485674227
 21
34.95882397526722
 31
0.0
  0
LINE
  5
FABD
330
17
100
AcDbEntity
  8
0
100
AcDbLine
 10
41.59692485674227
 20
34.70882397526722
 30
0.0
 11
35.84192485674227
 21
34.70882397526722
 31
0.0
  0
LINE
  5
FABE
330
17
100
AcDbEntity
  8
R-SWTS-DET3
100
AcDbLine
 10
41.42877726588539
 20
23.0221103339779
 30
0.0
 11
40.66845251410055
 21
22.26178558219306
 31
0.0
  0
TEXT
  5
FABF
330
17
100
AcDbEntity
  8
0
  6
Continuous
 62
     2
100
AcDbText
 10
35.55097913674998
 20
20.74752856553196
 30
0.0
 40
0.375
  1
"F-ANCHOR" DETAIL
 72
     1
 11
38.10908793620427
 21
20.74752856553196
 31
0.0
100
AcDbText
  0
LINE
  5
FAC0
330
17
100
AcDbEntity
  8
0
 62
     1
100
AcDbLine
 10
36.15692485674227
 20
23.54908042871803
 30
0.0
 11
43.95962009217481
 21
23.54908042871803
 31
0.0
  0
LINE
  5
FAC1
330
17
100
AcDbEntity
  8
0
 62
     1
100
AcDbLine
 10
36.15692485674227
 20
26.04908042871804
 30
0.0
 11
43.92850612905728
 21
26.04908042871804
 31
0.0
  0
LINE
  5
FAC2
330
17
100
AcDbEntity
  8
0
 62
     5
100
AcDbLine
 10
32.09006111197536
 20
23.0221103339779
 30
0.0
 11
43.95027437639501
 21
23.0221103339779
 31
0.0
  0
LINE
  5
FAC3
330
17
100
AcDbEntity
  8
0
100
AcDbLine
 10
41.59692485674227
 20
23.29908042871802
 30
0.0
 11
35.84192485674227
 21
23.29908042871802
 31
0.0
  0
LINE
  5
FAC4
330
17
100
AcDbEntity
  8
0
100
AcDbLine
 10
33.71692485674227
 20
23.04908042871802
 30
0.0
 11
41.59692485674227
 21
23.04908042871802
 31
0.0
  0
TEXT
  5
FAC5
330
17
100
AcDbEntity
  8
0
  6
Continuous
 62
     7
100
AcDbText
 10
34.28485443224037
 20
19.9442097951522
 30
0.0
 40
0.375
  1
EXTERIOR VIEW AT HEAD & SILL
 72
     1
 11
38.4331320584341
 21
19.9442097951522
 31
0.0
100
AcDbText
  0
LINE
  5
FAC6
330
17
100
AcDbEntity
  8
0
  6
HIDDEN
100
AcDbLine
 10
34.15692485674228
 20
23.59018135619384
 30
0.0
 11
34.15692485674228
 21
25.79908042871802
 31
0.0
  0
LINE
  5
FAC7
330
17
100
AcDbEntity
  8
0
  6
HIDDEN
100
AcDbLine
 10
34.03192485674228
 20
25.79908042871802
 30
0.0
 11
34.03192485674228
 21
23.58232887190288
 31
0.0
  0
LINE
  5
FAC8
330
17
100
AcDbEntity
  8
0
  6
HIDDEN
100
AcDbLine
 10
35.65692485674226
 20
25.79908042871802
 30
0.0
 11
35.65692485674226
 21
23.58232887190288
 31
0.0
  0
LINE
  5
FAC9
330
17
100
AcDbEntity
  8
0
  6
HIDDEN
100
AcDbLine
 10
35.78192485674227
 20
23.58232887190288
 30
0.0
 11
35.78192485674227
 21
25.79908042871802
 31
0.0
  0
LINE
  5
FACA
330
17
100
AcDbEntity
  8
0
  6
HIDDEN
 62
     1
100
AcDbLine
 10
33.75692485674226
 20
26.75776526663827
 30
0.0
 11
33.75692485674226
 21
23.54908042871803
 31
0.0
  0
LINE
  5
FACB
330
17
100
AcDbEntity
  8
0
 62
     1
100
AcDbLine
 10
33.65692485674227
 20
26.75776526663827
 30
0.0
 11
33.65692485674227
 21
23.54908042871803
 31
0.0
  0
LINE
  5
FACC
330
17
100
AcDbEntity
  8
0
  6
HIDDEN
 62
     1
100
AcDbLine
 10
36.05692485674227
 20
26.7577652666383
 30
0.0
 11
36.05692485674227
 21
23.54908042871803
 31
0.0
  0
LINE
  5
FACD
330
17
100
AcDbEntity
  8
0
 62
     1
100
AcDbLine
 10
36.15692485674227
 20
26.75776526663831
 30
0.0
 11
36.15692485674227
 21
23.54908042871803
 31
0.0
  0
LINE
  5
FACE
330
17
100
AcDbEntity
  8
0
 62
     1
100
AcDbLine
 10
36.15692485674227
 20
23.54908042871803
 30
0.0
 11
33.65692485674227
 21
23.54908042871803
 31
0.0
  0
LINE
  5
FACF
330
17
100
AcDbEntity
  8
0
100
AcDbLine
 10
35.59692485674228
 20
23.29908042871802
 30
0.0
 11
34.21692485674228
 21
23.29908042871802
 31
0.0
  0
LINE
  5
FAD0
330
17
100
AcDbEntity
  8
R-SWTS-DET3
100
AcDbLine
 10
35.42877726588539
 20
23.0221103339779
 30
0.0
 11
34.66845251410055
 21
22.26178558219306
 31
0.0
  0
ARC
  5
FAD1
330
17
100
AcDbEntity
  8
0
100
AcDbCircle
 10
33.71692485674227
 20
23.23908042871802
 30
0.0
 40
0.0600000000000023
100
AcDbArc
 50
90.0
 51
180.0
  0
LINE
  5
FAD2
330
17
100
AcDbEntity
  8
R-SWTS-DET3
100
AcDbLine
 10
33.92877726588539
 20
23.0221103339779
 30
0.0
 11
33.16845251410055
 21
22.26178558219306
 31
0.0
  0
LINE
  5
FAD3
330
17
100
AcDbEntity
  8
R-SWTS-DET3
100
AcDbLine
 10
33.17877726588539
 20
23.0221103339779
 30
0.0
 11
32.41845251410055
 21
22.26178558219306
 31
0.0
  0
LINE
  5
FAD4
330
17
100
AcDbEntity
  8
R-SWTS-DET3
100
AcDbLine
 10
34.67877726588539
 20
23.0221103339779
 30
0.0
 11
33.91845251410055
 21
22.26178558219306
 31
0.0
  0
ARC
  5
FAD5
330
17
100
AcDbEntity
  8
0
100
AcDbCircle
 10
33.71692485674227
 20
23.10908042871802
 30
0.0
 40
0.0600000000000023
100
AcDbArc
 50
180.0
 51
270.0
  0
LINE
  5
FAD6
330
17
100
AcDbEntity
  8
0
100
AcDbLine
 10
33.65692485674228
 20
23.23908042871802
 30
0.0
 11
33.65692485674227
 21
23.10908042871802
 31
0.0
  0
ARC
  5
FAD7
330
17
100
AcDbEntity
  8
0
100
AcDbCircle
 10
33.97192485674228
 20
23.35908042871804
 30
0.0
 40
0.0600000000000023
100
AcDbArc
 50
270.0
 51
0.0
  0
LINE
  5
FAD8
330
17
100
AcDbEntity
  8
0
100
AcDbLine
 10
33.97192485674228
 20
23.29908042871803
 30
0.0
 11
33.71692485674227
 21
23.29908042871802
 31
0.0
  0
ARC
  5
FAD9
330
17
100
AcDbEntity
  8
0
100
AcDbCircle
 10
34.21692485674228
 20
23.35908042871802
 30
0.0
 40
0.0600000000000023
100
AcDbArc
 50
180.0
 51
270.0
  0
LINE
  5
FADA
330
17
100
AcDbEntity
  8
0
100
AcDbLine
 10
34.03192485674228
 20
23.55091832830714
 30
0.0
 11
34.03192485674228
 21
23.35908042871804
 31
0.0
  0
LINE
  5
FADB
330
17
100
AcDbEntity
  8
0
100
AcDbLine
 10
34.15692485674228
 20
23.35908042871802
 30
0.0
 11
34.15692485674228
 21
23.5430656418722
 31
0.0
  0
LINE
  5
FADC
330
17
100
AcDbEntity
  8
0
  6
HIDDEN
 62
     4
100
AcDbLine
 10
33.53192485674227
 20
24.58658042871805
 30
0.0
 11
33.45642494725206
 21
24.58658042871806
 31
0.0
  0
ARC
  5
FADD
330
17
100
AcDbEntity
  8
0
  6
HIDDEN
 62
     4
100
AcDbCircle
 10
33.71772255674226
 20
24.79908042871805
 30
0.0
 40
0.3367976999999988
100
AcDbArc
 50
140.8803034786184
 51
219.1196965213819
  0
LINE
  5
FADE
330
17
100
AcDbEntity
  8
0
  6
HIDDEN
 62
     4
100
AcDbLine
 10
33.45642494725206
 20
25.01158042871804
 30
0.0
 11
33.53192485674227
 21
25.01158042871804
 31
0.0
  0
LINE
  5
FADF
330
17
100
AcDbEntity
  8
0
  6
HIDDEN
 62
     4
100
AcDbLine
 10
33.53192485674227
 20
25.01158042871804
 30
0.0
 11
33.53192485674227
 21
24.90708042871804
 31
0.0
  0
LINE
  5
FAE0
330
17
100
AcDbEntity
  8
0
  6
HIDDEN
 62
     4
100
AcDbLine
 10
33.53192485674227
 20
24.90708042871804
 30
0.0
 11
33.82692485674227
 21
24.90708042871804
 31
0.0
  0
LINE
  5
FAE1
330
17
100
AcDbEntity
  8
0
  6
HIDDEN
 62
     4
100
AcDbLine
 10
33.82692485674227
 20
24.90708042871804
 30
0.0
 11
33.96992485674227
 21
24.87508042871804
 31
0.0
  0
LINE
  5
FAE2
330
17
100
AcDbEntity
  8
0
  6
HIDDEN
 62
     4
100
AcDbLine
 10
33.96992485674227
 20
24.87508042871804
 30
0.0
 11
33.96992485674227
 21
24.72308042871804
 31
0.0
  0
LINE
  5
FAE3
330
17
100
AcDbEntity
  8
0
  6
HIDDEN
 62
     4
100
AcDbLine
 10
33.96992485674227
 20
24.72308042871804
 30
0.0
 11
33.82692485674227
 21
24.69108042871805
 31
0.0
  0
LINE
  5
FAE4
330
17
100
AcDbEntity
  8
0
  6
HIDDEN
 62
     4
100
AcDbLine
 10
33.82692485674227
 20
24.69108042871805
 30
0.0
 11
33.53192485674227
 21
24.69108042871805
 31
0.0
  0
LINE
  5
FAE5
330
17
100
AcDbEntity
  8
0
  6
HIDDEN
 62
     4
100
AcDbLine
 10
33.53192485674227
 20
24.69108042871805
 30
0.0
 11
33.53192485674227
 21
24.58658042871805
 31
0.0
  0
LWPOLYLINE
  5
FAE6
330
17
100
AcDbEntity
  8
R-SWTS-DET2
  6
HIDDEN
100
AcDbPolyline
 90
        4
 70
     1
 43
0.0
 10
37.71892485674226
 20
23.91261033397826
 10
37.71892485674226
 20
24.33761033397825
 10
37.79442476623247
 20
24.33761033397824
 42
-0.3552945435755391
 10
37.79442476623247
 20
23.91261033397826
  0
LINE
  5
FAE7
330
17
100
AcDbEntity
  8
R-SWTS-DET3
100
AcDbLine
 10
38.42877726588539
 20
23.0221103339779
 30
0.0
 11
37.66845251410055
 21
22.26178558219306
 31
0.0
  0
LINE
  5
FAE8
330
17
100
AcDbEntity
  8
R-SWTS-DET3
  6
CENTER
100
AcDbLine
 10
36.90692485674226
 20
23.51099806783665
 30
0.0
 11
36.90692485674226
 21
21.70125876848986
 31
0.0
  0
LINE
  5
FAE9
330
17
100
AcDbEntity
  8
R-SWTS-DET3
100
AcDbLine
 10
36.92877726588539
 20
23.0221103339779
 30
0.0
 11
36.16845251410055
 21
22.26178558219306
 31
0.0
  0
LINE
  5
FAEA
330
17
100
AcDbEntity
  8
R-SWTS-DET3
100
AcDbLine
 10
36.17877726588539
 20
23.0221103339779
 30
0.0
 11
35.41845251410055
 21
22.26178558219306
 31
0.0
  0
LINE
  5
FAEB
330
17
100
AcDbEntity
  8
R-SWTS-DET3
100
AcDbLine
 10
37.67877726588539
 20
23.0221103339779
 30
0.0
 11
36.91845251410055
 21
22.26178558219306
 31
0.0
  0
LINE
  5
FAEC
330
17
100
AcDbEntity
  8
R-SWTS-DET2
  6
HIDDEN
100
AcDbLine
 10
37.71892485674226
 20
24.24111033397823
 30
0.0
 11
36.15692485674227
 21
24.24111033397823
 31
0.0
  0
LINE
  5
FAED
330
17
100
AcDbEntity
  8
R-SWTS-DET2
  6
HIDDEN
100
AcDbLine
 10
37.71892485674226
 20
24.36611033397824
 30
0.0
 11
36.15692485674227
 21
24.36611033397824
 31
0.0
  0
LINE
  5
FAEE
330
17
100
AcDbEntity
  8
R-SWTS-DET2
  6
HIDDEN
100
AcDbLine
 10
37.71892485674226
 20
23.82711033397826
 30
0.0
 11
36.15692485674227
 21
23.82711033397826
 31
0.0
  0
LWPOLYLINE
  5
FAEF
330
17
100
AcDbEntity
  8
R-SWTS-DET2
  6
HIDDEN2
100
AcDbPolyline
 90
        6
 70
     0
 43
0.0
 10
37.71892485674226
 20
24.01711033397825
 10
35.98692485674228
 20
24.01711033397825
 10
35.84392485674226
 20
24.04911033397826
 10
35.84392485674226
 20
24.20111033397826
 10
35.98692485674224
 20
24.23311033397825
 10
37.71892485674226
 20
24.23311033397825
  0
ARC
  5
FAF0
330
17
100
AcDbEntity
  8
0
100
AcDbCircle
 10
35.84192485674227
 20
23.35908042871802
 30
0.0
 40
0.0600000000000023
100
AcDbArc
 50
180.0
 51
270.0
  0
ARC
  5
FAF1
330
17
100
AcDbEntity
  8
0
100
AcDbCircle
 10
35.59692485674228
 20
23.35908042871801
 30
0.0
 40
0.0599999999999952
100
AcDbArc
 50
270.0000000000065
 51
0.0000000000069209
  0
LINE
  5
FAF2
330
17
100
AcDbEntity
  8
0
100
AcDbLine
 10
35.78192485674227
 20
23.35908042871802
 30
0.0
 11
35.78192485674227
 21
23.55091832830714
 31
0.0
  0
LINE
  5
FAF3
330
17
100
AcDbEntity
  8
0
100
AcDbLine
 10
35.65692485674226
 20
23.5430656418722
 30
0.0
 11
35.65692485674226
 21
23.35908042871802
 31
0.0
  0
LINE
  5
FAF4
330
17
100
AcDbEntity
  8
R-SWTS-DET2
100
AcDbLine
 10
36.78368611301363
 20
24.49111033397795
 30
0.0
 11
36.78368611301363
 21
23.97411043397795
 31
0.0
  0
LINE
  5
FAF5
330
17
100
AcDbEntity
  8
R-SWTS-DET2
100
AcDbLine
 10
36.99968611301364
 20
24.49111033397795
 30
0.0
 11
36.99968611301364
 21
23.97411043397795
 31
0.0
  0
LINE
  5
FAF6
330
17
100
AcDbEntity
  8
R-SWTS-DET2
  6
HIDDEN
100
AcDbLine
 10
37.71892485674226
 20
23.82711033397826
 30
0.0
 11
37.71892485674226
 21
24.36611033397824
 31
0.0
  0
LINE
  5
FAF7
330
17
100
AcDbEntity
  8
R-SWTS-DET2
100
AcDbLine
 10
36.89168600764654
 20
23.86611033397795
 30
0.0
 11
36.99968591301364
 21
23.97411033397795
 31
0.0
  0
LINE
  5
FAF8
330
17
100
AcDbEntity
  8
R-SWTS-DET2
100
AcDbLine
 10
36.89168621838073
 20
23.86611033397795
 30
0.0
 11
36.78368631301363
 21
23.97411033397795
 31
0.0
  0
ARC
  5
FAF9
330
17
100
AcDbEntity
  8
R-SWTS-DET2
100
AcDbCircle
 10
36.89168611301364
 20
24.30531243397795
 30
0.0
 40
0.3367977
100
AcDbArc
 50
53.03330000000016
 51
126.9666999999998
  0
LINE
  5
FAFA
330
17
100
AcDbEntity
  8
R-SWTS-DET2
100
AcDbLine
 10
37.10418611301363
 20
24.49111033397795
 30
0.0
 11
36.67918611301363
 21
24.49111033397796
 31
0.0
  0
ARC
  5
FAFB
330
17
100
AcDbEntity
  8
R-SWTS-DET2
100
AcDbCircle
 10
36.70418621301364
 20
24.55443419397795
 30
0.0
 40
0.02500004
100
AcDbArc
 50
126.967
 51
180.0
  0
LINE
  5
FAFC
330
17
100
AcDbEntity
  8
R-SWTS-DET2
100
AcDbLine
 10
36.67918611301363
 20
24.55443419397795
 30
0.0
 11
36.67918611301363
 21
24.49111033397796
 31
0.0
  0
ARC
  5
FAFD
330
17
100
AcDbEntity
  8
R-SWTS-DET2
100
AcDbCircle
 10
37.07918601301364
 20
24.55443419397795
 30
0.0
 40
0.02500004
100
AcDbArc
 50
359.9998000000001
 51
53.03299999999993
  0
LINE
  5
FAFE
330
17
100
AcDbEntity
  8
R-SWTS-DET2
100
AcDbLine
 10
37.10418611301363
 20
24.55443419397795
 30
0.0
 11
37.10418611301363
 21
24.49111033397795
 31
0.0
  0
LINE
  5
FAFF
330
17
100
AcDbEntity
  8
R-SWTS-DET3
100
AcDbLine
 10
39.92877726588539
 20
23.0221103339779
 30
0.0
 11
39.16845251410055
 21
22.26178558219306
 31
0.0
  0
LINE
  5
FB00
330
17
100
AcDbEntity
  8
R-SWTS-DET3
100
AcDbLine
 10
39.17877726588539
 20
23.0221103339779
 30
0.0
 11
38.41845251410055
 21
22.26178558219306
 31
0.0
  0
LINE
  5
FB01
330
17
100
AcDbEntity
  8
R-SWTS-DET3
100
AcDbLine
 10
40.67877726588538
 20
23.0221103339779
 30
0.0
 11
39.91845251410055
 21
22.26178558219306
 31
0.0
  0
LINE
  5
FB02
330
17
100
AcDbEntity
  8
0
  6
HIDDEN
100
AcDbLine
 10
35.7776655850284
 20
32.1764715946294
 30
0.0
 11
35.66477221047235
 21
31.7551477849483
 31
0.0
  0
LINE
  5
FB03
330
17
100
AcDbEntity
  8
0
  6
HIDDEN
100
AcDbLine
 10
35.54403148218622
 20
31.78750016558612
 30
0.0
 11
35.65692485674226
 21
32.20882397526722
 31
0.0
  0
LINE
  5
FB04
330
17
100
AcDbEntity
  8
0
  6
HIDDEN
100
AcDbLine
 10
34.1490775030122
 20
31.7551477849483
 30
0.0
 11
34.03618412845614
 21
32.1764715946294
 31
0.0
  0
LINE
  5
FB05
330
17
100
AcDbEntity
  8
0
  6
HIDDEN
100
AcDbLine
 10
34.15692485674228
 20
32.20882397526722
 30
0.0
 11
34.26981823129833
 21
31.78750016558612
 31
0.0
  0
LINE
  5
FB06
330
17
100
AcDbEntity
  8
0
  6
HIDDEN
 62
     1
100
AcDbLine
 10
36.05692485674227
 20
31.25013913734694
 30
0.0
 11
36.05692485674227
 21
34.4588239752672
 31
0.0
  0
LINE
  5
FB07
330
17
100
AcDbEntity
  8
0
 62
     1
100
AcDbLine
 10
36.15692485674227
 20
31.25013913734693
 30
0.0
 11
36.15692485674227
 21
34.4588239752672
 31
0.0
  0
LINE
  5
FB08
330
17
100
AcDbEntity
  8
0
  6
HIDDEN
 62
     1
100
AcDbLine
 10
33.75692485674226
 20
31.25013913734697
 30
0.0
 11
33.75692485674226
 21
34.4588239752672
 31
0.0
  0
LINE
  5
FB09
330
17
100
AcDbEntity
  8
0
 62
     1
100
AcDbLine
 10
33.65692485674227
 20
31.25013913734697
 30
0.0
 11
33.65692485674227
 21
34.4588239752672
 31
0.0
  0
LINE
  5
FB0A
330
17
100
AcDbEntity
  8
0
 62
     1
100
AcDbLine
 10
34.75503408448911
 20
31.25013913734697
 30
0.0
 11
34.90395461544982
 21
31.70269470153554
 31
0.0
  0
LINE
  5
FB0B
330
17
100
AcDbEntity
  8
0
 62
     1
100
AcDbLine
 10
34.75503408448911
 20
26.75776526663827
 30
0.0
 11
34.90395461544982
 21
27.21032083082684
 31
0.0
  0
LINE
  5
FB0C
330
17
100
AcDbEntity
  8
0
 62
     1
100
AcDbLine
 10
33.11444812599218
 20
26.75776526663827
 30
0.0
 11
34.75503408448911
 21
26.75776526663827
 31
0.0
  0
LINE
  5
FB0D
330
17
100
AcDbEntity
  8
0
  6
HIDDEN
100
AcDbLine
 10
34.1490775030122
 20
26.25275661903694
 30
0.0
 11
34.03618412845614
 21
25.83143280935584
 31
0.0
  0
LINE
  5
FB0E
330
17
100
AcDbEntity
  8
0
  6
HIDDEN
100
AcDbLine
 10
34.15692485674228
 20
25.79908042871802
 30
0.0
 11
34.26981823129833
 21
26.22040423839912
 31
0.0
  0
ARC
  5
FB0F
330
17
100
AcDbEntity
  8
0
  6
HIDDEN
100
AcDbCircle
 10
34.15692485674228
 20
25.79908042871803
 30
0.0
 40
0.125000000000007
100
AcDbArc
 50
165.0000000000063
 51
180.0000000000065
  0
ARC
  5
FB10
330
17
100
AcDbEntity
  8
0
  6
HIDDEN
100
AcDbCircle
 10
34.20944786715526
 20
26.23658042871803
 30
0.0
 40
0.062499999999995
100
AcDbArc
 50
344.9999999999976
 51
164.9999999999992
  0
LINE
  5
FB11
330
17
100
AcDbEntity
  8
0
 62
     1
100
AcDbLine
 10
33.11444812599218
 20
31.25013913734697
 30
0.0
 11
34.75503408448911
 21
31.25013913734697
 31
0.0
  0
ARC
  5
FB12
330
17
100
AcDbEntity
  8
0
  6
HIDDEN
100
AcDbCircle
 10
34.20944786715526
 20
31.77132397526721
 30
0.0
 40
0.062499999999995
100
AcDbArc
 50
195.0000000000008
 51
15.00000000000245
  0
LINE
  5
FB13
330
17
100
AcDbEntity
  8
0
 62
     1
100
AcDbLine
 10
34.90395461544982
 20
27.21032083082684
 30
0.0
 11
34.97841488093018
 21
26.31739237942432
 31
0.0
  0
LINE
  5
FB14
330
17
100
AcDbEntity
  8
0
 62
     1
100
AcDbLine
 10
35.01847561524713
 20
26.75776526663828
 30
0.0
 11
36.73938211959408
 21
26.75776526663827
 31
0.0
  0
LINE
  5
FB15
330
17
100
AcDbEntity
  8
0
  6
HIDDEN
100
AcDbLine
 10
35.7776655850284
 20
25.83143280935584
 30
0.0
 11
35.66477221047235
 21
26.25275661903694
 31
0.0
  0
LINE
  5
FB16
330
17
100
AcDbEntity
  8
0
  6
HIDDEN
100
AcDbLine
 10
35.54403148218622
 20
26.22040423839912
 30
0.0
 11
35.65692485674226
 21
25.79908042871802
 31
0.0
  0
ARC
  5
FB17
330
17
100
AcDbEntity
  8
0
  6
HIDDEN
100
AcDbCircle
 10
35.65692485674225
 20
25.79908042871803
 30
0.0
 40
0.1250000000000071
100
AcDbArc
 50
359.9999999999935
 51
14.99999999999366
  0
LINE
  5
FB18
330
17
100
AcDbEntity
  8
0
 62
     1
100
AcDbLine
 10
34.97841488093018
 20
26.31739237942432
 30
0.0
 11
35.01847561524713
 21
26.75776526663828
 31
0.0
  0
ARC
  5
FB19
330
17
100
AcDbEntity
  8
0
  6
HIDDEN
100
AcDbCircle
 10
35.60440184632928
 20
26.23658042871803
 30
0.0
 40
0.0625000000000019
100
AcDbArc
 50
15.00000000000077
 51
195.0000000000008
  0
LINE
  5
FB1A
330
17
100
AcDbEntity
  8
0
 62
     1
100
AcDbLine
 10
35.01847561524713
 20
31.25013913734698
 30
0.0
 11
36.73938211959408
 21
31.25013913734697
 31
0.0
  0
LINE
  5
FB1B
330
17
100
AcDbEntity
  8
0
 62
     1
100
AcDbLine
 10
34.90395461544982
 20
31.70269470153554
 30
0.0
 11
34.97841488093018
 21
30.80976625013302
 31
0.0
  0
LINE
  5
FB1C
330
17
100
AcDbEntity
  8
0
 62
     1
100
AcDbLine
 10
34.97841488093018
 20
30.80976625013302
 30
0.0
 11
35.01847561524713
 21
31.25013913734698
 31
0.0
  0
ARC
  5
FB1D
330
17
100
AcDbEntity
  8
0
  6
HIDDEN
100
AcDbCircle
 10
35.60440184632928
 20
31.77132397526721
 30
0.0
 40
0.0625000000000019
100
AcDbArc
 50
164.9999999999992
 51
344.9999999999992
  0
LINE
  5
FB1E
330
17
100
AcDbEntity
  8
0
 62
     1
100
AcDbLine
 10
36.15692485674227
 20
34.4588239752672
 30
0.0
 11
33.65692485674227
 21
34.45882397526721
 31
0.0
  0
LINE
  5
FB1F
330
17
100
AcDbEntity
  8
0
100
AcDbLine
 10
35.59692485674228
 20
34.70882397526722
 30
0.0
 11
34.21692485674228
 21
34.70882397526722
 31
0.0
  0
LINE
  5
FB20
330
17
100
AcDbEntity
  8
R-SWTS-DET3
100
AcDbLine
 10
35.42877726588533
 20
34.98488325260731
 30
0.0
 11
34.66845251410049
 21
35.74520800439216
 31
0.0
  0
LINE
  5
FB21
330
17
100
AcDbEntity
  8
R-SWTS-DET3
100
AcDbLine
 10
34.67877726588533
 20
34.98488325260731
 30
0.0
 11
33.9184525141005
 21
35.74520800439216
 31
0.0
  0
LINE
  5
FB22
330
17
100
AcDbEntity
  8
R-SWTS-DET3
100
AcDbLine
 10
33.17877726588533
 20
34.98488325260731
 30
0.0
 11
32.4184525141005
 21
35.74520800439216
 31
0.0
  0
LINE
  5
FB23
330
17
100
AcDbEntity
  8
R-SWTS-DET3
100
AcDbLine
 10
33.92877726588533
 20
34.98488325260731
 30
0.0
 11
33.16845251410049
 21
35.74520800439216
 31
0.0
  0
LINE
  5
FB24
330
17
100
AcDbEntity
  8
0
  6
HIDDEN
100
AcDbLine
 10
34.03192485674228
 20
32.20882397526722
 30
0.0
 11
34.03192485674228
 21
34.42557553208235
 31
0.0
  0
LINE
  5
FB25
330
17
100
AcDbEntity
  8
0
  6
HIDDEN
100
AcDbLine
 10
34.15692485674228
 20
34.41772304779139
 30
0.0
 11
34.15692485674228
 21
32.20882397526722
 31
0.0
  0
LINE
  5
FB26
330
17
100
AcDbEntity
  8
0
  6
HIDDEN
 62
     4
100
AcDbLine
 10
33.53192485674227
 20
32.9963239752672
 30
0.0
 11
33.53192485674227
 21
33.1008239752672
 31
0.0
  0
ARC
  5
FB27
330
17
100
AcDbEntity
  8
0
  6
HIDDEN
 62
     4
100
AcDbCircle
 10
33.71772255674226
 20
33.20882397526719
 30
0.0
 40
0.3367976999999988
100
AcDbArc
 50
140.8803034786175
 51
219.1196965213816
  0
LINE
  5
FB28
330
17
100
AcDbEntity
  8
0
  6
HIDDEN
 62
     4
100
AcDbLine
 10
33.45642494725206
 20
32.9963239752672
 30
0.0
 11
33.53192485674227
 21
32.9963239752672
 31
0.0
  0
ARC
  5
FB29
330
17
100
AcDbEntity
  8
0
  6
HIDDEN
100
AcDbCircle
 10
34.15692485674228
 20
32.2088239752672
 30
0.0
 40
0.125000000000007
100
AcDbArc
 50
179.9999999999935
 51
194.9999999999936
  0
LINE
  5
FB2A
330
17
100
AcDbEntity
  8
0
  6
HIDDEN
 62
     4
100
AcDbLine
 10
33.53192485674227
 20
33.42132397526719
 30
0.0
 11
33.45642494725206
 21
33.42132397526718
 31
0.0
  0
LINE
  5
FB2B
330
17
100
AcDbEntity
  8
0
  6
HIDDEN
 62
     4
100
AcDbLine
 10
33.82692485674227
 20
33.31682397526719
 30
0.0
 11
33.53192485674227
 21
33.31682397526719
 31
0.0
  0
LINE
  5
FB2C
330
17
100
AcDbEntity
  8
0
  6
HIDDEN
 62
     4
100
AcDbLine
 10
33.53192485674227
 20
33.31682397526719
 30
0.0
 11
33.53192485674227
 21
33.42132397526719
 31
0.0
  0
LINE
  5
FB2D
330
17
100
AcDbEntity
  8
0
  6
HIDDEN
 62
     4
100
AcDbLine
 10
33.53192485674227
 20
33.1008239752672
 30
0.0
 11
33.82692485674227
 21
33.1008239752672
 31
0.0
  0
LINE
  5
FB2E
330
17
100
AcDbEntity
  8
0
  6
HIDDEN
 62
     4
100
AcDbLine
 10
33.82692485674227
 20
33.1008239752672
 30
0.0
 11
33.96992485674227
 21
33.1328239752672
 31
0.0
  0
LINE
  5
FB2F
330
17
100
AcDbEntity
  8
0
  6
HIDDEN
 62
     4
100
AcDbLine
 10
33.96992485674227
 20
33.1328239752672
 30
0.0
 11
33.96992485674227
 21
33.2848239752672
 31
0.0
  0
LINE
  5
FB30
330
17
100
AcDbEntity
  8
0
  6
HIDDEN
 62
     4
100
AcDbLine
 10
33.96992485674227
 20
33.2848239752672
 30
0.0
 11
33.82692485674227
 21
33.31682397526719
 31
0.0
  0
LINE
  5
FB31
330
17
100
AcDbEntity
  8
0
100
AcDbLine
 10
33.65692485674228
 20
34.76882397526722
 30
0.0
 11
33.65692485674227
 21
34.89882397526721
 31
0.0
  0
ARC
  5
FB32
330
17
100
AcDbEntity
  8
0
100
AcDbCircle
 10
33.97192485674228
 20
34.6488239752672
 30
0.0
 40
0.0600000000000023
100
AcDbArc
 50
0.0
 51
90.0
  0
LINE
  5
FB33
330
17
100
AcDbEntity
  8
0
100
AcDbLine
 10
33.97192485674228
 20
34.7088239752672
 30
0.0
 11
33.71692485674227
 21
34.70882397526722
 31
0.0
  0
ARC
  5
FB34
330
17
100
AcDbEntity
  8
0
100
AcDbCircle
 10
33.71692485674227
 20
34.76882397526722
 30
0.0
 40
0.0600000000000023
100
AcDbArc
 50
180.0
 51
270.0
  0
ARC
  5
FB35
330
17
100
AcDbEntity
  8
0
100
AcDbCircle
 10
34.21692485674228
 20
34.64882397526722
 30
0.0
 40
0.0600000000000023
100
AcDbArc
 50
90.0
 51
180.0
  0
LINE
  5
FB36
330
17
100
AcDbEntity
  8
0
100
AcDbLine
 10
34.15692485674228
 20
34.64882397526722
 30
0.0
 11
34.15692485674228
 21
34.46483876211304
 31
0.0
  0
LINE
  5
FB37
330
17
100
AcDbEntity
  8
0
100
AcDbLine
 10
34.03192485674228
 20
34.45698607567809
 30
0.0
 11
34.03192485674228
 21
34.6488239752672
 31
0.0
  0
ARC
  5
FB38
330
17
100
AcDbEntity
  8
0
100
AcDbCircle
 10
33.71692485674227
 20
34.89882397526721
 30
0.0
 40
0.0600000000000023
100
AcDbArc
 50
90.0
 51
180.0
  0
LINE
  5
FB39
330
17
100
AcDbEntity
  8
R-SWTS-DET3
  6
CENTER
100
AcDbLine
 10
36.90692485674226
 20
36.37581574299911
 30
0.0
 11
36.90692485674226
 21
34.56607644365231
 31
0.0
  0
LINE
  5
FB3A
330
17
100
AcDbEntity
  8
R-SWTS-DET3
100
AcDbLine
 10
39.92877726588533
 20
34.98488325260731
 30
0.0
 11
39.1684525141005
 21
35.74520800439216
 31
0.0
  0
LINE
  5
FB3B
330
17
100
AcDbEntity
  8
R-SWTS-DET3
100
AcDbLine
 10
40.67877726588533
 20
34.98488325260731
 30
0.0
 11
39.9184525141005
 21
35.74520800439216
 31
0.0
  0
LINE
  5
FB3C
330
17
100
AcDbEntity
  8
R-SWTS-DET3
100
AcDbLine
 10
38.42877726588533
 20
34.98488325260731
 30
0.0
 11
37.6684525141005
 21
35.74520800439216
 31
0.0
  0
LINE
  5
FB3D
330
17
100
AcDbEntity
  8
R-SWTS-DET3
100
AcDbLine
 10
39.17877726588533
 20
34.98488325260731
 30
0.0
 11
38.41845251410049
 21
35.74520800439216
 31
0.0
  0
LINE
  5
FB3E
330
17
100
AcDbEntity
  8
R-SWTS-DET3
100
AcDbLine
 10
36.92877726588533
 20
34.98488325260731
 30
0.0
 11
36.1684525141005
 21
35.74520800439216
 31
0.0
  0
LINE
  5
FB3F
330
17
100
AcDbEntity
  8
R-SWTS-DET3
100
AcDbLine
 10
36.17877726588533
 20
34.98488325260731
 30
0.0
 11
35.4184525141005
 21
35.74520800439216
 31
0.0
  0
LINE
  5
FB40
330
17
100
AcDbEntity
  8
PART_NUMBERS
100
AcDbLine
 10
35.14738992178158
 20
35.0447605734503
 30
0.0
 11
36.24914027051746
 21
36.71976886564459
 31
0.0
  0
LINE
  5
FB41
330
17
100
AcDbEntity
  8
R-SWTS-DET3
100
AcDbLine
 10
37.67877726588533
 20
34.98488325260731
 30
0.0
 11
36.91845251410049
 21
35.74520800439216
 31
0.0
  0
LWPOLYLINE
  5
FB42
330
17
100
AcDbEntity
  8
R-SWTS-DET2
  6
HIDDEN
100
AcDbPolyline
 90
        4
 70
     1
 43
0.0
 10
37.71892485674226
 20
34.09529407000727
 10
37.71892485674226
 20
33.67029407000727
 10
37.79442476623247
 20
33.67029407000729
 42
0.3552945435755391
 10
37.79442476623247
 20
34.09529407000727
  0
LINE
  5
FB43
330
17
100
AcDbEntity
  8
R-SWTS-DET2
  6
HIDDEN
100
AcDbLine
 10
37.01750742243883
 20
33.51679407000729
 30
0.0
 11
37.01750742243883
 21
34.0337939700073
 31
0.0
  0
LINE
  5
FB44
330
17
100
AcDbEntity
  8
R-SWTS-DET2
  6
HIDDEN
100
AcDbLine
 10
36.80150742243882
 20
33.51679407000729
 30
0.0
 11
36.80150742243882
 21
34.0337939700073
 31
0.0
  0
LWPOLYLINE
  5
FB45
330
17
100
AcDbEntity
  8
R-SWTS-DET2
  6
HIDDEN2
100
AcDbPolyline
 90
        6
 70
     0
 43
0.0
 10
37.71892485674226
 20
33.99079407000728
 10
35.98692485674228
 20
33.99079407000728
 10
35.84392485674226
 20
33.95879407000727
 10
35.84392485674226
 20
33.80679407000727
 10
35.98692485674224
 20
33.77479407000727
 10
37.71892485674226
 20
33.77479407000727
  0
LINE
  5
FB46
330
17
100
AcDbEntity
  8
R-SWTS-DET2
  6
HIDDEN
100
AcDbLine
 10
37.71892485674226
 20
34.18079407000727
 30
0.0
 11
37.71892485674226
 21
33.6417940700073
 31
0.0
  0
LINE
  5
FB47
330
17
100
AcDbEntity
  8
0
  6
HIDDEN
100
AcDbLine
 10
35.65692485674226
 20
32.20882397526722
 30
0.0
 11
35.65692485674226
 21
34.42557553208235
 31
0.0
  0
LINE
  5
FB48
330
17
100
AcDbEntity
  8
0
  6
HIDDEN
100
AcDbLine
 10
35.78192485674227
 20
34.42557553208235
 30
0.0
 11
35.78192485674227
 21
32.20882397526722
 31
0.0
  0
LINE
  5
FB49
330
17
100
AcDbEntity
  8
R-SWTS-DET2
  6
HIDDEN
100
AcDbLine
 10
37.71892485674226
 20
33.6417940700073
 30
0.0
 11
36.15692485674227
 21
33.6417940700073
 31
0.0
  0
LINE
  5
FB4A
330
17
100
AcDbEntity
  8
R-SWTS-DET2
  6
HIDDEN
100
AcDbLine
 10
37.71892485674226
 20
33.76679407000729
 30
0.0
 11
36.15692485674227
 21
33.76679407000729
 31
0.0
  0
ARC
  5
FB4B
330
17
100
AcDbEntity
  8
0
  6
HIDDEN
100
AcDbCircle
 10
35.65692485674225
 20
32.2088239752672
 30
0.0
 40
0.1250000000000071
100
AcDbArc
 50
345.0000000000063
 51
0.0000000000065138
  0
LINE
  5
FB4C
330
17
100
AcDbEntity
  8
R-SWTS-DET2
  6
HIDDEN
100
AcDbLine
 10
37.12200742243882
 20
33.51679407000729
 30
0.0
 11
36.69700742243882
 21
33.51679407000729
 31
0.0
  0
ARC
  5
FB4D
330
17
100
AcDbEntity
  8
R-SWTS-DET2
  6
HIDDEN
100
AcDbCircle
 10
36.90950742243882
 20
33.70259197000728
 30
0.0
 40
0.3367977
100
AcDbArc
 50
233.0332999999997
 51
306.9667000000003
  0
LINE
  5
FB4E
330
17
100
AcDbEntity
  8
R-SWTS-DET2
  6
HIDDEN
100
AcDbLine
 10
36.69700742243882
 20
33.45347021000729
 30
0.0
 11
36.69700742243882
 21
33.51679407000729
 31
0.0
  0
ARC
  5
FB4F
330
17
100
AcDbEntity
  8
R-SWTS-DET2
  6
HIDDEN
100
AcDbCircle
 10
36.72200752243882
 20
33.45347021000729
 30
0.0
 40
0.02500004
100
AcDbArc
 50
180.0
 51
233.0329999999998
  0
LINE
  5
FB50
330
17
100
AcDbEntity
  8
R-SWTS-DET2
  6
HIDDEN
100
AcDbLine
 10
37.12200742243882
 20
33.45347021000729
 30
0.0
 11
37.12200742243882
 21
33.51679407000729
 31
0.0
  0
ARC
  5
FB51
330
17
100
AcDbEntity
  8
R-SWTS-DET2
  6
HIDDEN
100
AcDbCircle
 10
37.09700732243882
 20
33.45347021000729
 30
0.0
 40
0.02500004
100
AcDbArc
 50
306.9670000000001
 51
0.0002000000001805
  0
LINE
  5
FB52
330
17
100
AcDbEntity
  8
R-SWTS-DET2
  6
HIDDEN
100
AcDbLine
 10
37.71892485674226
 20
34.18079407000727
 30
0.0
 11
36.15692485674227
 21
34.18079407000727
 31
0.0
  0
ARC
  5
FB53
330
17
100
AcDbEntity
  8
0
100
AcDbCircle
 10
35.59692485674228
 20
34.64882397526722
 30
0.0
 40
0.0599999999999952
100
AcDbArc
 50
359.9999999999931
 51
89.99999999999308
  0
ARC
  5
FB54
330
17
100
AcDbEntity
  8
0
100
AcDbCircle
 10
35.84192485674227
 20
34.64882397526722
 30
0.0
 40
0.0600000000000023
100
AcDbArc
 50
90.0
 51
180.0
  0
LINE
  5
FB55
330
17
100
AcDbEntity
  8
0
100
AcDbLine
 10
35.78192485674227
 20
34.64882397526722
 30
0.0
 11
35.78192485674227
 21
34.45698607567809
 31
0.0
  0
LINE
  5
FB56
330
17
100
AcDbEntity
  8
0
100
AcDbLine
 10
35.65692485674226
 20
34.46483876211304
 30
0.0
 11
35.65692485674226
 21
34.64882397526722
 31
0.0
  0
SOLID
  5
FB57
330
17
100
AcDbEntity
  8
PART_NUMBERS
100
AcDbTrace
 10
35.12128150063991
 20
35.0619336001343
 30
0.0
 11
35.17349834292324
 21
35.02758754676631
 31
0.0
 12
35.04435176167758
 22
34.88811004660031
 32
0.0
 13
35.04435176167758
 23
34.88811004660031
 33
0.0
  0
LINE
  5
FB58
330
17
100
AcDbEntity
  8
R-SWTS-DET2
  6
HIDDEN
100
AcDbLine
 10
36.90950731707172
 20
34.14179407000729
 30
0.0
 11
37.01750722243883
 21
34.03379407000729
 31
0.0
  0
LINE
  5
FB59
330
17
100
AcDbEntity
  8
R-SWTS-DET2
  6
HIDDEN
100
AcDbLine
 10
36.90950752780592
 20
34.14179407000729
 30
0.0
 11
36.80150762243882
 21
34.03379407000729
 31
0.0
  0
LINE
  5
FB5A
330
17
100
AcDbEntity
  8
PART_NUMBERS
100
AcDbLine
 10
36.24914027051746
 20
36.71976886564459
 30
0.0
 11
37.0562676344947
 21
36.7197688656446
 31
0.0
  0
LINE
  5
FB5B
330
17
100
AcDbEntity
  8
0
 62
     1
100
AcDbLine
 10
43.92850612905729
 20
26.53600649369074
 30
0.0
 11
43.92850612905729
 21
24.89542053519381
 31
0.0
  0
LINE
  5
FB5C
330
17
100
AcDbEntity
  8
0
 62
     1
100
AcDbLine
 10
61.65937180798517
 20
26.53600649369073
 30
0.0
 11
61.65937180798517
 21
24.8954205351938
 31
0.0
  0
LINE
  5
FB5D
330
17
100
AcDbEntity
  8
0
  6
HIDDEN
100
AcDbLine
 10
55.14265092017041
 20
23.60815741217239
 30
0.0
 11
55.14265092017041
 21
25.79908042871802
 31
0.0
  0
LINE
  5
FB5E
330
17
100
AcDbEntity
  8
0
  6
HIDDEN
100
AcDbLine
 10
55.01765092017041
 20
25.79908042871802
 30
0.0
 11
55.01765092017041
 21
23.59765562913463
 31
0.0
  0
LINE
  5
FB5F
330
17
100
AcDbEntity
  8
0
  6
HIDDEN
100
AcDbLine
 10
56.64265092017041
 20
25.79908042871802
 30
0.0
 11
56.64265092017041
 21
23.60815741217239
 31
0.0
  0
LINE
  5
FB60
330
17
100
AcDbEntity
  8
0
  6
HIDDEN
100
AcDbLine
 10
56.76765092017041
 20
23.59765562913463
 30
0.0
 11
56.76765092017041
 21
25.79908042871802
 31
0.0
  0
LINE
  5
FB61
330
17
100
AcDbEntity
  8
0
 62
     1
100
AcDbLine
 10
54.6426509201704
 20
26.75776526663827
 30
0.0
 11
54.6426509201704
 21
23.54908042871802
 31
0.0
  0
LINE
  5
FB62
330
17
100
AcDbEntity
  8
0
  6
HIDDEN
 62
     1
100
AcDbLine
 10
54.74265092017041
 20
26.75776526663827
 30
0.0
 11
54.74265092017041
 21
23.54908042871802
 31
0.0
  0
LINE
  5
FB63
330
17
100
AcDbEntity
  8
0
 62
     1
100
AcDbLine
 10
57.14265092017041
 20
26.72665130352074
 30
0.0
 11
57.14265092017041
 21
23.54908042871802
 31
0.0
  0
LINE
  5
FB64
330
17
100
AcDbEntity
  8
0
  6
HIDDEN
 62
     1
100
AcDbLine
 10
57.0426509201704
 20
26.72665130352074
 30
0.0
 11
57.0426509201704
 21
23.54908042871802
 31
0.0
  0
LINE
  5
FB65
330
17
100
AcDbEntity
  8
0
 62
     1
100
AcDbLine
 10
49.80898856228839
 20
26.53600649369073
 30
0.0
 11
49.80898856228839
 21
24.8954205351938
 31
0.0
  0
LINE
  5
FB66
330
17
100
AcDbEntity
  8
R-SWTS-DET1
  6
HIDDEN
100
AcDbLine
 10
49.8401025254051
 20
24.366110333977
 30
0.0
 11
54.64265092016959
 21
24.366110333977
 31
0.0
  0
LINE
  5
FB67
330
17
100
AcDbEntity
  8
R-SWTS-DET1
  6
HIDDEN
100
AcDbLine
 10
49.8401025254051
 20
24.491110333977
 30
0.0
 11
54.64265092016959
 21
24.491110333977
 31
0.0
  0
LINE
  5
FB68
330
17
100
AcDbEntity
  8
R-SWTS-DET3
100
AcDbLine
 10
52.97754827115968
 20
23.0221103339779
 30
0.0
 11
52.21722351937484
 21
22.26178558219306
 31
0.0
  0
TEXT
  5
FB69
330
17
100
AcDbEntity
  8
0
  6
Continuous
 62
     2
100
AcDbText
 10
53.15699620320764
 20
20.74752856553196
 30
0.0
 40
0.375
  1
"T-ANCHOR" DETAIL
 72
     1
 11
55.71510500266194
 21
20.74752856553196
 31
0.0
100
AcDbText
  0
TEXT
  5
FB6A
330
17
100
AcDbEntity
  8
0
  6
Continuous
 62
     7
100
AcDbText
 10
51.55226493012001
 20
19.9442097951522
 30
0.0
 40
0.375
  1
EXTERIOR VIEW AT HEAD & SILL
 72
     1
 11
55.70054255631373
 21
19.9442097951522
 31
0.0
100
AcDbText
  0
LINE
  5
FB6B
330
17
100
AcDbEntity
  8
0
100
AcDbLine
 10
51.70265092017041
 20
23.04908042871802
 30
0.0
 11
60.08265092017039
 21
23.04908042871802
 31
0.0
  0
LINE
  5
FB6C
330
17
100
AcDbEntity
  8
0
100
AcDbLine
 10
54.95765092017041
 20
23.29908042871802
 30
0.0
 11
51.70265092017041
 21
23.29908042871803
 31
0.0
  0
LINE
  5
FB6D
330
17
100
AcDbEntity
  8
0
 62
     5
100
AcDbLine
 10
49.84010252540591
 20
23.0221103339779
 30
0.0
 11
61.70031578982556
 21
23.0221103339779
 31
0.0
  0
LINE
  5
FB6E
330
17
100
AcDbEntity
  8
0
 62
     1
100
AcDbLine
 10
54.6426509201704
 20
23.54908042871802
 30
0.0
 11
49.84120481076835
 21
23.54908042871802
 31
0.0
  0
LINE
  5
FB6F
330
17
100
AcDbEntity
  8
0
 62
     1
100
AcDbLine
 10
43.92850612905729
 20
24.89542053519381
 30
0.0
 11
43.47595056486873
 21
24.74650000423311
 31
0.0
  0
LINE
  5
FB70
330
17
100
AcDbEntity
  8
0
 62
     1
100
AcDbLine
 10
43.47595056486873
 20
24.74650000423311
 30
0.0
 11
44.36887901627125
 21
24.67203973875275
 31
0.0
  0
LINE
  5
FB71
330
17
100
AcDbEntity
  8
R-SWTS-DET3
  6
CENTER
100
AcDbLine
 10
40.90692485674227
 20
23.49677136317055
 30
0.0
 11
40.90692485674227
 21
21.70125876848986
 31
0.0
  0
ARC
  5
FB72
330
17
100
AcDbEntity
  8
0
100
AcDbCircle
 10
41.59692485674227
 20
23.23908042871803
 30
0.0
 40
0.0599999999999952
100
AcDbArc
 50
0.0000000000069209
 51
90.00000000000651
  0
LINE
  5
FB73
330
17
100
AcDbEntity
  8
R-SWTS-DET3
100
AcDbLine
 10
42.92877726588538
 20
23.0221103339779
 30
0.0
 11
42.16845251410055
 21
22.26178558219306
 31
0.0
  0
LINE
  5
FB74
330
17
100
AcDbEntity
  8
R-SWTS-DET3
100
AcDbLine
 10
42.17877726588539
 20
23.0221103339779
 30
0.0
 11
41.41845251410055
 21
22.26178558219306
 31
0.0
  0
LINE
  5
FB75
330
17
100
AcDbEntity
  8
0
100
AcDbLine
 10
41.65692485674227
 20
23.10908042871802
 30
0.0
 11
41.65692485674227
 21
23.23908042871803
 31
0.0
  0
ARC
  5
FB76
330
17
100
AcDbEntity
  8
0
100
AcDbCircle
 10
41.59692485674227
 20
23.10908042871802
 30
0.0
 40
0.0600000000000023
100
AcDbArc
 50
270.0
 51
0.0
  0
LINE
  5
FB77
330
17
100
AcDbEntity
  8
R-SWTS-DET3
100
AcDbLine
 10
43.67877726588538
 20
23.0221103339779
 30
0.0
 11
42.91845251410054
 21
22.26178558219306
 31
0.0
  0
LINE
  5
FB78
330
17
100
AcDbEntity
  8
0
 62
     1
100
AcDbLine
 10
43.95962009217481
 20
24.63480944256265
 30
0.0
 11
43.95962009217481
 21
21.8836680934191
 31
0.0
  0
LINE
  5
FB79
330
17
100
AcDbEntity
  8
0
 62
     1
100
AcDbLine
 10
44.36887901627125
 20
24.67203973875275
 30
0.0
 11
43.95962009217481
 21
24.63480944256265
 31
0.0
  0
LINE
  5
FB7A
330
17
100
AcDbEntity
  8
0
 62
     1
100
AcDbLine
 10
49.80898856228839
 20
24.8954205351938
 30
0.0
 11
49.35643299809981
 21
24.74650000423309
 31
0.0
  0
LINE
  5
FB7B
330
17
100
AcDbEntity
  8
0
 62
     1
100
AcDbLine
 10
49.35643299809981
 20
24.74650000423309
 30
0.0
 11
50.24936144950235
 21
24.67203973875274
 31
0.0
  0
LINE
  5
FB7C
330
17
100
AcDbEntity
  8
R-SWTS-DET3
  6
CENTER
100
AcDbLine
 10
52.39265092017041
 20
23.66954283994079
 30
0.0
 11
52.39265092017039
 21
21.70125876848986
 31
0.0
  0
ARC
  5
FB7D
330
17
100
AcDbEntity
  8
0
100
AcDbCircle
 10
51.70265092017041
 20
23.23908042871803
 30
0.0
 40
0.0600000000000023
100
AcDbArc
 50
90.0
 51
180.0
  0
LINE
  5
FB7E
330
17
100
AcDbEntity
  8
0
 62
     1
100
AcDbLine
 10
49.84010252540591
 20
24.63480944256263
 30
0.0
 11
49.84010252540591
 21
21.88366809341908
 31
0.0
  0
LINE
  5
FB7F
330
17
100
AcDbEntity
  8
R-SWTS-DET3
100
AcDbLine
 10
51.47754827115967
 20
23.0221103339779
 30
0.0
 11
50.71722351937484
 21
22.26178558219306
 31
0.0
  0
LINE
  5
FB80
330
17
100
AcDbEntity
  8
R-SWTS-DET3
100
AcDbLine
 10
50.72754827115968
 20
23.0221103339779
 30
0.0
 11
49.96722351937484
 21
22.26178558219306
 31
0.0
  0
LINE
  5
FB81
330
17
100
AcDbEntity
  8
R-SWTS-DET3
100
AcDbLine
 10
52.22754827115967
 20
23.0221103339779
 30
0.0
 11
51.46722351937484
 21
22.26178558219306
 31
0.0
  0
ARC
  5
FB82
330
17
100
AcDbEntity
  8
0
100
AcDbCircle
 10
51.70265092017041
 20
23.10908042871802
 30
0.0
 40
0.0600000000000023
100
AcDbArc
 50
180.0
 51
270.0
  0
LINE
  5
FB83
330
17
100
AcDbEntity
  8
0
100
AcDbLine
 10
51.64265092017041
 20
23.23908042871803
 30
0.0
 11
51.64265092017041
 21
23.10908042871802
 31
0.0
  0
LINE
  5
FB84
330
17
100
AcDbEntity
  8
0
 62
     1
100
AcDbLine
 10
50.24936144950235
 20
24.67203973875274
 30
0.0
 11
49.84010252540591
 21
24.63480944256263
 31
0.0
  0
LINE
  5
FB85
330
17
100
AcDbEntity
  8
R-SWTS-DET1
  6
HIDDEN
100
AcDbLine
 10
57.14265092016962
 20
24.366110333977
 30
0.0
 11
61.69048577110189
 21
24.366110333977
 31
0.0
  0
LINE
  5
FB86
330
17
100
AcDbEntity
  8
R-SWTS-DET1
  6
HIDDEN
100
AcDbLine
 10
57.14265092016962
 20
24.49111033397701
 30
0.0
 11
61.69048577110189
 21
24.491110333977
 31
0.0
  0
LWPOLYLINE
  5
FB87
330
17
100
AcDbEntity
  8
R-SWTS-DET2
  6
HIDDEN2
100
AcDbPolyline
 90
        6
 70
     0
 43
0.0
 10
58.70465092017041
 20
24.01711033397825
 10
56.97265092017042
 20
24.01711033397825
 10
56.82965092017041
 20
24.04911033397825
 10
56.82965092017041
 20
24.20111033397825
 10
56.9726509201704
 20
24.23311033397825
 10
58.70465092017041
 20
24.23311033397825
  0
LINE
  5
FB88
330
17
100
AcDbEntity
  8
R-SWTS-DET2
  6
HIDDEN
100
AcDbLine
 10
58.70465092017041
 20
24.36611033397823
 30
0.0
 11
57.14265092017041
 21
24.36611033397823
 31
0.0
  0
LINE
  5
FB89
330
17
100
AcDbEntity
  8
R-SWTS-DET2
  6
HIDDEN
100
AcDbLine
 10
58.70465092017041
 20
24.24111033397823
 30
0.0
 11
57.14265092017041
 21
24.24111033397823
 31
0.0
  0
LINE
  5
FB8A
330
17
100
AcDbEntity
  8
R-SWTS-DET2
  6
HIDDEN
100
AcDbLine
 10
58.70465092017041
 20
23.82711033397825
 30
0.0
 11
57.14265092017041
 21
23.82711033397825
 31
0.0
  0
LINE
  5
FB8B
330
17
100
AcDbEntity
  8
0
100
AcDbLine
 10
60.08265092017039
 20
23.29908042871802
 30
0.0
 11
56.8276509201704
 21
23.29908042871802
 31
0.0
  0
LINE
  5
FB8C
330
17
100
AcDbEntity
  8
0
 62
     1
100
AcDbLine
 10
57.14265092017041
 20
23.54908042871802
 30
0.0
 11
61.69158805646512
 21
23.54908042871802
 31
0.0
  0
LINE
  5
FB8D
330
17
100
AcDbEntity
  8
R-SWTS-DET3
100
AcDbLine
 10
58.97754827115967
 20
23.0221103339779
 30
0.0
 11
58.21722351937484
 21
22.26178558219306
 31
0.0
  0
LINE
  5
FB8E
330
17
100
AcDbEntity
  8
0
100
AcDbLine
 10
56.58265092017041
 20
23.29908042871802
 30
0.0
 11
55.2026509201704
 21
23.29908042871802
 31
0.0
  0
LINE
  5
FB8F
330
17
100
AcDbEntity
  8
0
 62
     1
100
AcDbLine
 10
57.14265092017041
 20
23.54908042871803
 30
0.0
 11
54.6426509201704
 21
23.54908042871802
 31
0.0
  0
LINE
  5
FB90
330
17
100
AcDbEntity
  8
R-SWTS-DET3
100
AcDbLine
 10
55.97754827115967
 20
23.0221103339779
 30
0.0
 11
55.21722351937484
 21
22.26178558219306
 31
0.0
  0
LINE
  5
FB91
330
17
100
AcDbEntity
  8
R-SWTS-DET3
  6
CENTER
100
AcDbLine
 10
53.89265092017041
 20
23.66954283994079
 30
0.0
 11
53.89265092017041
 21
21.70125876848986
 31
0.0
  0
LINE
  5
FB92
330
17
100
AcDbEntity
  8
R-SWTS-DET3
100
AcDbLine
 10
54.47754827115968
 20
23.0221103339779
 30
0.0
 11
53.71722351937484
 21
22.26178558219306
 31
0.0
  0
LINE
  5
FB93
330
17
100
AcDbEntity
  8
R-SWTS-DET3
100
AcDbLine
 10
53.72754827115968
 20
23.0221103339779
 30
0.0
 11
52.96722351937484
 21
22.26178558219306
 31
0.0
  0
LINE
  5
FB94
330
17
100
AcDbEntity
  8
R-SWTS-DET3
100
AcDbLine
 10
55.22754827115967
 20
23.0221103339779
 30
0.0
 11
54.46722351937484
 21
22.26178558219306
 31
0.0
  0
LINE
  5
FB95
330
17
100
AcDbEntity
  8
R-SWTS-DET2
100
AcDbLine
 10
54.12119328383613
 20
24.49111033397795
 30
0.0
 11
53.69619328383613
 21
24.49111033397796
 31
0.0
  0
ARC
  5
FB96
330
17
100
AcDbEntity
  8
R-SWTS-DET2
100
AcDbCircle
 10
53.90869328383613
 20
24.30531243397795
 30
0.0
 40
0.3367977
100
AcDbArc
 50
53.03330000000016
 51
126.9666999999998
  0
LINE
  5
FB97
330
17
100
AcDbEntity
  8
R-SWTS-DET2
  6
HIDDEN
100
AcDbLine
 10
53.0806509201704
 20
24.24111033397823
 30
0.0
 11
54.6426509201704
 21
24.24111033397823
 31
0.0
  0
LINE
  5
FB98
330
17
100
AcDbEntity
  8
R-SWTS-DET2
  6
HIDDEN
100
AcDbLine
 10
53.0806509201704
 20
24.36611033397823
 30
0.0
 11
54.6426509201704
 21
24.36611033397823
 31
0.0
  0
LINE
  5
FB99
330
17
100
AcDbEntity
  8
R-SWTS-DET2
  6
HIDDEN
100
AcDbLine
 10
53.0806509201704
 20
23.82711033397825
 30
0.0
 11
54.6426509201704
 21
23.82711033397825
 31
0.0
  0
LWPOLYLINE
  5
FB9A
330
17
100
AcDbEntity
  8
R-SWTS-DET2
  6
HIDDEN2
100
AcDbPolyline
 90
        6
 70
     0
 43
0.0
 10
53.0806509201704
 20
24.01711033397825
 10
54.81265092017038
 20
24.01711033397825
 10
54.9556509201704
 20
24.04911033397825
 10
54.9556509201704
 20
24.20111033397825
 10
54.81265092017042
 20
24.23311033397825
 10
53.0806509201704
 20
24.23311033397825
  0
LINE
  5
FB9B
330
17
100
AcDbEntity
  8
R-SWTS-DET2
100
AcDbLine
 10
54.01669328383613
 20
24.49111033397795
 30
0.0
 11
54.01669328383613
 21
23.97411043397795
 31
0.0
  0
LINE
  5
FB9C
330
17
100
AcDbEntity
  8
R-SWTS-DET2
100
AcDbLine
 10
53.80069328383612
 20
24.49111033397795
 30
0.0
 11
53.80069328383612
 21
23.97411043397795
 31
0.0
  0
LINE
  5
FB9D
330
17
100
AcDbEntity
  8
R-SWTS-DET2
  6
HIDDEN
100
AcDbLine
 10
53.0806509201704
 20
23.82711033397825
 30
0.0
 11
53.0806509201704
 21
24.36611033397823
 31
0.0
  0
LWPOLYLINE
  5
FB9E
330
17
100
AcDbEntity
  8
R-SWTS-DET2
  6
HIDDEN
100
AcDbPolyline
 90
        4
 70
     1
 43
0.0
 10
53.0806509201704
 20
23.91261033397825
 10
53.0806509201704
 20
24.33761033397825
 10
53.00515101068019
 20
24.33761033397824
 42
0.3552945435755391
 10
53.00515101068018
 20
23.91261033397825
  0
LINE
  5
FB9F
330
17
100
AcDbEntity
  8
R-SWTS-DET2
100
AcDbLine
 10
53.90869338920323
 20
23.86611033397795
 30
0.0
 11
53.80069348383613
 21
23.97411033397795
 31
0.0
  0
LINE
  5
FBA0
330
17
100
AcDbEntity
  8
R-SWTS-DET2
100
AcDbLine
 10
53.90869317846902
 20
23.86611033397795
 30
0.0
 11
54.01669308383613
 21
23.97411033397795
 31
0.0
  0
LINE
  5
FBA1
330
17
100
AcDbEntity
  8
R-SWTS-DET2
100
AcDbLine
 10
53.69619328383613
 20
24.55443419397795
 30
0.0
 11
53.69619328383613
 21
24.49111033397796
 31
0.0
  0
ARC
  5
FBA2
330
17
100
AcDbEntity
  8
R-SWTS-DET2
100
AcDbCircle
 10
53.72119338383613
 20
24.55443419397795
 30
0.0
 40
0.02500004
100
AcDbArc
 50
126.967
 51
180.0
  0
ARC
  5
FBA3
330
17
100
AcDbEntity
  8
0
100
AcDbCircle
 10
55.20265092017041
 20
23.35908042871802
 30
0.0
 40
0.0600000000000023
100
AcDbArc
 50
180.0
 51
269.9999999999964
  0
ARC
  5
FBA4
330
17
100
AcDbEntity
  8
0
100
AcDbCircle
 10
54.95765092017041
 20
23.35908042871802
 30
0.0
 40
0.0600000000000023
100
AcDbArc
 50
270.0
 51
0.0
  0
LINE
  5
FBA5
330
17
100
AcDbEntity
  8
0
100
AcDbLine
 10
55.01765092017041
 20
23.55564890127157
 30
0.0
 11
55.01765092017041
 21
23.35908042871802
 31
0.0
  0
LINE
  5
FBA6
330
17
100
AcDbEntity
  8
0
100
AcDbLine
 10
55.14265092017041
 20
23.35908042871802
 30
0.0
 11
55.14265092017041
 21
23.54514711823384
 31
0.0
  0
LINE
  5
FBA7
330
17
100
AcDbEntity
  8
R-SWTS-DET2
100
AcDbLine
 10
54.12119328383613
 20
24.55443419397795
 30
0.0
 11
54.12119328383613
 21
24.49111033397795
 31
0.0
  0
ARC
  5
FBA8
330
17
100
AcDbEntity
  8
R-SWTS-DET2
100
AcDbCircle
 10
54.09619318383612
 20
24.55443419397795
 30
0.0
 40
0.02500004
100
AcDbArc
 50
359.9998000000001
 51
53.03299999999993
  0
LINE
  5
FBA9
330
17
100
AcDbEntity
  8
R-SWTS-DET3
  6
CENTER
100
AcDbLine
 10
57.89265092017038
 20
23.66954283994079
 30
0.0
 11
57.89265092017039
 21
21.70125876848986
 31
0.0
  0
LINE
  5
FBAA
330
17
100
AcDbEntity
  8
R-SWTS-DET3
100
AcDbLine
 10
57.47754827115968
 20
23.0221103339779
 30
0.0
 11
56.71722351937484
 21
22.26178558219306
 31
0.0
  0
LINE
  5
FBAB
330
17
100
AcDbEntity
  8
R-SWTS-DET3
100
AcDbLine
 10
56.72754827115968
 20
23.0221103339779
 30
0.0
 11
55.96722351937484
 21
22.26178558219306
 31
0.0
  0
LINE
  5
FBAC
330
17
100
AcDbEntity
  8
R-SWTS-DET3
100
AcDbLine
 10
58.22754827115968
 20
23.0221103339779
 30
0.0
 11
57.46722351937484
 21
22.26178558219306
 31
0.0
  0
ARC
  5
FBAD
330
17
100
AcDbEntity
  8
0
100
AcDbCircle
 10
56.58265092017041
 20
23.35908042871802
 30
0.0
 40
0.0600000000000023
100
AcDbArc
 50
270.0
 51
0.0
  0
ARC
  5
FBAE
330
17
100
AcDbEntity
  8
0
100
AcDbCircle
 10
56.82765092017041
 20
23.35908042871802
 30
0.0
 40
0.0600000000000023
100
AcDbArc
 50
180.0
 51
269.9999999999964
  0
LINE
  5
FBAF
330
17
100
AcDbEntity
  8
0
100
AcDbLine
 10
56.76765092017041
 20
23.35908042871802
 30
0.0
 11
56.76765092017041
 21
23.54514711823384
 31
0.0
  0
LINE
  5
FBB0
330
17
100
AcDbEntity
  8
0
100
AcDbLine
 10
56.64265092017041
 20
23.54514711823384
 30
0.0
 11
56.64265092017041
 21
23.35908042871802
 31
0.0
  0
LINE
  5
FBB1
330
17
100
AcDbEntity
  8
R-SWTS-DET2
100
AcDbLine
 10
57.78366889670627
 20
24.49111033397795
 30
0.0
 11
57.78366889670627
 21
23.97411043397795
 31
0.0
  0
LINE
  5
FBB2
330
17
100
AcDbEntity
  8
R-SWTS-DET2
100
AcDbLine
 10
57.99966889670628
 20
24.49111033397795
 30
0.0
 11
57.99966889670628
 21
23.97411043397795
 31
0.0
  0
LINE
  5
FBB3
330
17
100
AcDbEntity
  8
R-SWTS-DET2
100
AcDbLine
 10
57.89166900207337
 20
23.86611033397795
 30
0.0
 11
57.78366909670627
 21
23.97411033397795
 31
0.0
  0
LINE
  5
FBB4
330
17
100
AcDbEntity
  8
R-SWTS-DET2
100
AcDbLine
 10
57.89166879133919
 20
23.86611033397795
 30
0.0
 11
57.99966869670628
 21
23.97411033397795
 31
0.0
  0
ARC
  5
FBB5
330
17
100
AcDbEntity
  8
R-SWTS-DET2
100
AcDbCircle
 10
57.89166889670628
 20
24.30531243397795
 30
0.0
 40
0.3367977
100
AcDbArc
 50
53.03330000000016
 51
126.9666999999998
  0
LINE
  5
FBB6
330
17
100
AcDbEntity
  8
R-SWTS-DET2
100
AcDbLine
 10
58.10416889670628
 20
24.49111033397795
 30
0.0
 11
57.67916889670627
 21
24.49111033397796
 31
0.0
  0
ARC
  5
FBB7
330
17
100
AcDbEntity
  8
R-SWTS-DET2
100
AcDbCircle
 10
57.70416899670627
 20
24.55443419397795
 30
0.0
 40
0.02500004
100
AcDbArc
 50
126.967
 51
180.0
  0
LINE
  5
FBB8
330
17
100
AcDbEntity
  8
R-SWTS-DET2
100
AcDbLine
 10
57.67916889670627
 20
24.55443419397795
 30
0.0
 11
57.67916889670627
 21
24.49111033397796
 31
0.0
  0
ARC
  5
FBB9
330
17
100
AcDbEntity
  8
R-SWTS-DET2
100
AcDbCircle
 10
58.07916879670628
 20
24.55443419397795
 30
0.0
 40
0.02500004
100
AcDbArc
 50
359.9998000000001
 51
53.03299999999993
  0
LINE
  5
FBBA
330
17
100
AcDbEntity
  8
R-SWTS-DET2
100
AcDbLine
 10
58.10416889670628
 20
24.55443419397795
 30
0.0
 11
58.10416889670628
 21
24.49111033397795
 31
0.0
  0
LINE
  5
FBBB
330
17
100
AcDbEntity
  8
0
 62
     1
100
AcDbLine
 10
61.65937180798517
 20
24.8954205351938
 30
0.0
 11
61.2068162437966
 21
24.74650000423309
 31
0.0
  0
LINE
  5
FBBC
330
17
100
AcDbEntity
  8
0
 62
     1
100
AcDbLine
 10
61.2068162437966
 20
24.74650000423309
 30
0.0
 11
62.09974469519912
 21
24.67203973875274
 31
0.0
  0
LINE
  5
FBBD
330
17
100
AcDbEntity
  8
R-SWTS-DET3
  6
CENTER
100
AcDbLine
 10
59.3926509201704
 20
23.66954283994079
 30
0.0
 11
59.3926509201704
 21
21.70125876848986
 31
0.0
  0
ARC
  5
FBBE
330
17
100
AcDbEntity
  8
0
100
AcDbCircle
 10
60.0826509201704
 20
23.23908042871803
 30
0.0
 40
0.0599999999999952
100
AcDbArc
 50
0.0000000000069209
 51
90.00000000000651
  0
LINE
  5
FBBF
330
17
100
AcDbEntity
  8
R-SWTS-DET3
100
AcDbLine
 10
60.47754827115968
 20
23.0221103339779
 30
0.0
 11
59.71722351937484
 21
22.26178558219306
 31
0.0
  0
LINE
  5
FBC0
330
17
100
AcDbEntity
  8
R-SWTS-DET3
100
AcDbLine
 10
59.72754827115967
 20
23.0221103339779
 30
0.0
 11
58.96722351937484
 21
22.26178558219306
 31
0.0
  0
LINE
  5
FBC1
330
17
100
AcDbEntity
  8
R-SWTS-DET3
100
AcDbLine
 10
61.22754827115968
 20
23.0221103339779
 30
0.0
 11
60.46722351937484
 21
22.26178558219306
 31
0.0
  0
LINE
  5
FBC2
330
17
100
AcDbEntity
  8
0
100
AcDbLine
 10
60.1426509201704
 20
23.10908042871802
 30
0.0
 11
60.1426509201704
 21
23.23908042871803
 31
0.0
  0
ARC
  5
FBC3
330
17
100
AcDbEntity
  8
0
100
AcDbCircle
 10
60.08265092017039
 20
23.10908042871802
 30
0.0
 40
0.0600000000000023
100
AcDbArc
 50
270.0
 51
0.0
  0
LWPOLYLINE
  5
FBC4
330
17
100
AcDbEntity
  8
R-SWTS-DET2
  6
HIDDEN
100
AcDbPolyline
 90
        4
 70
     1
 43
0.0
 10
58.70465092017041
 20
23.91261033397825
 10
58.70465092017041
 20
24.33761033397825
 10
58.78015082966062
 20
24.33761033397824
 42
-0.3552945435755391
 10
58.78015082966062
 20
23.91261033397825
  0
LINE
  5
FBC5
330
17
100
AcDbEntity
  8
R-SWTS-DET2
  6
HIDDEN
100
AcDbLine
 10
58.70465092017041
 20
23.82711033397825
 30
0.0
 11
58.70465092017041
 21
24.36611033397823
 31
0.0
  0
LINE
  5
FBC6
330
17
100
AcDbEntity
  8
0
 62
     1
100
AcDbLine
 10
61.69048577110268
 20
24.63480944256263
 30
0.0
 11
61.69048577110268
 21
21.88366809341908
 31
0.0
  0
LINE
  5
FBC7
330
17
100
AcDbEntity
  8
0
 62
     1
100
AcDbLine
 10
62.09974469519912
 20
24.67203973875274
 30
0.0
 11
61.69048577110268
 21
24.63480944256263
 31
0.0
  0
LINE
  5
FBC8
330
17
100
AcDbEntity
  8
R-SWTS-DET1
  6
HIDDEN
100
AcDbLine
 10
49.84010252540591
 20
33.6417940700073
 30
0.0
 11
54.6426509201704
 21
33.6417940700073
 31
0.0
  0
LINE
  5
FBC9
330
17
100
AcDbEntity
  8
R-SWTS-DET1
  6
HIDDEN
100
AcDbLine
 10
49.84010252540591
 20
33.51679407000729
 30
0.0
 11
54.6426509201704
 21
33.51679407000729
 31
0.0
  0
LINE
  5
FBCA
330
17
100
AcDbEntity
  8
R-SWTS-DET3
100
AcDbLine
 10
52.9775482711597
 20
34.98488325260731
 30
0.0
 11
52.21722351937486
 21
35.74520800439216
 31
0.0
  0
LINE
  5
FBCB
330
17
100
AcDbEntity
  8
0
 62
     1
100
AcDbLine
 10
54.6426509201704
 20
34.45882397526722
 30
0.0
 11
49.84120481076835
 21
34.45882397526722
 31
0.0
  0
LINE
  5
FBCC
330
17
100
AcDbEntity
  8
0
 62
     1
100
AcDbLine
 10
54.6426509201704
 20
31.95882397526722
 30
0.0
 11
49.84120481076835
 21
31.95882397526722
 31
0.0
  0
LINE
  5
FBCD
330
17
100
AcDbEntity
  8
0
 62
     5
100
AcDbLine
 10
49.84010252540591
 20
34.98579407000734
 30
0.0
 11
61.70031578982556
 21
34.98579407000734
 31
0.0
  0
LINE
  5
FBCE
330
17
100
AcDbEntity
  8
0
100
AcDbLine
 10
54.95765092017041
 20
34.70882397526722
 30
0.0
 11
51.70265092017041
 21
34.7088239752672
 31
0.0
  0
LINE
  5
FBCF
330
17
100
AcDbEntity
  8
0
100
AcDbLine
 10
51.70265092017041
 20
34.95882397526722
 30
0.0
 11
60.08265092017039
 21
34.95882397526722
 31
0.0
  0
LINE
  5
FBD0
330
17
100
AcDbEntity
  8
0
 62
     1
100
AcDbLine
 10
54.6426509201704
 20
26.04908042871802
 30
0.0
 11
49.84120481076835
 21
26.04908042871802
 31
0.0
  0
LINE
  5
FBD1
330
17
100
AcDbEntity
  8
0
 62
     1
100
AcDbLine
 10
43.92850612905729
 20
31.47189791029449
 30
0.0
 11
43.92850612905729
 21
33.11248386879142
 31
0.0
  0
LINE
  5
FBD2
330
17
100
AcDbEntity
  8
0
 62
     1
100
AcDbLine
 10
49.80898856228839
 20
31.47189791029451
 30
0.0
 11
49.80898856228839
 21
33.11248386879144
 31
0.0
  0
LINE
  5
FBD3
330
17
100
AcDbEntity
  8
R-SWTS-DET3
  6
CENTER
100
AcDbLine
 10
40.90692485674227
 20
36.36158903833301
 30
0.0
 11
40.90692485674227
 21
34.56607644365231
 31
0.0
  0
LINE
  5
FBD4
330
17
100
AcDbEntity
  8
R-SWTS-DET3
100
AcDbLine
 10
42.17877726588532
 20
34.98488325260731
 30
0.0
 11
41.41845251410049
 21
35.74520800439216
 31
0.0
  0
LINE
  5
FBD5
330
17
100
AcDbEntity
  8
R-SWTS-DET3
100
AcDbLine
 10
42.92877726588533
 20
34.98488325260731
 30
0.0
 11
42.16845251410049
 21
35.74520800439216
 31
0.0
  0
LINE
  5
FBD6
330
17
100
AcDbEntity
  8
R-SWTS-DET3
100
AcDbLine
 10
43.67877726588533
 20
34.98488325260731
 30
0.0
 11
42.91845251410049
 21
35.74520800439216
 31
0.0
  0
LINE
  5
FBD7
330
17
100
AcDbEntity
  8
0
 62
     1
100
AcDbLine
 10
43.95962009217481
 20
33.37309496142259
 30
0.0
 11
43.95962009217481
 21
36.12423631056614
 31
0.0
  0
LINE
  5
FBD8
330
17
100
AcDbEntity
  8
0
 62
     1
100
AcDbLine
 10
43.92850612905729
 20
33.11248386879142
 30
0.0
 11
43.47595056486873
 21
33.26140439975213
 31
0.0
  0
LINE
  5
FBD9
330
17
100
AcDbEntity
  8
0
 62
     1
100
AcDbLine
 10
43.47595056486873
 20
33.26140439975213
 30
0.0
 11
44.36887901627125
 21
33.33586466523249
 31
0.0
  0
LINE
  5
FBDA
330
17
100
AcDbEntity
  8
0
100
AcDbLine
 10
41.65692485674227
 20
34.89882397526721
 30
0.0
 11
41.65692485674227
 21
34.76882397526721
 31
0.0
  0
ARC
  5
FBDB
330
17
100
AcDbEntity
  8
0
100
AcDbCircle
 10
41.59692485674227
 20
34.76882397526721
 30
0.0
 40
0.0599999999999952
100
AcDbArc
 50
269.9999999999931
 51
359.9999999999931
  0
ARC
  5
FBDC
330
17
100
AcDbEntity
  8
0
100
AcDbCircle
 10
41.59692485674227
 20
34.89882397526721
 30
0.0
 40
0.0600000000000023
100
AcDbArc
 50
0.0
 51
90.0
  0
LINE
  5
FBDD
330
17
100
AcDbEntity
  8
0
 62
     1
100
AcDbLine
 10
44.36887901627125
 20
33.33586466523249
 30
0.0
 11
43.95962009217481
 21
33.37309496142259
 31
0.0
  0
LINE
  5
FBDE
330
17
100
AcDbEntity
  8
R-SWTS-DET3
  6
CENTER
100
AcDbLine
 10
52.39265092017041
 20
36.53436051510325
 30
0.0
 11
52.39265092017039
 21
34.56607644365231
 31
0.0
  0
LINE
  5
FBDF
330
17
100
AcDbEntity
  8
R-SWTS-DET3
100
AcDbLine
 10
51.47754827115971
 20
34.98488325260731
 30
0.0
 11
50.71722351937487
 21
35.74520800439216
 31
0.0
  0
LINE
  5
FBE0
330
17
100
AcDbEntity
  8
R-SWTS-DET3
100
AcDbLine
 10
52.2275482711597
 20
34.98488325260731
 30
0.0
 11
51.46722351937487
 21
35.74520800439216
 31
0.0
  0
LINE
  5
FBE1
330
17
100
AcDbEntity
  8
0
 62
     1
100
AcDbLine
 10
49.84010252540591
 20
33.3730949614226
 30
0.0
 11
49.84010252540591
 21
36.12423631056616
 31
0.0
  0
LINE
  5
FBE2
330
17
100
AcDbEntity
  8
R-SWTS-DET3
100
AcDbLine
 10
50.72754827115971
 20
34.98488325260731
 30
0.0
 11
49.96722351937487
 21
35.74520800439216
 31
0.0
  0
LINE
  5
FBE3
330
17
100
AcDbEntity
  8
0
 62
     1
100
AcDbLine
 10
49.80898856228839
 20
33.11248386879144
 30
0.0
 11
49.35643299809981
 21
33.26140439975215
 31
0.0
  0
LINE
  5
FBE4
330
17
100
AcDbEntity
  8
0
 62
     1
100
AcDbLine
 10
49.35643299809981
 20
33.26140439975215
 30
0.0
 11
50.24936144950235
 21
33.3358646652325
 31
0.0
  0
LINE
  5
FBE5
330
17
100
AcDbEntity
  8
0
 62
     1
100
AcDbLine
 10
50.24936144950235
 20
33.3358646652325
 30
0.0
 11
49.84010252540591
 21
33.3730949614226
 31
0.0
  0
LINE
  5
FBE6
330
17
100
AcDbEntity
  8
0
100
AcDbLine
 10
51.64265092017041
 20
34.76882397526721
 30
0.0
 11
51.64265092017041
 21
34.89882397526721
 31
0.0
  0
ARC
  5
FBE7
330
17
100
AcDbEntity
  8
0
100
AcDbCircle
 10
51.70265092017041
 20
34.76882397526721
 30
0.0
 40
0.0600000000000023
100
AcDbArc
 50
180.0
 51
270.0
  0
ARC
  5
FBE8
330
17
100
AcDbEntity
  8
0
100
AcDbCircle
 10
51.70265092017041
 20
34.89882397526721
 30
0.0
 40
0.0600000000000023
100
AcDbArc
 50
90.0
 51
180.0
  0
LINE
  5
FBE9
330
17
100
AcDbEntity
  8
0
  6
HIDDEN
100
AcDbLine
 10
56.76339164845654
 20
32.1764715946294
 30
0.0
 11
56.65049827390048
 21
31.7551477849483
 31
0.0
  0
LINE
  5
FBEA
330
17
100
AcDbEntity
  8
0
  6
HIDDEN
100
AcDbLine
 10
56.52975754561435
 20
31.78750016558612
 30
0.0
 11
56.64265092017041
 21
32.20882397526722
 31
0.0
  0
LINE
  5
FBEB
330
17
100
AcDbEntity
  8
0
  6
HIDDEN
100
AcDbLine
 10
55.13480356644032
 20
31.7551477849483
 30
0.0
 11
55.02191019188427
 21
32.1764715946294
 31
0.0
  0
LINE
  5
FBEC
330
17
100
AcDbEntity
  8
0
  6
HIDDEN
100
AcDbLine
 10
55.14265092017041
 20
32.20882397526722
 30
0.0
 11
55.25554429472646
 21
31.78750016558612
 31
0.0
  0
LINE
  5
FBED
330
17
100
AcDbEntity
  8
0
  6
HIDDEN
 62
     1
100
AcDbLine
 10
54.74265092017041
 20
31.25013913734697
 30
0.0
 11
54.74265092017041
 21
34.45882397526722
 31
0.0
  0
LINE
  5
FBEE
330
17
100
AcDbEntity
  8
0
 62
     1
100
AcDbLine
 10
54.6426509201704
 20
31.25013913734697
 30
0.0
 11
54.6426509201704
 21
34.45882397526722
 31
0.0
  0
LINE
  5
FBEF
330
17
100
AcDbEntity
  8
0
  6
HIDDEN
 62
     1
100
AcDbLine
 10
57.0426509201704
 20
31.25013913734694
 30
0.0
 11
57.0426509201704
 21
34.45882397526722
 31
0.0
  0
LINE
  5
FBF0
330
17
100
AcDbEntity
  8
0
 62
     1
100
AcDbLine
 10
57.1426509201704
 20
31.25013913734694
 30
0.0
 11
57.14265092017041
 21
34.45882397526722
 31
0.0
  0
LINE
  5
FBF1
330
17
100
AcDbEntity
  8
0
 62
     1
100
AcDbLine
 10
61.65937180798517
 20
31.47189791029451
 30
0.0
 11
61.65937180798517
 21
33.11248386879144
 31
0.0
  0
LINE
  5
FBF2
330
17
100
AcDbEntity
  8
0
 62
     1
100
AcDbLine
 10
57.14265092017041
 20
31.95882397526722
 30
0.0
 11
61.69158805646512
 21
31.95882397526722
 31
0.0
  0
LINE
  5
FBF3
330
17
100
AcDbEntity
  8
0
 62
     1
100
AcDbLine
 10
57.14265092017041
 20
26.04908042871802
 30
0.0
 11
61.69158805646512
 21
26.04908042871802
 31
0.0
  0
LINE
  5
FBF4
330
17
100
AcDbEntity
  8
0
 62
     1
100
AcDbLine
 10
54.10017418942032
 20
26.75776526663827
 30
0.0
 11
55.74076014791724
 21
26.75776526663827
 31
0.0
  0
LINE
  5
FBF5
330
17
100
AcDbEntity
  8
0
  6
HIDDEN
100
AcDbLine
 10
55.13480356644032
 20
26.25275661903694
 30
0.0
 11
55.02191019188427
 21
25.83143280935584
 31
0.0
  0
LINE
  5
FBF6
330
17
100
AcDbEntity
  8
0
  6
HIDDEN
100
AcDbLine
 10
55.14265092017041
 20
25.79908042871802
 30
0.0
 11
55.25554429472646
 21
26.22040423839912
 31
0.0
  0
ARC
  5
FBF7
330
17
100
AcDbEntity
  8
0
  6
HIDDEN
100
AcDbCircle
 10
55.14265092017041
 20
25.79908042871803
 30
0.0
 40
0.125000000000007
100
AcDbArc
 50
165.0000000000063
 51
180.0000000000065
  0
ARC
  5
FBF8
330
17
100
AcDbEntity
  8
0
  6
HIDDEN
100
AcDbCircle
 10
55.1951739305834
 20
26.23658042871803
 30
0.0
 40
0.0625000000000019
100
AcDbArc
 50
344.9999999999992
 51
164.9999999999992
  0
LINE
  5
FBF9
330
17
100
AcDbEntity
  8
0
 62
     1
100
AcDbLine
 10
55.74076014791724
 20
26.75776526663827
 30
0.0
 11
55.88968067887795
 21
27.21032083082684
 31
0.0
  0
LINE
  5
FBFA
330
17
100
AcDbEntity
  8
0
 62
     1
100
AcDbLine
 10
55.88968067887795
 20
27.21032083082684
 30
0.0
 11
55.9641409443583
 21
26.31739237942432
 31
0.0
  0
LINE
  5
FBFB
330
17
100
AcDbEntity
  8
0
 62
     1
100
AcDbLine
 10
56.00420167867525
 20
26.75776526663828
 30
0.0
 11
57.72510818302222
 21
26.75776526663827
 31
0.0
  0
LINE
  5
FBFC
330
17
100
AcDbEntity
  8
0
  6
HIDDEN
100
AcDbLine
 10
56.52975754561435
 20
26.22040423839912
 30
0.0
 11
56.64265092017041
 21
25.79908042871802
 31
0.0
  0
LINE
  5
FBFD
330
17
100
AcDbEntity
  8
0
  6
HIDDEN
100
AcDbLine
 10
56.76339164845654
 20
25.83143280935584
 30
0.0
 11
56.65049827390048
 21
26.25275661903694
 31
0.0
  0
ARC
  5
FBFE
330
17
100
AcDbEntity
  8
0
  6
HIDDEN
100
AcDbCircle
 10
56.64265092017038
 20
25.79908042871801
 30
0.0
 40
0.1250000000000142
100
AcDbArc
 50
0.0000000000065138
 51
15.0000000000063
  0
LINE
  5
FBFF
330
17
100
AcDbEntity
  8
0
 62
     1
100
AcDbLine
 10
55.9641409443583
 20
26.31739237942432
 30
0.0
 11
56.00420167867525
 21
26.75776526663828
 31
0.0
  0
ARC
  5
FC00
330
17
100
AcDbEntity
  8
0
  6
HIDDEN
100
AcDbCircle
 10
56.59012790975741
 20
26.23658042871803
 30
0.0
 40
0.0625000000000019
100
AcDbArc
 50
15.00000000000077
 51
195.0000000000008
  0
LINE
  5
FC01
330
17
100
AcDbEntity
  8
0
 62
     1
100
AcDbLine
 10
54.10017418942032
 20
31.25013913734697
 30
0.0
 11
55.74076014791724
 21
31.25013913734697
 31
0.0
  0
ARC
  5
FC02
330
17
100
AcDbEntity
  8
0
  6
HIDDEN
100
AcDbCircle
 10
55.1951739305834
 20
31.77132397526721
 30
0.0
 40
0.0625000000000019
100
AcDbArc
 50
195.0000000000008
 51
15.00000000000077
  0
LINE
  5
FC03
330
17
100
AcDbEntity
  8
0
 62
     1
100
AcDbLine
 10
56.00420167867525
 20
31.25013913734698
 30
0.0
 11
57.72510818302222
 21
31.25013913734697
 31
0.0
  0
LINE
  5
FC04
330
17
100
AcDbEntity
  8
0
 62
     1
100
AcDbLine
 10
55.74076014791724
 20
31.25013913734697
 30
0.0
 11
55.88968067887795
 21
31.70269470153554
 31
0.0
  0
LINE
  5
FC05
330
17
100
AcDbEntity
  8
0
 62
     1
100
AcDbLine
 10
55.88968067887795
 20
31.70269470153554
 30
0.0
 11
55.9641409443583
 21
30.80976625013302
 31
0.0
  0
LINE
  5
FC06
330
17
100
AcDbEntity
  8
0
 62
     1
100
AcDbLine
 10
55.9641409443583
 20
30.80976625013302
 30
0.0
 11
56.00420167867525
 21
31.25013913734698
 31
0.0
  0
ARC
  5
FC07
330
17
100
AcDbEntity
  8
0
  6
HIDDEN
100
AcDbCircle
 10
56.59012790975741
 20
31.77132397526721
 30
0.0
 40
0.0625000000000019
100
AcDbArc
 50
164.9999999999992
 51
344.9999999999992
  0
LINE
  5
FC08
330
17
100
AcDbEntity
  8
R-SWTS-DET1
  6
HIDDEN
100
AcDbLine
 10
57.14265092017041
 20
33.6417940700073
 30
0.0
 11
61.69048577110268
 21
33.6417940700073
 31
0.0
  0
LINE
  5
FC09
330
17
100
AcDbEntity
  8
R-SWTS-DET1
  6
HIDDEN
100
AcDbLine
 10
57.14265092017041
 20
33.51679407000729
 30
0.0
 11
61.69048577110268
 21
33.51679407000729
 31
0.0
  0
LINE
  5
FC0A
330
17
100
AcDbEntity
  8
R-SWTS-DET2
  6
HIDDEN
100
AcDbLine
 10
58.70465092017041
 20
34.18079407000727
 30
0.0
 11
57.14265092017041
 21
34.18079407000727
 31
0.0
  0
LINE
  5
FC0B
330
17
100
AcDbEntity
  8
R-SWTS-DET2
  6
HIDDEN
100
AcDbLine
 10
58.70465092017041
 20
33.7667940700073
 30
0.0
 11
57.14265092017041
 21
33.7667940700073
 31
0.0
  0
LINE
  5
FC0C
330
17
100
AcDbEntity
  8
R-SWTS-DET2
  6
HIDDEN
100
AcDbLine
 10
58.70465092017041
 20
33.6417940700073
 30
0.0
 11
57.14265092017041
 21
33.6417940700073
 31
0.0
  0
LWPOLYLINE
  5
FC0D
330
17
100
AcDbEntity
  8
R-SWTS-DET2
  6
HIDDEN2
100
AcDbPolyline
 90
        6
 70
     0
 43
0.0
 10
58.70465092017041
 20
33.99079407000729
 10
56.97265092017042
 20
33.99079407000729
 10
56.82965092017041
 20
33.95879407000728
 10
56.82965092017041
 20
33.80679407000728
 10
56.9726509201704
 20
33.77479407000728
 10
58.70465092017041
 20
33.77479407000728
  0
TEXT
  5
FC0E
330
17
100
AcDbEntity
  8
PART_NUMBERS
100
AcDbText
 10
58.32619886094462
 20
36.60629805417317
 30
0.0
 40
0.25
  1
162330 "T" ANCHOR
100
AcDbText
  0
LINE
  5
FC0F
330
17
100
AcDbEntity
  8
R-SWTS-DET3
100
AcDbLine
 10
58.97754827115971
 20
34.98488325260731
 30
0.0
 11
58.21722351937487
 21
35.74520800439216
 31
0.0
  0
LINE
  5
FC10
330
17
100
AcDbEntity
  8
0
 62
     1
100
AcDbLine
 10
57.14265092017041
 20
34.45882397526722
 30
0.0
 11
61.69158805646512
 21
34.45882397526722
 31
0.0
  0
LINE
  5
FC11
330
17
100
AcDbEntity
  8
0
100
AcDbLine
 10
60.08265092017039
 20
34.70882397526722
 30
0.0
 11
56.8276509201704
 21
34.70882397526722
 31
0.0
  0
LINE
  5
FC12
330
17
100
AcDbEntity
  8
R-SWTS-DET3
  6
CENTER
100
AcDbLine
 10
53.89265092017041
 20
36.53436051510325
 30
0.0
 11
53.89265092017041
 21
34.56607644365231
 31
0.0
  0
LINE
  5
FC13
330
17
100
AcDbEntity
  8
R-SWTS-DET3
  6
CENTER
100
AcDbLine
 10
57.89265092017038
 20
36.53436051510325
 30
0.0
 11
57.89265092017039
 21
34.56607644365231
 31
0.0
  0
LINE
  5
FC14
330
17
100
AcDbEntity
  8
R-SWTS-DET3
100
AcDbLine
 10
57.4775482711597
 20
34.98488325260731
 30
0.0
 11
56.71722351937487
 21
35.74520800439216
 31
0.0
  0
LINE
  5
FC15
330
17
100
AcDbEntity
  8
R-SWTS-DET3
100
AcDbLine
 10
55.9775482711597
 20
34.98488325260731
 30
0.0
 11
55.21722351937487
 21
35.74520800439216
 31
0.0
  0
LINE
  5
FC16
330
17
100
AcDbEntity
  8
R-SWTS-DET3
100
AcDbLine
 10
55.22754827115971
 20
34.98488325260731
 30
0.0
 11
54.46722351937487
 21
35.74520800439216
 31
0.0
  0
LINE
  5
FC17
330
17
100
AcDbEntity
  8
R-SWTS-DET3
100
AcDbLine
 10
56.7275482711597
 20
34.98488325260731
 30
0.0
 11
55.96722351937486
 21
35.74520800439216
 31
0.0
  0
LINE
  5
FC18
330
17
100
AcDbEntity
  8
R-SWTS-DET3
100
AcDbLine
 10
58.22754827115971
 20
34.98488325260731
 30
0.0
 11
57.46722351937487
 21
35.74520800439216
 31
0.0
  0
LINE
  5
FC19
330
17
100
AcDbEntity
  8
PART_NUMBERS
100
AcDbLine
 10
56.3208793390811
 20
35.0447605734503
 30
0.0
 11
57.42262968781696
 21
36.71976886564459
 31
0.0
  0
LINE
  5
FC1A
330
17
100
AcDbEntity
  8
R-SWTS-DET3
100
AcDbLine
 10
53.7275482711597
 20
34.98488325260731
 30
0.0
 11
52.96722351937487
 21
35.74520800439216
 31
0.0
  0
LINE
  5
FC1B
330
17
100
AcDbEntity
  8
R-SWTS-DET3
100
AcDbLine
 10
54.47754827115971
 20
34.98488325260731
 30
0.0
 11
53.71722351937487
 21
35.74520800439216
 31
0.0
  0
LINE
  5
FC1C
330
17
100
AcDbEntity
  8
0
 62
     1
100
AcDbLine
 10
57.14265092017041
 20
34.45882397526721
 30
0.0
 11
54.6426509201704
 21
34.45882397526722
 31
0.0
  0
LINE
  5
FC1D
330
17
100
AcDbEntity
  8
0
100
AcDbLine
 10
56.58265092017041
 20
34.70882397526722
 30
0.0
 11
55.2026509201704
 21
34.70882397526722
 31
0.0
  0
LINE
  5
FC1E
330
17
100
AcDbEntity
  8
R-SWTS-DET2
  6
HIDDEN
100
AcDbLine
 10
53.97431966119213
 20
33.5167940700073
 30
0.0
 11
53.97431966119213
 21
34.0337939700073
 31
0.0
  0
LINE
  5
FC1F
330
17
100
AcDbEntity
  8
R-SWTS-DET2
  6
HIDDEN
100
AcDbLine
 10
53.75831966119211
 20
33.5167940700073
 30
0.0
 11
53.75831966119211
 21
34.0337939700073
 31
0.0
  0
LWPOLYLINE
  5
FC20
330
17
100
AcDbEntity
  8
R-SWTS-DET2
  6
HIDDEN
100
AcDbPolyline
 90
        4
 70
     1
 43
0.0
 10
53.0806509201704
 20
34.09529407000728
 10
53.0806509201704
 20
33.67029407000728
 10
53.00515101068019
 20
33.6702940700073
 42
-0.3552945435755391
 10
53.00515101068018
 20
34.09529407000728
  0
LINE
  5
FC21
330
17
100
AcDbEntity
  8
R-SWTS-DET2
  6
HIDDEN
100
AcDbLine
 10
53.0806509201704
 20
34.18079407000727
 30
0.0
 11
53.0806509201704
 21
33.6417940700073
 31
0.0
  0
LWPOLYLINE
  5
FC22
330
17
100
AcDbEntity
  8
R-SWTS-DET2
  6
HIDDEN2
100
AcDbPolyline
 90
        6
 70
     0
 43
0.0
 10
53.0806509201704
 20
33.99079407000729
 10
54.81265092017038
 20
33.99079407000729
 10
54.9556509201704
 20
33.95879407000728
 10
54.9556509201704
 20
33.80679407000728
 10
54.81265092017042
 20
33.77479407000728
 10
53.0806509201704
 20
33.77479407000728
  0
LINE
  5
FC23
330
17
100
AcDbEntity
  8
0
  6
HIDDEN
100
AcDbLine
 10
55.01765092017041
 20
32.20882397526722
 30
0.0
 11
55.01765092017041
 21
34.41024877485061
 31
0.0
  0
LINE
  5
FC24
330
17
100
AcDbEntity
  8
0
  6
HIDDEN
100
AcDbLine
 10
55.14265092017041
 20
34.39974699181285
 30
0.0
 11
55.14265092017041
 21
32.20882397526722
 31
0.0
  0
LINE
  5
FC25
330
17
100
AcDbEntity
  8
R-SWTS-DET2
  6
HIDDEN
100
AcDbLine
 10
53.0806509201704
 20
33.6417940700073
 30
0.0
 11
54.6426509201704
 21
33.6417940700073
 31
0.0
  0
LINE
  5
FC26
330
17
100
AcDbEntity
  8
R-SWTS-DET2
  6
HIDDEN
100
AcDbLine
 10
53.0806509201704
 20
33.7667940700073
 30
0.0
 11
54.6426509201704
 21
33.7667940700073
 31
0.0
  0
LINE
  5
FC27
330
17
100
AcDbEntity
  8
R-SWTS-DET2
  6
HIDDEN
100
AcDbLine
 10
54.07881966119212
 20
33.5167940700073
 30
0.0
 11
53.65381966119212
 21
33.5167940700073
 31
0.0
  0
ARC
  5
FC28
330
17
100
AcDbEntity
  8
R-SWTS-DET2
  6
HIDDEN
100
AcDbCircle
 10
53.86631966119212
 20
33.70259197000728
 30
0.0
 40
0.3367977
100
AcDbArc
 50
233.0332999999997
 51
306.9667000000003
  0
LINE
  5
FC29
330
17
100
AcDbEntity
  8
R-SWTS-DET2
  6
HIDDEN
100
AcDbLine
 10
53.65381966119212
 20
33.45347021000729
 30
0.0
 11
53.65381966119212
 21
33.5167940700073
 31
0.0
  0
ARC
  5
FC2A
330
17
100
AcDbEntity
  8
R-SWTS-DET2
  6
HIDDEN
100
AcDbCircle
 10
53.67881976119212
 20
33.45347021000729
 30
0.0
 40
0.02500004
100
AcDbArc
 50
180.0
 51
233.0329999999998
  0
LINE
  5
FC2B
330
17
100
AcDbEntity
  8
R-SWTS-DET2
  6
HIDDEN
100
AcDbLine
 10
54.07881966119212
 20
33.45347021000729
 30
0.0
 11
54.07881966119212
 21
33.5167940700073
 31
0.0
  0
ARC
  5
FC2C
330
17
100
AcDbEntity
  8
R-SWTS-DET2
  6
HIDDEN
100
AcDbCircle
 10
54.05381956119212
 20
33.45347021000729
 30
0.0
 40
0.02500004
100
AcDbArc
 50
306.9670000000001
 51
0.0002000000001805
  0
ARC
  5
FC2D
330
17
100
AcDbEntity
  8
0
  6
HIDDEN
100
AcDbCircle
 10
55.14265092017041
 20
32.2088239752672
 30
0.0
 40
0.125000000000007
100
AcDbArc
 50
179.9999999999935
 51
194.9999999999936
  0
LINE
  5
FC2E
330
17
100
AcDbEntity
  8
R-SWTS-DET2
  6
HIDDEN
100
AcDbLine
 10
53.0806509201704
 20
34.18079407000727
 30
0.0
 11
54.6426509201704
 21
34.18079407000727
 31
0.0
  0
LINE
  5
FC2F
330
17
100
AcDbEntity
  8
R-SWTS-DET2
  6
HIDDEN
100
AcDbLine
 10
53.86631955582502
 20
34.1417940700073
 30
0.0
 11
53.97431946119212
 21
34.0337940700073
 31
0.0
  0
LINE
  5
FC30
330
17
100
AcDbEntity
  8
R-SWTS-DET2
  6
HIDDEN
100
AcDbLine
 10
53.86631976655922
 20
34.1417940700073
 30
0.0
 11
53.75831986119212
 21
34.0337940700073
 31
0.0
  0
ARC
  5
FC31
330
17
100
AcDbEntity
  8
0
100
AcDbCircle
 10
54.95765092017041
 20
34.64882397526722
 30
0.0
 40
0.0600000000000023
100
AcDbArc
 50
0.0
 51
90.0
  0
ARC
  5
FC32
330
17
100
AcDbEntity
  8
0
100
AcDbCircle
 10
55.20265092017041
 20
34.64882397526722
 30
0.0
 40
0.0600000000000023
100
AcDbArc
 50
90.00000000000325
 51
180.0
  0
LINE
  5
FC33
330
17
100
AcDbEntity
  8
0
100
AcDbLine
 10
55.14265092017041
 20
34.64882397526722
 30
0.0
 11
55.14265092017041
 21
34.4627572857514
 31
0.0
  0
LINE
  5
FC34
330
17
100
AcDbEntity
  8
0
100
AcDbLine
 10
55.01765092017041
 20
34.45225550271366
 30
0.0
 11
55.01765092017041
 21
34.64882397526722
 31
0.0
  0
LINE
  5
FC35
330
17
100
AcDbEntity
  8
R-SWTS-DET2
  6
HIDDEN
100
AcDbLine
 10
58.02599649283518
 20
33.5167940700073
 30
0.0
 11
58.02599649283518
 21
34.0337939700073
 31
0.0
  0
LINE
  5
FC36
330
17
100
AcDbEntity
  8
R-SWTS-DET2
  6
HIDDEN
100
AcDbLine
 10
57.80999649283517
 20
33.5167940700073
 30
0.0
 11
57.80999649283517
 21
34.0337939700073
 31
0.0
  0
LINE
  5
FC37
330
17
100
AcDbEntity
  8
0
  6
HIDDEN
100
AcDbLine
 10
56.64265092017041
 20
32.20882397526722
 30
0.0
 11
56.64265092017041
 21
34.39974699181285
 31
0.0
  0
LINE
  5
FC38
330
17
100
AcDbEntity
  8
0
  6
HIDDEN
100
AcDbLine
 10
56.76765092017041
 20
34.41024877485061
 30
0.0
 11
56.76765092017041
 21
32.20882397526722
 31
0.0
  0
ARC
  5
FC39
330
17
100
AcDbEntity
  8
0
  6
HIDDEN
100
AcDbCircle
 10
56.64265092017038
 20
32.20882397526723
 30
0.0
 40
0.1250000000000142
100
AcDbArc
 50
344.9999999999937
 51
359.9999999999935
  0
LINE
  5
FC3A
330
17
100
AcDbEntity
  8
R-SWTS-DET2
  6
HIDDEN
100
AcDbLine
 10
58.13049649283517
 20
33.5167940700073
 30
0.0
 11
57.70549649283518
 21
33.5167940700073
 31
0.0
  0
ARC
  5
FC3B
330
17
100
AcDbEntity
  8
R-SWTS-DET2
  6
HIDDEN
100
AcDbCircle
 10
57.91799649283517
 20
33.70259197000728
 30
0.0
 40
0.3367977
100
AcDbArc
 50
233.0332999999997
 51
306.9667000000003
  0
LINE
  5
FC3C
330
17
100
AcDbEntity
  8
R-SWTS-DET2
  6
HIDDEN
100
AcDbLine
 10
57.70549649283518
 20
33.45347021000729
 30
0.0
 11
57.70549649283518
 21
33.5167940700073
 31
0.0
  0
ARC
  5
FC3D
330
17
100
AcDbEntity
  8
R-SWTS-DET2
  6
HIDDEN
100
AcDbCircle
 10
57.73049659283518
 20
33.45347021000729
 30
0.0
 40
0.02500004
100
AcDbArc
 50
180.0
 51
233.0329999999998
  0
LINE
  5
FC3E
330
17
100
AcDbEntity
  8
R-SWTS-DET2
  6
HIDDEN
100
AcDbLine
 10
58.13049649283517
 20
33.45347021000729
 30
0.0
 11
58.13049649283517
 21
33.5167940700073
 31
0.0
  0
ARC
  5
FC3F
330
17
100
AcDbEntity
  8
R-SWTS-DET2
  6
HIDDEN
100
AcDbCircle
 10
58.10549639283516
 20
33.45347021000729
 30
0.0
 40
0.02500004
100
AcDbArc
 50
306.9670000000001
 51
0.0002000000001805
  0
ARC
  5
FC40
330
17
100
AcDbEntity
  8
0
100
AcDbCircle
 10
56.82765092017041
 20
34.64882397526722
 30
0.0
 40
0.0600000000000023
100
AcDbArc
 50
90.00000000000325
 51
180.0
  0
LINE
  5
FC41
330
17
100
AcDbEntity
  8
0
100
AcDbLine
 10
56.76765092017041
 20
34.64882397526722
 30
0.0
 11
56.76765092017041
 21
34.4627572857514
 31
0.0
  0
ARC
  5
FC42
330
17
100
AcDbEntity
  8
0
100
AcDbCircle
 10
56.58265092017041
 20
34.64882397526722
 30
0.0
 40
0.0600000000000023
100
AcDbArc
 50
0.0
 51
90.0
  0
LINE
  5
FC43
330
17
100
AcDbEntity
  8
0
100
AcDbLine
 10
56.64265092017041
 20
34.4627572857514
 30
0.0
 11
56.64265092017041
 21
34.64882397526722
 31
0.0
  0
SOLID
  5
FC44
330
17
100
AcDbEntity
  8
PART_NUMBERS
100
AcDbTrace
 10
56.29477091793943
 20
35.0619336001343
 30
0.0
 11
56.34698776022275
 21
35.02758754676631
 31
0.0
 12
56.2178411789771
 22
34.88811004660031
 32
0.0
 13
56.2178411789771
 23
34.88811004660031
 33
0.0
  0
LINE
  5
FC45
330
17
100
AcDbEntity
  8
R-SWTS-DET2
  6
HIDDEN
100
AcDbLine
 10
57.91799638746806
 20
34.1417940700073
 30
0.0
 11
58.02599629283517
 21
34.0337940700073
 31
0.0
  0
LINE
  5
FC46
330
17
100
AcDbEntity
  8
R-SWTS-DET2
  6
HIDDEN
100
AcDbLine
 10
57.91799659820227
 20
34.1417940700073
 30
0.0
 11
57.80999669283517
 21
34.0337940700073
 31
0.0
  0
LINE
  5
FC47
330
17
100
AcDbEntity
  8
PART_NUMBERS
100
AcDbLine
 10
57.42262968781696
 20
36.71976886564459
 30
0.0
 11
58.22975705179422
 21
36.7197688656446
 31
0.0
  0
LINE
  5
FC48
330
17
100
AcDbEntity
  8
R-SWTS-DET3
  6
CENTER
100
AcDbLine
 10
59.3926509201704
 20
36.53436051510325
 30
0.0
 11
59.3926509201704
 21
34.56607644365231
 31
0.0
  0
LINE
  5
FC49
330
17
100
AcDbEntity
  8
R-SWTS-DET3
100
AcDbLine
 10
61.2275482711597
 20
34.98488325260731
 30
0.0
 11
60.46722351937487
 21
35.74520800439216
 31
0.0
  0
LINE
  5
FC4A
330
17
100
AcDbEntity
  8
R-SWTS-DET3
100
AcDbLine
 10
59.7275482711597
 20
34.98488325260731
 30
0.0
 11
58.96722351937487
 21
35.74520800439216
 31
0.0
  0
LINE
  5
FC4B
330
17
100
AcDbEntity
  8
R-SWTS-DET3
100
AcDbLine
 10
60.4775482711597
 20
34.98488325260731
 30
0.0
 11
59.71722351937486
 21
35.74520800439216
 31
0.0
  0
LINE
  5
FC4C
330
17
100
AcDbEntity
  8
0
 62
     1
100
AcDbLine
 10
61.69048577110268
 20
33.3730949614226
 30
0.0
 11
61.69048577110268
 21
36.12423631056616
 31
0.0
  0
LINE
  5
FC4D
330
17
100
AcDbEntity
  8
0
 62
     1
100
AcDbLine
 10
61.65937180798517
 20
33.11248386879144
 30
0.0
 11
61.2068162437966
 21
33.26140439975215
 31
0.0
  0
LINE
  5
FC4E
330
17
100
AcDbEntity
  8
0
 62
     1
100
AcDbLine
 10
61.2068162437966
 20
33.26140439975215
 30
0.0
 11
62.09974469519912
 21
33.3358646652325
 31
0.0
  0
LINE
  5
FC4F
330
17
100
AcDbEntity
  8
R-SWTS-DET2
  6
HIDDEN
100
AcDbLine
 10
58.70465092017041
 20
34.18079407000727
 30
0.0
 11
58.70465092017041
 21
33.6417940700073
 31
0.0
  0
LWPOLYLINE
  5
FC50
330
17
100
AcDbEntity
  8
R-SWTS-DET2
  6
HIDDEN
100
AcDbPolyline
 90
        4
 70
     1
 43
0.0
 10
58.70465092017041
 20
34.09529407000728
 10
58.70465092017041
 20
33.67029407000728
 10
58.78015082966062
 20
33.6702940700073
 42
0.3552945435755391
 10
58.78015082966062
 20
34.09529407000728
  0
LINE
  5
FC51
330
17
100
AcDbEntity
  8
0
100
AcDbLine
 10
60.1426509201704
 20
34.89882397526721
 30
0.0
 11
60.1426509201704
 21
34.76882397526721
 31
0.0
  0
ARC
  5
FC52
330
17
100
AcDbEntity
  8
0
100
AcDbCircle
 10
60.0826509201704
 20
34.76882397526721
 30
0.0
 40
0.0599999999999952
100
AcDbArc
 50
269.9999999999931
 51
359.9999999999931
  0
ARC
  5
FC53
330
17
100
AcDbEntity
  8
0
100
AcDbCircle
 10
60.08265092017039
 20
34.89882397526721
 30
0.0
 40
0.0600000000000023
100
AcDbArc
 50
0.0
 51
90.0
  0
LINE
  5
FC54
330
17
100
AcDbEntity
  8
0
 62
     1
100
AcDbLine
 10
62.09974469519912
 20
33.3358646652325
 30
0.0
 11
61.69048577110268
 21
33.3730949614226
 31
0.0
  0
LINE
  5
FCAF
330
17
100
AcDbEntity
  8
R-SWTS-DET2
100
AcDbLine
 10
17.60669685656025
 20
32.4654084459469
 30
0.0
 11
17.85669685656025
 21
32.4654084459469
 31
0.0
  0
LINE
  5
FCB0
330
17
100
AcDbEntity
  8
R-SWTS-DET2
100
AcDbLine
 10
17.85669685656025
 20
32.4654084459469
 30
0.0
 11
17.85669685656024
 21
31.84887301287604
 31
0.0
  0
LINE
  5
FCB1
330
17
100
AcDbEntity
  8
R-SWTS-DET2
100
AcDbLine
 10
18.96739514509881
 20
32.46190601228597
 30
0.0
 11
18.85620670060802
 21
32.32939678410917
 31
0.0
  0
ARC
  5
FCB2
330
17
100
AcDbEntity
  8
R-SWTS-DET2
100
AcDbCircle
 10
18.99420670060798
 20
32.4394084459469
 30
0.0
 40
0.0350000000000276
100
AcDbArc
 50
40.56892761941631
 51
139.9999999999609
  0
LINE
  5
FCB3
330
17
100
AcDbEntity
  8
R-SWTS-DET2
100
AcDbLine
 10
19.10620670060802
 20
32.36240844594691
 30
0.0
 11
19.02079354482587
 21
32.46217112844558
 31
0.0
  0
LWPOLYLINE
  5
FFF7
330
17
100
AcDbEntity
  8
R-SWTS-DET1
100
AcDbPolyline
 90
       22
 70
     1
 43
0.0
 10
24.15574915654357
 20
25.9221103339779
 10
24.15574915654357
 20
25.7101103339779
 10
24.18774915654356
 20
25.7101103339779
 10
24.12162480089058
 20
25.59557959036917
 42
-0.2679491924311104
 10
24.10868766932613
 20
25.5881103339779
 10
23.84374915654356
 20
25.5881103339779
 10
23.84374915654356
 20
25.6501103339779
 10
24.09374915654357
 20
25.6501103339779
 10
24.09374915654357
 20
25.9321103339779
 10
19.53874915654358
 20
25.9321103339779
 10
19.53874915654358
 20
25.88211033397788
 42
-0.414213562373069
 10
19.47874915654358
 20
25.82211033397789
 10
19.39874915654358
 20
25.82211033397789
 42
-0.9999999999999998
 10
19.39874915654358
 20
25.88211033397788
 10
19.47374915654358
 20
25.88211033397788
 10
19.47374915654359
 20
25.96211033397789
 10
19.38874915654358
 20
25.96211033397789
 42
-0.4142135623731602
 10
19.36874915654358
 20
25.98211033397789
 10
19.36874915654359
 20
26.0221103339779
 10
24.3316780887317
 20
26.0221103339779
 42
-0.6681786379192989
 10
24.33874915654356
 20
26.00503926616603
 10
24.25582022435543
 20
25.9221103339779
  0
MTEXT
  5
10155
330
17
100
AcDbEntity
  8
TEXT
100
AcDbMText
 10
30.0
 20
1.99999994213165
 30
0.0
 40
0.375
 41
5.519524215552523
 71
     2
 72
     5
  1
DETAIL SCALE: 1" = 1"
 73
     1
 44
1.0
1001
ACAD
1000
MTEXTBEGIN
1070
    73
1070
     1
1070
    44
1040
1.0
1070
    74
1070
     0
1000
MTEXTEND
  0
MTEXT
  5
10157
330
17
100
AcDbEntity
  8
TEXT
100
AcDbMText
 10
30.0
 20
3.05892232730673
 30
0.0
 40
0.5
 41
17.35659339253652
 71
     8
 72
     5
  1
1600 WALL SYSTEM™5 CURTAIN WALL \P7-1/2" DEEP (1" INFILL)\PCURTAIN WALL SHEAR BLOCK ASSEMBLY\P"F" AND "T" ANCHOR DETAILS
 73
     1
 44
1.0
1001
ACAD
1000
MTEXTBEGIN
1070
    73
1070
     1
1070
    44
1040
1.0
1070
    74
1070
     0
1000
MTEXTEND
  0
MTEXT
  5
10158
330
17
100
AcDbEntity
  8
TEXT
100
AcDbMText
 10
1.0
 20
1.999999942131637
 30
0.0
 40
0.375
 41
14.22387531454843
 71
     1
 72
     5
  1
ENGINEERING CHANGE:  97910-087 (MARCH 2017)\PFILE NAME:  KCDD051 SHEET 13 OF 27.DWG
 73
     1
 44
1.0
1001
ACAD
1000
ACAD_MTEXT_COLUMN_INFO_BEGIN
1070
    75
1070
     2
1070
    79
1070
     0
1070
    76
1070
     1
1070
    78
1070
     0
1070
    48
1040
14.22387531454843
1070
    49
1040
1.25
1070
    50
1070
     1
1040
0.0
1000
ACAD_MTEXT_COLUMN_INFO_END
1000
MTEXTBEGIN
1070
    73
1070
     1
1070
    44
1040
1.0
1070
    74
1070
     0
1000
MTEXTEND
  0
INSERT
  5
10240
330
17
100
AcDbEntity
  8
0
100
AcDbBlockReference
  2
Kawneer Logo English
 10
1.0
 20
2.5
 30
0.0
 41
5.337
 42
5.337
 43
5.337
  0
ENDSEC
  0
SECTION
  2
OBJECTS
  0
DICTIONARY
  5
C
330
0
100
AcDbDictionary
281
     1
  3
ACAD_CIP_PREVIOUS_PRODUCT_INFO
350
FDEC
  3
ACAD_COLOR
350
FD09
  3
ACAD_GROUP
350
D
  3
ACAD_LAYOUT
350
ACC0
  3
ACAD_MATERIAL
350
FCDF
  3
ACAD_MLEADERSTYLE
350
FD2E
  3
ACAD_MLINESTYLE
350
1A
  3
ACAD_PLOTSETTINGS
350
ACC1
  3
ACAD_PLOTSTYLENAME
350
ACBE
  3
ACAD_SCALELIST
350
FD0C
  3
ACAD_TABLESTYLE
350
FD0A
  3
ACAD_VISUALSTYLE
350
FCF8
  3
ACDB_RECOMPOSE_DATA
350
102DA
  3
ACDBVARIABLEDICTIONARY
350
3E
  3
DWGPROPS
350
102DB
  0
DICTIONARY
  5
FD6D
330
8
100
AcDbDictionary
280
     1
281
     1
  0
DICTIONARY
  5
D51D
330
2
100
AcDbDictionary
280
     1
281
     1
  3
ACAD_LAYERFILTERS
360
D51E
  3
ACAD_LAYERSTATES
360
FD4E
  0
DICTIONARY
  5
FD5C
330
E
100
AcDbDictionary
280
     1
281
     1
  3
ADSK_XREC_LAYER_RECONCILED
360
FD5D
  0
DICTIONARY
  5
FD5E
330
F1D0
100
AcDbDictionary
280
     1
281
     1
  3
ADSK_XREC_LAYER_RECONCILED
360
FD5F
  0
DICTIONARY
  5
FD60
330
F1D1
100
AcDbDictionary
280
     1
281
     1
  3
ADSK_XREC_LAYER_RECONCILED
360
FD61
  0
DICTIONARY
  5
FD62
330
F1D2
100
AcDbDictionary
280
     1
281
     1
  3
ADSK_XREC_LAYER_RECONCILED
360
FD63
  0
DICTIONARY
  5
FD64
330
F1D3
100
AcDbDictionary
280
     1
281
     1
  3
ADSK_XREC_LAYER_RECONCILED
360
FD65
  0
DICTIONARY
  5
FD66
330
F1D6
100
AcDbDictionary
280
     1
281
     1
  3
ADSK_XREC_LAYER_RECONCILED
360
FD67
  0
DICTIONARY
  5
BB27
330
17
100
AcDbDictionary
280
     1
281
     1
  3
ACAD_LAYOUTSELFREF
360
FCDB
  0
DICTIONARY
  5
BB25
330
14
100
AcDbDictionary
280
     1
281
     1
  3
ACAD_LAYOUTSELFREF
360
FCDA
  0
DICTIONARY
  5
1023C
330
10232
100
AcDbDictionary
280
     1
281
     1
  3
ACAD_SORTENTS
360
1023D
  0
DICTIONARY
  5
102D8
330
10233
100
AcDbDictionary
280
     1
281
     1
  3
ACAD_MTEXT_2008_RT
360
102D9
  0
XRECORD
  5
FDEC
102
{ACAD_REACTORS
330
C
102
}
330
C
100
AcDbXrecord
280
     1
300
ACD
300
2012
300
85730ACD_2012_0F
  0
DICTIONARY
  5
FD09
102
{ACAD_REACTORS
330
C
102
}
330
C
100
AcDbDictionary
281
     1
  0
DICTIONARY
  5
D
102
{ACAD_REACTORS
330
C
102
}
330
C
100
AcDbDictionary
281
     1
  0
DICTIONARY
  5
ACC0
102
{ACAD_REACTORS
330
C
102
}
330
C
100
AcDbDictionary
281
     1
  3
Layout1
350
ACC3
  3
Model
350
ACC2
  0
DICTIONARY
  5
FCDF
102
{ACAD_REACTORS
330
C
102
}
330
C
100
AcDbDictionary
281
     1
  3
ByBlock
350
FCE8
  3
ByLayer
350
FCE0
  3
Global
350
FCF0
  0
DICTIONARY
  5
FD2E
102
{ACAD_REACTORS
330
C
102
}
330
C
100
AcDbDictionary
281
     1
  3
Standard
350
FD2F
  0
DICTIONARY
  5
1A
102
{ACAD_REACTORS
330
C
102
}
330
C
100
AcDbDictionary
281
     1
  3
STANDARD
350
1B
  0
DICTIONARY
  5
ACC1
102
{ACAD_REACTORS
330
C
102
}
330
C
100
AcDbDictionary
281
     1
  0
ACDBDICTIONARYWDFLT
  5
ACBE
102
{ACAD_REACTORS
330
C
102
}
330
C
100
AcDbDictionary
281
     1
  3
Normal
350
ACBF
100
AcDbDictionaryWithDefault
340
ACBF
  0
DICTIONARY
  5
FD0C
102
{ACAD_REACTORS
330
C
102
}
330
C
100
AcDbDictionary
281
     1
  3
A0
350
FD0D
  3
A1
350
10214
  3
A2
350
10215
  3
A3
350
10216
  3
A4
350
10217
  3
A5
350
10218
  3
A6
350
10219
  3
A7
350
1021A
  3
A8
350
1021B
  3
A9
350
1021C
  3
B0
350
1021D
  3
B1
350
1021E
  3
B2
350
1021F
  3
B3
350
10220
  3
B4
350
10221
  3
B5
350
10222
  3
B6
350
10223
  0
DICTIONARY
  5
FD0A
102
{ACAD_REACTORS
330
C
102
}
330
C
100
AcDbDictionary
281
     1
  3
Standard
350
FD0B
  0
DICTIONARY
  5
FCF8
102
{ACAD_REACTORS
330
C
102
}
330
C
100
AcDbDictionary
281
     1
  3
2dWireframe
350
FCFE
  3
3D Hidden
350
FD00
  3
3dWireframe
350
FCFF
  3
Basic
350
FCFD
  3
Brighten
350
FD04
  3
ColorChange
350
FD08
  3
Conceptual
350
FD01
  3
Dim
350
FD03
  3
EdgeColorOff
350
FDA3
  3
Facepattern
350
FD07
  3
Flat
350
FCF9
  3
FlatWithEdges
350
FCFA
  3
Gouraud
350
FCFB
  3
GouraudWithEdges
350
FCFC
  3
Hidden
350
FD9B
  3
JitterOff
350
FDA1
  3
Linepattern
350
FD06
  3
OverhangOff
350
FDA2
  3
Realistic
350
FD02
  3
Shaded
350
FDA0
  3
Shaded with edges
350
FD9F
  3
Shades of Gray
350
FD9C
  3
Sketchy
350
FD9D
  3
Thicken
350
FD05
  3
Wireframe
350
FD9A
  3
X-Ray
350
FD9E
  0
XRECORD
  5
102DA
102
{ACAD_REACTORS
330
C
102
}
330
C
100
AcDbXrecord
280
     1
 90
        1
330
FD0B
330
10158
330
10233
  0
DICTIONARY
  5
3E
102
{ACAD_REACTORS
330
C
102
}
330
C
100
AcDbDictionary
281
     1
  3
CANNOSCALE
350
FD80
  3
CMLEADERSTYLE
350
FD7F
  3
CTABLESTYLE
350
FD7E
  3
DIMADEC
350
3F
  3
DIMASSOC
350
FD83
  3
INDEXCTL
350
FD82
  3
LAYEREVAL
350
10209
  3
LAYERNOTIFY
350
1020A
  3
LIGHTINGUNITS
350
10208
  3
MSLTSCALE
350
10207
  3
SORTENTS
350
FD81
  3
XCLIPFRAME
350
102D6
  0
XRECORD
  5
102DB
102
{ACAD_REACTORS
330
C
102
}
330
C
100
AcDbXrecord
280
     1
  1
DWGPROPS COOKIE
  2

  3

  4

  6

  7

  8
quadiss
  9

300
=
301
=
302
=
303
=
304
=
305
=
306
=
307
=
308
=
309
=
 40
0.7796261574074074
 41
2450777.579237616
 42
2457799.494030926
  1

 90
        0
  0
DICTIONARY
  5
D51E
102
{ACAD_REACTORS
330
D51D
102
}
330
D51D
100
AcDbDictionary
280
     1
281
     1
  0
DICTIONARY
  5
FD4E
102
{ACAD_REACTORS
330
D51D
102
}
330
D51D
100
AcDbDictionary
281
     1
  0
XRECORD
  5
FD5D
102
{ACAD_REACTORS
330
FD5C
102
}
330
FD5C
100
AcDbXrecord
280
     1
290
     1
  0
XRECORD
  5
FD5F
102
{ACAD_REACTORS
330
FD5E
102
}
330
FD5E
100
AcDbXrecord
280
     1
290
     1
  0
XRECORD
  5
FD61
102
{ACAD_REACTORS
330
FD60
102
}
330
FD60
100
AcDbXrecord
280
     1
290
     1
  0
XRECORD
  5
FD63
102
{ACAD_REACTORS
330
FD62
102
}
330
FD62
100
AcDbXrecord
280
     1
290
     1
  0
XRECORD
  5
FD65
102
{ACAD_REACTORS
330
FD64
102
}
330
FD64
100
AcDbXrecord
280
     1
290
     1
  0
XRECORD
  5
FD67
102
{ACAD_REACTORS
330
FD66
102
}
330
FD66
100
AcDbXrecord
280
     1
290
     1
  0
XRECORD
  5
FCDB
102
{ACAD_REACTORS
330
BB27
102
}
330
BB27
100
AcDbXrecord
280
     1
340
17
  0
XRECORD
  5
FCDA
102
{ACAD_REACTORS
330
BB25
102
}
330
BB25
100
AcDbXrecord
280
     1
340
14
  0
SORTENTSTABLE
  5
1023D
102
{ACAD_REACTORS
330
1023C
102
}
330
1023C
100
AcDbSortentsTable
330
10232
  0
XRECORD
  5
102D9
102
{ACAD_REACTORS
330
102D8
102
}
330
102D8
100
AcDbXrecord
280
     1
 40
102645.0
  1
\pxqr;{\fArial TUR|b0|i0|c0|p34;\T1.05;AN ARCONIC COMPANY}
  0
LAYOUT
  5
ACC3
102
{ACAD_XDICTIONARY
360
102DE
102
}
102
{ACAD_REACTORS
330
ACC0
102
}
330
ACC0
100
AcDbPlotSettings
  1

  2
\\NOAKCI-SRV7\Marketing Communications - HP4550hdn
  4

  6

 40
0.0
 41
0.0
 42
0.0
 43
0.0
 44
0.0
 45
0.0
 46
0.0
 47
0.0
 48
0.0
 49
0.0
140
0.0
141
0.0
142
1.0
143
1.0
 70
   688
 72
     0
 73
     0
 74
     5
  7
monochrome2.ctb
 75
    16
147
1.0
148
0.0
149
0.0
100
AcDbLayout
  1
Layout1
 70
     1
 71
     1
 10
0.0
 20
0.0
 11
12.0
 21
9.0
 12
0.0
 22
0.0
 32
0.0
 14
1.000000000000000E+20
 24
1.000000000000000E+20
 34
1.000000000000000E+20
 15
-1.000000000000000E+20
 25
-1.000000000000000E+20
 35
-1.000000000000000E+20
146
0.0
 13
0.0
 23
0.0
 33
0.0
 16
1.0
 26
0.0
 36
0.0
 17
0.0
 27
1.0
 37
0.0
 76
     0
330
14
  0
LAYOUT
  5
ACC2
102
{ACAD_XDICTIONARY
360
102DC
102
}
102
{ACAD_REACTORS
330
ACC0
102
}
330
ACC0
100
AcDbPlotSettings
  1

  2
\\KWRKCI-HUB03\KCI_MKT_HP9000_PCL6
  4
11x17
  6

 40
3.174999952316284
 41
3.174999952316284
 42
3.17498779296875
 43
3.17498779296875
 44
279.3999938964844
 45
431.8000183105469
 46
0.0
 47
0.0
 48
0.0
 49
0.0
140
0.0
141
0.0
142
1.0
143
5.951566198729589
 70
 11952
 72
     0
 73
     1
 74
     1
  7
monochrome2.ctb
 75
     0
147
0.1680229987550938
148
0.1545208164723874
149
0.0860822463568553
100
AcDbLayout
  1
Model
 70
     1
 71
     0
 10
0.0
 20
0.0
 11
12.0
 21
9.0
 12
0.0
 22
0.0
 32
0.0
 14
0.0
 24
0.0
 34
0.0
 15
0.0
 25
0.0
 35
0.0
146
0.0
 13
0.0
 23
0.0
 33
0.0
 16
1.0
 26
0.0
 36
0.0
 17
0.0
 27
1.0
 37
0.0
 76
     0
330
17
331
FCB4
  0
MATERIAL
  5
FCE8
102
{ACAD_XDICTIONARY
360
FCE9
102
}
102
{ACAD_REACTORS
330
FCDF
102
}
330
FCDF
100
AcDbMaterial
  1
ByBlock
 72
     0
 43
0.0208333333333333
 43
0.0
 43
0.0
 43
0.0
 43
0.0
 43
0.0208333333333333
 43
0.0
 43
0.0
 43
0.0
 43
0.0
 43
1.0
 43
0.0
 43
0.0
 43
0.0
 43
0.0
 43
1.0
 77
     0
 47
0.0208333333333333
 47
0.0
 47
0.0
 47
0.0
 47
0.0
 47
0.0208333333333333
 47
0.0
 47
0.0
 47
0.0
 47
0.0
 47
1.0
 47
0.0
 47
0.0
 47
0.0
 47
0.0
 47
1.0
171
     0
 49
0.0208333333333333
 49
0.0
 49
0.0
 49
0.0
 49
0.0
 49
0.0208333333333333
 49
0.0
 49
0.0
 49
0.0
 49
0.0
 49
1.0
 49
0.0
 49
0.0
 49
0.0
 49
0.0
 49
1.0
175
     0
142
0.0208333333333333
142
0.0
142
0.0
142
0.0
142
0.0
142
0.0208333333333333
142
0.0
142
0.0
142
0.0
142
0.0
142
1.0
142
0.0
142
0.0
142
0.0
142
0.0
142
1.0
179
     0
144
0.0208333333333333
144
0.0
144
0.0
144
0.0
144
0.0
144
0.0208333333333333
144
0.0
144
0.0
144
0.0
144
0.0
144
1.0
144
0.0
144
0.0
144
0.0
144
0.0
144
1.0
147
0.0208333333333333
147
0.0
147
0.0
147
0.0
147
0.0
147
0.0208333333333333
147
0.0
147
0.0
147
0.0
147
0.0
147
1.0
147
0.0
147
0.0
147
0.0
147
0.0
147
1.0
  0
MATERIAL
  5
FCE0
102
{ACAD_XDICTIONARY
360
FCE1
102
}
102
{ACAD_REACTORS
330
FCDF
102
}
330
FCDF
100
AcDbMaterial
  1
ByLayer
 72
     0
 43
0.0208333333333333
 43
0.0
 43
0.0
 43
0.0
 43
0.0
 43
0.0208333333333333
 43
0.0
 43
0.0
 43
0.0
 43
0.0
 43
1.0
 43
0.0
 43
0.0
 43
0.0
 43
0.0
 43
1.0
 77
     0
 47
0.0208333333333333
 47
0.0
 47
0.0
 47
0.0
 47
0.0
 47
0.0208333333333333
 47
0.0
 47
0.0
 47
0.0
 47
0.0
 47
1.0
 47
0.0
 47
0.0
 47
0.0
 47
0.0
 47
1.0
171
     0
 49
0.0208333333333333
 49
0.0
 49
0.0
 49
0.0
 49
0.0
 49
0.0208333333333333
 49
0.0
 49
0.0
 49
0.0
 49
0.0
 49
1.0
 49
0.0
 49
0.0
 49
0.0
 49
0.0
 49
1.0
175
     0
142
0.0208333333333333
142
0.0
142
0.0
142
0.0
142
0.0
142
0.0208333333333333
142
0.0
142
0.0
142
0.0
142
0.0
142
1.0
142
0.0
142
0.0
142
0.0
142
0.0
142
1.0
179
     0
144
0.0208333333333333
144
0.0
144
0.0
144
0.0
144
0.0
144
0.0208333333333333
144
0.0
144
0.0
144
0.0
144
0.0
144
1.0
144
0.0
144
0.0
144
0.0
144
0.0
144
1.0
147
0.0208333333333333
147
0.0
147
0.0
147
0.0
147
0.0
147
0.0208333333333333
147
0.0
147
0.0
147
0.0
147
0.0
147
1.0
147
0.0
147
0.0
147
0.0
147
0.0
147
1.0
  0
MATERIAL
  5
FCF0
102
{ACAD_XDICTIONARY
360
FCF1
102
}
102
{ACAD_REACTORS
330
FCDF
102
}
330
FCDF
100
AcDbMaterial
  1
Global
 72
     0
 43
0.0208333333333333
 43
0.0
 43
0.0
 43
0.0
 43
0.0
 43
0.0208333333333333
 43
0.0
 43
0.0
 43
0.0
 43
0.0
 43
1.0
 43
0.0
 43
0.0
 43
0.0
 43
0.0
 43
1.0
 77
     0
 47
0.0208333333333333
 47
0.0
 47
0.0
 47
0.0
 47
0.0
 47
0.0208333333333333
 47
0.0
 47
0.0
 47
0.0
 47
0.0
 47
1.0
 47
0.0
 47
0.0
 47
0.0
 47
0.0
 47
1.0
171
     0
 49
0.0208333333333333
 49
0.0
 49
0.0
 49
0.0
 49
0.0
 49
0.0208333333333333
 49
0.0
 49
0.0
 49
0.0
 49
0.0
 49
1.0
 49
0.0
 49
0.0
 49
0.0
 49
0.0
 49
1.0
175
     0
142
0.0208333333333333
142
0.0
142
0.0
142
0.0
142
0.0
142
0.0208333333333333
142
0.0
142
0.0
142
0.0
142
0.0
142
1.0
142
0.0
142
0.0
142
0.0
142
0.0
142
1.0
179
     0
144
0.0208333333333333
144
0.0
144
0.0
144
0.0
144
0.0
144
0.0208333333333333
144
0.0
144
0.0
144
0.0
144
0.0
144
1.0
144
0.0
144
0.0
144
0.0
144
0.0
144
1.0
147
0.0208333333333333
147
0.0
147
0.0
147
0.0
147
0.0
147
0.0208333333333333
147
0.0
147
0.0
147
0.0
147
0.0
147
1.0
147
0.0
147
0.0
147
0.0
147
0.0
147
1.0
  0
MLEADERSTYLE
  5
FD2F
102
{ACAD_REACTORS
330
FD2E
102
}
330
FD2E
100
AcDbMLeaderStyle
170
     2
171
     1
172
     0
 90
        2
 40
0.0
 41
0.0
173
     1
 91
-1056964608
340
11
 92
       -2
290
     1
 42
0.09
291
     1
 43
0.36
  3
Standard
 44
0.18
300

342
F
174
     1
178
     6
175
     1
176
     0
 93
-1056964608
 45
0.18
292
     0
297
     0
 46
0.18
 94
-1056964608
 47
1.0
 49
1.0
140
1.0
293
     1
141
0.0
294
     1
177
     0
142
1.0
295
     0
296
     0
143
0.125
1001
ACAD_MLEADERVER
1070
     2
  0
MLINESTYLE
  5
1B
102
{ACAD_REACTORS
330
1A
102
}
330
1A
100
AcDbMlineStyle
  2
STANDARD
 70
     0
  3

 62
   256
 51
90.0
 52
90.0
 71
     2
 49
0.5
 62
   256
  6
BYLAYER
 49
-0.5
 62
   256
  6
BYLAYER
  0
ACDBPLACEHOLDER
  5
ACBF
102
{ACAD_REACTORS
330
ACBE
102
}
330
ACBE
  0
SCALE
  5
FD0D
102
{ACAD_REACTORS
330
FD0C
102
}
330
FD0C
100
AcDbScale
 70
     0
300
1:1
140
1.0
141
1.0
290
     1
  0
SCALE
  5
10214
102
{ACAD_REACTORS
330
FD0C
102
}
330
FD0C
100
AcDbScale
 70
     0
300
1/128" = 1'-0"
140
0.0078125
141
12.0
290
     0
  0
SCALE
  5
10215
102
{ACAD_REACTORS
330
FD0C
102
}
330
FD0C
100
AcDbScale
 70
     0
300
1/64" = 1'-0"
140
0.015625
141
12.0
290
     0
  0
SCALE
  5
10216
102
{ACAD_REACTORS
330
FD0C
102
}
330
FD0C
100
AcDbScale
 70
     0
300
1/32" = 1'-0"
140
0.03125
141
12.0
290
     0
  0
SCALE
  5
10217
102
{ACAD_REACTORS
330
FD0C
102
}
330
FD0C
100
AcDbScale
 70
     0
300
1/16" = 1'-0"
140
0.0625
141
12.0
290
     0
  0
SCALE
  5
10218
102
{ACAD_REACTORS
330
FD0C
102
}
330
FD0C
100
AcDbScale
 70
     0
300
3/32" = 1'-0"
140
0.09375
141
12.0
290
     0
  0
SCALE
  5
10219
102
{ACAD_REACTORS
330
FD0C
102
}
330
FD0C
100
AcDbScale
 70
     0
300
1/8" = 1'-0"
140
0.125
141
12.0
290
     0
  0
SCALE
  5
1021A
102
{ACAD_REACTORS
330
FD0C
102
}
330
FD0C
100
AcDbScale
 70
     0
300
3/16" = 1'-0"
140
0.1875
141
12.0
290
     0
  0
SCALE
  5
1021B
102
{ACAD_REACTORS
330
FD0C
102
}
330
FD0C
100
AcDbScale
 70
     0
300
1/4" = 1'-0"
140
0.25
141
12.0
290
     0
  0
SCALE
  5
1021C
102
{ACAD_REACTORS
330
FD0C
102
}
330
FD0C
100
AcDbScale
 70
     0
300
3/8" = 1'-0"
140
0.375
141
12.0
290
     0
  0
SCALE
  5
1021D
102
{ACAD_REACTORS
330
FD0C
102
}
330
FD0C
100
AcDbScale
 70
     0
300
1/2" = 1'-0"
140
0.5
141
12.0
290
     0
  0
SCALE
  5
1021E
102
{ACAD_REACTORS
330
FD0C
102
}
330
FD0C
100
AcDbScale
 70
     0
300
3/4" = 1'-0"
140
0.75
141
12.0
290
     0
  0
SCALE
  5
1021F
102
{ACAD_REACTORS
330
FD0C
102
}
330
FD0C
100
AcDbScale
 70
     0
300
1" = 1'-0"
140
1.0
141
12.0
290
     0
  0
SCALE
  5
10220
102
{ACAD_REACTORS
330
FD0C
102
}
330
FD0C
100
AcDbScale
 70
     0
300
1-1/2" = 1'-0"
140
1.5
141
12.0
290
     0
  0
SCALE
  5
10221
102
{ACAD_REACTORS
330
FD0C
102
}
330
FD0C
100
AcDbScale
 70
     0
300
3" = 1'-0"
140
3.0
141
12.0
290
     0
  0
SCALE
  5
10222
102
{ACAD_REACTORS
330
FD0C
102
}
330
FD0C
100
AcDbScale
 70
     0
300
6" = 1'-0"
140
6.0
141
12.0
290
     0
  0
SCALE
  5
10223
102
{ACAD_REACTORS
330
FD0C
102
}
330
FD0C
100
AcDbScale
 70
     0
300
1'-0" = 1'-0"
140
12.0
141
12.0
290
     0
  0
TABLESTYLE
  5
FD0B
102
{ACAD_XDICTIONARY
360
FD69
102
}
102
{ACAD_REACTORS
330
FD0A
102
}
330
FD0A
100
AcDbTableStyle
  3
Standard
 70
     0
 71
     0
 40
0.06
 41
0.06
280
     0
281
     0
  7
STANDARD
140
0.18
170
     2
 62
     0
 63
     7
283
     0
274
    -2
284
     1
 64
     0
275
    -2
285
     1
 65
     0
276
    -2
286
     1
 66
     0
277
    -2
287
     1
 67
     0
278
    -2
288
     1
 68
     0
279
    -2
289
     1
 69
     0
  7
STANDARD
140
0.25
170
     5
 62
     0
 63
     7
283
     0
274
    -2
284
     1
 64
     0
275
    -2
285
     1
 65
     0
276
    -2
286
     1
 66
     0
277
    -2
287
     1
 67
     0
278
    -2
288
     1
 68
     0
279
    -2
289
     1
 69
     0
  7
STANDARD
140
0.18
170
     5
 62
     0
 63
     7
283
     0
274
    -2
284
     1
 64
     0
275
    -2
285
     1
 65
     0
276
    -2
286
     1
 66
     0
277
    -2
287
     1
 67
     0
278
    -2
288
     1
 68
     0
279
    -2
289
     1
 69
     0
  0
VISUALSTYLE
  5
FCFE
102
{ACAD_XDICTIONARY
360
102ED
102
}
102
{ACAD_REACTORS
330
FCF8
102
}
330
FCF8
100
AcDbVisualStyle
  2
2dWireframe
 70
     4
 71
     0
 72
     2
 73
     0
 90
        0
 40
-0.6
 41
-30.0
 62
     5
 63
     7
 74
     1
 91
        4
 64
     7
 65
   257
 75
     1
175
     1
 42
1.0
 92
        0
 66
   257
 43
1.0
 76
     1
 77
     6
 78
     2
 67
     7
 79
     5
170
     0
171
     0
290
     0
174
     0
 93
        1
 44
0.0
173
     0
291
     0
 45
0.0
1001
ACAD
1000
AcDbSavedByObjectVersion
1070
     0
  0
VISUALSTYLE
  5
FD00
102
{ACAD_XDICTIONARY
360
102F1
102
}
102
{ACAD_REACTORS
330
FCF8
102
}
330
FCF8
100
AcDbVisualStyle
  2
3D Hidden
 70
     6
 71
     1
 72
     2
 73
     2
 90
        0
 40
-0.6
 41
-30.0
 62
     5
 63
     7
 74
     2
 91
        2
 64
     7
 65
   257
 75
     2
175
     1
 42
40.0
 92
        0
 66
   257
 43
1.0
 76
     1
 77
     6
 78
     2
 67
     7
 79
     3
170
     0
171
     0
290
     0
174
     0
 93
        1
 44
0.0
173
     0
291
     0
 45
0.0
1001
ACAD
1000
AcDbSavedByObjectVersion
1070
     0
  0
VISUALSTYLE
  5
FCFF
102
{ACAD_XDICTIONARY
360
102EF
102
}
102
{ACAD_REACTORS
330
FCF8
102
}
330
FCF8
100
AcDbVisualStyle
  2
3dWireframe
 70
     5
 71
     0
 72
     2
 73
     0
 90
        0
 40
-0.6
 41
-30.0
 62
     5
 63
     7
 74
     1
 91
        4
 64
     7
 65
   257
 75
     1
175
     1
 42
1.0
 92
        0
 66
   257
 43
1.0
 76
     1
 77
     6
 78
     2
 67
     7
 79
     5
170
     0
171
     0
290
     0
174
     0
 93
        1
 44
0.0
173
     0
291
     0
 45
0.0
1001
ACAD
1000
AcDbSavedByObjectVersion
1070
     0
  0
VISUALSTYLE
  5
FCFD
102
{ACAD_XDICTIONARY
360
102EB
102
}
102
{ACAD_REACTORS
330
FCF8
102
}
330
FCF8
100
AcDbVisualStyle
  2
Basic
 70
     7
 71
     1
 72
     0
 73
     1
 90
        0
 40
-0.6
 41
-30.0
 62
     5
 63
     7
 74
     0
 91
        4
 64
     7
 65
   257
 75
     1
175
     1
 42
1.0
 92
        8
 66
     7
 43
1.0
 76
     1
 77
     6
 78
     2
 67
     7
 79
     5
170
     0
171
     0
290
     0
174
     0
 93
        1
 44
0.0
173
     0
291
     1
 45
0.0
1001
ACAD
1000
AcDbSavedByObjectVersion
1070
     0
  0
VISUALSTYLE
  5
FD04
102
{ACAD_XDICTIONARY
360
102F9
102
}
102
{ACAD_REACTORS
330
FCF8
102
}
330
FCF8
100
AcDbVisualStyle
  2
Brighten
 70
    12
 71
     2
 72
     2
 73
     0
 90
        0
 40
-0.6
 41
-30.0
 62
     5
 63
     7
 74
     1
 91
        4
 64
     7
 65
   257
 75
     1
175
     1
 42
1.0
 92
        8
 66
     7
 43
1.0
 76
     1
 77
     6
 78
     2
 67
     7
 79
     5
170
     0
171
     0
290
     0
174
     0
 93
        1
 44
50.0
173
     0
291
     1
 45
0.0
1001
ACAD
1000
AcDbSavedByObjectVersion
1070
     0
  0
VISUALSTYLE
  5
FD08
102
{ACAD_XDICTIONARY
360
10301
102
}
102
{ACAD_REACTORS
330
FCF8
102
}
330
FCF8
100
AcDbVisualStyle
  2
ColorChange
 70
    16
 71
     2
 72
     2
 73
     3
 90
        0
 40
-0.6
 41
-30.0
 62
     5
 63
     8
 74
     1
 91
        4
 64
     7
 65
   257
 75
     1
175
     1
 42
1.0
 92
        8
 66
     8
 43
1.0
 76
     1
 77
     6
 78
     2
 67
     7
 79
     5
170
     0
171
     0
290
     0
174
     0
 93
        1
 44
0.0
173
     0
291
     1
 45
0.0
1001
ACAD
1000
AcDbSavedByObjectVersion
1070
     0
  0
VISUALSTYLE
  5
FD01
102
{ACAD_XDICTIONARY
360
102F3
102
}
102
{ACAD_REACTORS
330
FCF8
102
}
330
FCF8
100
AcDbVisualStyle
  2
Conceptual
 70
     9
 71
     3
 72
     2
 73
     0
 90
        0
 40
-0.6
 41
-30.0
 62
     5
 63
     7
 74
     2
 91
        2
 64
     7
 65
   257
 75
     1
175
     1
 42
40.0
 92
        8
 66
     7
 43
1.0
 76
     1
 77
     6
 78
     2
 67
     7
 79
     3
170
     0
171
     0
290
     0
174
     0
 93
        1
 44
0.0
173
     0
291
     0
 45
0.0
1001
ACAD
1000
AcDbSavedByObjectVersion
1070
     0
  0
VISUALSTYLE
  5
FD03
102
{ACAD_XDICTIONARY
360
102F7
102
}
102
{ACAD_REACTORS
330
FCF8
102
}
330
FCF8
100
AcDbVisualStyle
  2
Dim
 70
    11
 71
     2
 72
     2
 73
     0
 90
        0
 40
-0.6
 41
-30.0
 62
     5
 63
     7
 74
     1
 91
        4
 64
     7
 65
   257
 75
     1
175
     1
 42
1.0
 92
        8
 66
     7
 43
1.0
 76
     1
 77
     6
 78
     2
 67
     7
 79
     5
170
     0
171
     0
290
     0
174
     0
 93
        1
 44
-50.0
173
     0
291
     1
 45
0.0
1001
ACAD
1000
AcDbSavedByObjectVersion
1070
     0
  0
VISUALSTYLE
  5
FDA3
102
{ACAD_XDICTIONARY
360
10316
102
}
102
{ACAD_REACTORS
330
FCF8
102
}
330
FCF8
100
AcDbVisualStyle
  2
EdgeColorOff
 70
    22
 71
     2
 72
     2
 73
     0
 90
        0
 40
-0.6
 41
-30.0
 62
     5
 63
     7
 74
     1
 91
        4
 64
     7
 65
   257
 75
     1
175
     1
 42
1.0
 92
        8
 66
     7
 43
1.0
 76
     1
 77
     6
 78
     2
 67
     7
 79
     5
170
     0
171
     0
290
     0
174
     0
 93
        1
 44
0.0
173
     0
291
     1
 45
0.0
1001
ACAD
1000
AcDbSavedByObjectVersion
1070
     0
  0
VISUALSTYLE
  5
FD07
102
{ACAD_XDICTIONARY
360
102FF
102
}
102
{ACAD_REACTORS
330
FCF8
102
}
330
FCF8
100
AcDbVisualStyle
  2
Facepattern
 70
    15
 71
     2
 72
     2
 73
     0
 90
        0
 40
-0.6
 41
-30.0
 62
     5
 63
     7
 74
     1
 91
        4
 64
     7
 65
   257
 75
     1
175
     1
 42
1.0
 92
        8
 66
     7
 43
1.0
 76
     1
 77
     6
 78
     2
 67
     7
 79
     5
170
     0
171
     0
290
     0
174
     0
 93
        1
 44
0.0
173
     0
291
     1
 45
0.0
1001
ACAD
1000
AcDbSavedByObjectVersion
1070
     0
  0
VISUALSTYLE
  5
FCF9
102
{ACAD_XDICTIONARY
360
102E3
102
}
102
{ACAD_REACTORS
330
FCF8
102
}
330
FCF8
100
AcDbVisualStyle
  2
Flat
 70
     0
 71
     2
 72
     1
 73
     1
 90
        2
 40
-0.6
 41
30.0
 62
     5
 63
     7
 74
     0
 91
        4
 64
     7
 65
   257
 75
     1
175
     1
 42
1.0
 92
        8
 66
     7
 43
1.0
 76
     1
 77
     6
 78
     2
 67
     7
 79
     5
170
     0
171
     0
290
     0
174
     0
 93
       13
 44
0.0
173
     0
291
     1
 45
0.0
1001
ACAD
1000
AcDbSavedByObjectVersion
1070
     0
  0
VISUALSTYLE
  5
FCFA
102
{ACAD_XDICTIONARY
360
102E5
102
}
102
{ACAD_REACTORS
330
FCF8
102
}
330
FCF8
100
AcDbVisualStyle
  2
FlatWithEdges
 70
     1
 71
     2
 72
     1
 73
     1
 90
        2
 40
-0.6
 41
30.0
 62
     5
 63
     7
 74
     1
 91
        4
 64
     7
 65
   257
 75
     1
175
     1
 42
1.0
 92
        0
 66
   257
 43
1.0
 76
     1
 77
     6
 78
     2
 67
     7
 79
     5
170
     0
171
     0
290
     0
174
     0
 93
       13
 44
0.0
173
     0
291
     1
 45
0.0
1001
ACAD
1000
AcDbSavedByObjectVersion
1070
     0
  0
VISUALSTYLE
  5
FCFB
102
{ACAD_XDICTIONARY
360
102E7
102
}
102
{ACAD_REACTORS
330
FCF8
102
}
330
FCF8
100
AcDbVisualStyle
  2
Gouraud
 70
     2
 71
     2
 72
     2
 73
     1
 90
        2
 40
-0.6
 41
30.0
 62
     5
 63
     7
 74
     0
 91
        4
 64
     7
 65
   257
 75
     1
175
     1
 42
1.0
 92
        0
 66
     7
 43
1.0
 76
     1
 77
     6
 78
     2
 67
     7
 79
     5
170
     0
171
     0
290
     0
174
     0
 93
       13
 44
0.0
173
     0
291
     1
 45
0.0
1001
ACAD
1000
AcDbSavedByObjectVersion
1070
     0
  0
VISUALSTYLE
  5
FCFC
102
{ACAD_XDICTIONARY
360
102E9
102
}
102
{ACAD_REACTORS
330
FCF8
102
}
330
FCF8
100
AcDbVisualStyle
  2
GouraudWithEdges
 70
     3
 71
     2
 72
     2
 73
     1
 90
        2
 40
-0.6
 41
30.0
 62
     5
 63
     7
 74
     1
 91
        4
 64
     7
 65
   257
 75
     1
175
     1
 42
1.0
 92
        0
 66
   257
 43
1.0
 76
     1
 77
     6
 78
     2
 67
     7
 79
     5
170
     0
171
     0
290
     0
174
     0
 93
       13
 44
0.0
173
     0
291
     1
 45
0.0
1001
ACAD
1000
AcDbSavedByObjectVersion
1070
     0
  0
VISUALSTYLE
  5
FD9B
102
{ACAD_XDICTIONARY
360
10306
102
}
102
{ACAD_REACTORS
330
FCF8
102
}
330
FCF8
100
AcDbVisualStyle
  2
Hidden
 70
     6
 71
     1
 72
     2
 73
     2
 90
        0
 40
-0.6
 41
-30.0
 62
     5
 63
     7
 74
     2
 91
        2
 64
     7
 65
   257
 75
     2
175
     1
 42
40.0
 92
        0
 66
   257
 43
1.0
 76
     1
 77
     6
 78
     2
 67
     7
 79
     3
170
     0
171
     0
290
     0
174
     0
 93
        1
 44
0.0
173
     0
291
     0
 45
0.0
1001
ACAD
1000
AcDbSavedByObjectVersion
1070
     0
  0
VISUALSTYLE
  5
FDA1
102
{ACAD_XDICTIONARY
360
10312
102
}
102
{ACAD_REACTORS
330
FCF8
102
}
330
FCF8
100
AcDbVisualStyle
  2
JitterOff
 70
    20
 71
     2
 72
     2
 73
     0
 90
        0
 40
-0.6
 41
-30.0
 62
     5
 63
     7
 74
     1
 91
        4
 64
     7
 65
   257
 75
     1
175
     1
 42
1.0
 92
       10
 66
     7
 43
1.0
 76
     1
 77
     6
 78
     2
 67
     7
 79
     5
170
     0
171
     0
290
     0
174
     0
 93
        1
 44
0.0
173
     0
291
     1
 45
0.0
1001
ACAD
1000
AcDbSavedByObjectVersion
1070
     0
  0
VISUALSTYLE
  5
FD06
102
{ACAD_XDICTIONARY
360
102FD
102
}
102
{ACAD_REACTORS
330
FCF8
102
}
330
FCF8
100
AcDbVisualStyle
  2
Linepattern
 70
    14
 71
     2
 72
     2
 73
     0
 90
        0
 40
-0.6
 41
-30.0
 62
     5
 63
     7
 74
     1
 91
        4
 64
     7
 65
   257
 75
     7
175
     7
 42
1.0
 92
        8
 66
     7
 43
1.0
 76
     1
 77
     6
 78
     2
 67
     7
 79
     5
170
     0
171
     0
290
     0
174
     0
 93
        1
 44
0.0
173
     0
291
     1
 45
0.0
1001
ACAD
1000
AcDbSavedByObjectVersion
1070
     0
  0
VISUALSTYLE
  5
FDA2
102
{ACAD_XDICTIONARY
360
10314
102
}
102
{ACAD_REACTORS
330
FCF8
102
}
330
FCF8
100
AcDbVisualStyle
  2
OverhangOff
 70
    21
 71
     2
 72
     2
 73
     0
 90
        0
 40
-0.6
 41
-30.0
 62
     5
 63
     7
 74
     1
 91
        4
 64
     7
 65
   257
 75
     1
175
     1
 42
1.0
 92
        9
 66
     7
 43
1.0
 76
     1
 77
     6
 78
     2
 67
     7
 79
     5
170
     0
171
     0
290
     0
174
     0
 93
        1
 44
0.0
173
     0
291
     1
 45
0.0
1001
ACAD
1000
AcDbSavedByObjectVersion
1070
     0
  0
VISUALSTYLE
  5
FD02
102
{ACAD_XDICTIONARY
360
102F5
102
}
102
{ACAD_REACTORS
330
FCF8
102
}
330
FCF8
100
AcDbVisualStyle
  2
Realistic
 70
     8
 71
     2
 72
     2
 73
     0
 90
        0
 40
-0.6
 41
-30.0
 62
     5
 63
     7
 74
     1
 91
        0
 64
     7
 65
   257
 75
     1
175
     1
 42
1.0
 92
        8
 66
     8
 43
1.0
 76
     1
 77
     6
 78
     2
 67
     7
 79
     5
170
     0
171
     0
290
     0
174
     0
 93
       13
 44
0.0
173
     0
291
     0
 45
0.0
1001
ACAD
1000
AcDbSavedByObjectVersion
1070
     0
  0
VISUALSTYLE
  5
FDA0
102
{ACAD_XDICTIONARY
360
10310
102
}
102
{ACAD_REACTORS
330
FCF8
102
}
330
FCF8
100
AcDbVisualStyle
  2
Shaded
 70
    27
 71
     2
 72
     2
 73
     1
 90
        2
 40
-0.6
 41
30.0
 62
     5
 63
     7
 74
     0
 91
        4
 64
     7
 65
   257
 75
     1
175
     1
 42
1.0
 92
        8
 66
   257
 43
1.0
 76
     1
 77
     6
 78
     2
 67
     8
 79
     3
170
     0
171
     0
290
     0
174
     0
 93
        5
 44
0.0
173
     0
291
     0
 45
0.0
1001
ACAD
1000
AcDbSavedByObjectVersion
1070
     0
  0
VISUALSTYLE
  5
FD9F
102
{ACAD_XDICTIONARY
360
1030E
102
}
102
{ACAD_REACTORS
330
FCF8
102
}
330
FCF8
100
AcDbVisualStyle
  2
Shaded with edges
 70
    26
 71
     2
 72
     2
 73
     1
 90
        2
 40
-0.6
 41
30.0
 62
     5
 63
     7
 74
     1
 91
       10
 64
     7
 65
   257
 75
     2
175
     1
 42
1.0
 92
        8
 66
   257
 43
1.0
 76
     1
 77
     6
 78
     2
 67
     7
 79
     3
170
     0
171
     0
290
     0
174
     0
 93
        5
 44
0.0
173
     0
291
     0
 45
0.0
1001
ACAD
1000
AcDbSavedByObjectVersion
1070
     0
  0
VISUALSTYLE
  5
FD9C
102
{ACAD_XDICTIONARY
360
10308
102
}
102
{ACAD_REACTORS
330
FCF8
102
}
330
FCF8
100
AcDbVisualStyle
  2
Shades of Gray
 70
    23
 71
     2
 72
     2
 73
     3
 90
        0
 40
-0.6
 41
-30.0
 62
     5
 63
     7
 74
     2
 91
        2
 64
     7
 65
     7
 75
     1
175
     1
 42
40.0
 92
        8
 66
     7
 43
1.0
 76
     1
 77
     6
 78
     2
 67
     7
 79
     3
170
     0
171
     0
290
     0
174
     0
 93
        1
 44
0.0
173
     0
291
     0
 45
0.0
1001
ACAD
1000
AcDbSavedByObjectVersion
1070
     0
  0
VISUALSTYLE
  5
FD9D
102
{ACAD_XDICTIONARY
360
1030A
102
}
102
{ACAD_REACTORS
330
FCF8
102
}
330
FCF8
100
AcDbVisualStyle
  2
Sketchy
 70
    24
 71
     1
 72
     2
 73
     2
 90
        0
 40
-0.6
 41
-30.0
 62
     5
 63
     7
 74
     2
 91
        2
 64
     7
 65
     7
 75
     1
175
     1
 42
40.0
 92
       11
 66
     7
 43
1.0
 76
     1
 77
     6
 78
     2
 67
     7
 79
     6
170
     0
171
     0
290
     0
174
     0
 93
        1
 44
0.0
173
     0
291
     0
 45
0.0
1001
ACAD
1000
AcDbSavedByObjectVersion
1070
     0
  0
VISUALSTYLE
  5
FD05
102
{ACAD_XDICTIONARY
360
102FB
102
}
102
{ACAD_REACTORS
330
FCF8
102
}
330
FCF8
100
AcDbVisualStyle
  2
Thicken
 70
    13
 71
     2
 72
     2
 73
     0
 90
        0
 40
-0.6
 41
-30.0
 62
     5
 63
     7
 74
     1
 91
        4
 64
     7
 65
   257
 75
     1
175
     1
 42
1.0
 92
       12
 66
     7
 43
1.0
 76
     1
 77
     6
 78
     2
 67
     7
 79
     5
170
     0
171
     0
290
     0
174
     0
 93
        1
 44
0.0
173
     0
291
     1
 45
0.0
1001
ACAD
1000
AcDbSavedByObjectVersion
1070
     0
  0
VISUALSTYLE
  5
FD9A
102
{ACAD_XDICTIONARY
360
10304
102
}
102
{ACAD_REACTORS
330
FCF8
102
}
330
FCF8
100
AcDbVisualStyle
  2
Wireframe
 70
     5
 71
     0
 72
     2
 73
     0
 90
        0
 40
-0.6
 41
-30.0
 62
     5
 63
     7
 74
     1
 91
        4
 64
     7
 65
   257
 75
     1
175
     1
 42
1.0
 92
        0
 66
   257
 43
1.0
 76
     1
 77
     6
 78
     2
 67
     7
 79
     3
170
     0
171
     0
290
     0
174
     0
 93
        1
 44
0.0
173
     0
291
     0
 45
0.0
1001
ACAD
1000
AcDbSavedByObjectVersion
1070
     0
  0
VISUALSTYLE
  5
FD9E
102
{ACAD_XDICTIONARY
360
1030C
102
}
102
{ACAD_REACTORS
330
FCF8
102
}
330
FCF8
100
AcDbVisualStyle
  2
X-Ray
 70
    25
 71
     2
 72
     2
 73
     1
 90
        1
 40
0.5
 41
-30.0
 62
     5
 63
     7
 74
     1
 91
        0
 64
     7
 65
   257
 75
     1
175
     1
 42
1.0
 92
        8
 66
     7
 43
1.0
 76
     1
 77
     6
 78
     2
 67
     7
 79
     3
170
     0
171
     0
290
     0
174
     0
 93
       13
 44
0.0
173
     0
291
     0
 45
0.0
1001
ACAD
1000
AcDbSavedByObjectVersion
1070
     0
  0
DICTIONARYVAR
  5
FD80
102
{ACAD_REACTORS
330
3E
102
}
330
3E
100
DictionaryVariables
280
     0
  1
1:1
  0
DICTIONARYVAR
  5
FD7F
102
{ACAD_REACTORS
330
3E
102
}
330
3E
100
DictionaryVariables
280
     0
  1
STANDARD
  0
DICTIONARYVAR
  5
FD7E
102
{ACAD_REACTORS
330
3E
102
}
330
3E
100
DictionaryVariables
280
     0
  1
STANDARD
  0
DICTIONARYVAR
  5
3F
102
{ACAD_REACTORS
330
3E
102
}
330
3E
100
DictionaryVariables
280
     0
  1
0
  0
DICTIONARYVAR
  5
FD83
102
{ACAD_REACTORS
330
3E
102
}
330
3E
100
DictionaryVariables
280
     0
  1
1
  0
DICTIONARYVAR
  5
FD82
102
{ACAD_REACTORS
330
3E
102
}
330
3E
100
DictionaryVariables
280
     0
  1
0
  0
DICTIONARYVAR
  5
10209
102
{ACAD_REACTORS
330
3E
102
}
330
3E
100
DictionaryVariables
280
     0
  1
1
  0
DICTIONARYVAR
  5
1020A
102
{ACAD_REACTORS
330
3E
102
}
330
3E
100
DictionaryVariables
280
     0
  1
15
  0
DICTIONARYVAR
  5
10208
102
{ACAD_REACTORS
330
3E
102
}
330
3E
100
DictionaryVariables
280
     0
  1
0
  0
DICTIONARYVAR
  5
10207
102
{ACAD_REACTORS
330
3E
102
}
330
3E
100
DictionaryVariables
280
     0
  1
0
  0
DICTIONARYVAR
  5
FD81
102
{ACAD_REACTORS
330
3E
102
}
330
3E
100
DictionaryVariables
280
     0
  1
127
  0
DICTIONARYVAR
  5
102D6
102
{ACAD_REACTORS
330
3E
102
}
330
3E
100
DictionaryVariables
280
     0
  1
2
  0
DICTIONARY
  5
102DE
330
ACC3
100
AcDbDictionary
280
     1
281
     1
  3
ACAD_XREC_ROUNDTRIP
360
102DF
  0
DICTIONARY
  5
102DC
330
ACC2
100
AcDbDictionary
280
     1
281
     1
  3
ACAD_XREC_ROUNDTRIP
360
102DD
  0
DICTIONARY
  5
FCE9
330
FCE8
100
AcDbDictionary
280
     1
281
     1
  3
ACAD_XREC_ROUNDTRIP
360
102E1
  3
BUMPTILE
360
FCEB
  3
DIFFUSETILE
360
FCEA
  3
OPACITYTILE
360
FCEE
  3
REFLECTIONTILE
360
FCED
  3
REFRACTIONTILE
360
FCEF
  3
SPECULARTILE
360
FCEC
  0
DICTIONARY
  5
FCE1
330
FCE0
100
AcDbDictionary
280
     1
281
     1
  3
ACAD_XREC_ROUNDTRIP
360
102E0
  3
BUMPTILE
360
FCE3
  3
DIFFUSETILE
360
FCE2
  3
OPACITYTILE
360
FCE6
  3
REFLECTIONTILE
360
FCE5
  3
REFRACTIONTILE
360
FCE7
  3
SPECULARTILE
360
FCE4
  0
DICTIONARY
  5
FCF1
330
FCF0
100
AcDbDictionary
280
     1
281
     1
  3
ACAD_XREC_ROUNDTRIP
360
102E2
  3
BUMPTILE
360
FCF3
  3
DIFFUSETILE
360
FCF2
  3
OPACITYTILE
360
FCF6
  3
REFLECTIONTILE
360
FCF5
  3
REFRACTIONTILE
360
FCF7
  3
SPECULARTILE
360
FCF4
  0
DICTIONARY
  5
FD69
330
FD0B
100
AcDbDictionary
280
     1
281
     1
  3
ACAD_ROUNDTRIP_2008_TABLESTYLE_CELLSTYLEMAP
360
102D7
  3
ACAD_XREC_ROUNDTRIP
360
10303
  0
DICTIONARY
  5
102ED
330
FCFE
100
AcDbDictionary
280
     1
281
     1
  3
ACAD_XREC_ROUNDTRIP
360
102EE
  0
DICTIONARY
  5
102F1
330
FD00
100
AcDbDictionary
280
     1
281
     1
  3
ACAD_XREC_ROUNDTRIP
360
102F2
  0
DICTIONARY
  5
102EF
330
FCFF
100
AcDbDictionary
280
     1
281
     1
  3
ACAD_XREC_ROUNDTRIP
360
102F0
  0
DICTIONARY
  5
102EB
330
FCFD
100
AcDbDictionary
280
     1
281
     1
  3
ACAD_XREC_ROUNDTRIP
360
102EC
  0
DICTIONARY
  5
102F9
330
FD04
100
AcDbDictionary
280
     1
281
     1
  3
ACAD_XREC_ROUNDTRIP
360
102FA
  0
DICTIONARY
  5
10301
330
FD08
100
AcDbDictionary
280
     1
281
     1
  3
ACAD_XREC_ROUNDTRIP
360
10302
  0
DICTIONARY
  5
102F3
330
FD01
100
AcDbDictionary
280
     1
281
     1
  3
ACAD_XREC_ROUNDTRIP
360
102F4
  0
DICTIONARY
  5
102F7
330
FD03
100
AcDbDictionary
280
     1
281
     1
  3
ACAD_XREC_ROUNDTRIP
360
102F8
  0
DICTIONARY
  5
10316
330
FDA3
100
AcDbDictionary
280
     1
281
     1
  3
ACAD_XREC_ROUNDTRIP
360
10317
  0
DICTIONARY
  5
102FF
330
FD07
100
AcDbDictionary
280
     1
281
     1
  3
ACAD_XREC_ROUNDTRIP
360
10300
  0
DICTIONARY
  5
102E3
330
FCF9
100
AcDbDictionary
280
     1
281
     1
  3
ACAD_XREC_ROUNDTRIP
360
102E4
  0
DICTIONARY
  5
102E5
330
FCFA
100
AcDbDictionary
280
     1
281
     1
  3
ACAD_XREC_ROUNDTRIP
360
102E6
  0
DICTIONARY
  5
102E7
330
FCFB
100
AcDbDictionary
280
     1
281
     1
  3
ACAD_XREC_ROUNDTRIP
360
102E8
  0
DICTIONARY
  5
102E9
330
FCFC
100
AcDbDictionary
280
     1
281
     1
  3
ACAD_XREC_ROUNDTRIP
360
102EA
  0
DICTIONARY
  5
10306
330
FD9B
100
AcDbDictionary
280
     1
281
     1
  3
ACAD_XREC_ROUNDTRIP
360
10307
  0
DICTIONARY
  5
10312
330
FDA1
100
AcDbDictionary
280
     1
281
     1
  3
ACAD_XREC_ROUNDTRIP
360
10313
  0
DICTIONARY
  5
102FD
330
FD06
100
AcDbDictionary
280
     1
281
     1
  3
ACAD_XREC_ROUNDTRIP
360
102FE
  0
DICTIONARY
  5
10314
330
FDA2
100
AcDbDictionary
280
     1
281
     1
  3
ACAD_XREC_ROUNDTRIP
360
10315
  0
DICTIONARY
  5
102F5
330
FD02
100
AcDbDictionary
280
     1
281
     1
  3
ACAD_XREC_ROUNDTRIP
360
102F6
  0
DICTIONARY
  5
10310
330
FDA0
100
AcDbDictionary
280
     1
281
     1
  3
ACAD_XREC_ROUNDTRIP
360
10311
  0
DICTIONARY
  5
1030E
330
FD9F
100
AcDbDictionary
280
     1
281
     1
  3
ACAD_XREC_ROUNDTRIP
360
1030F
  0
DICTIONARY
  5
10308
330
FD9C
100
AcDbDictionary
280
     1
281
     1
  3
ACAD_XREC_ROUNDTRIP
360
10309
  0
DICTIONARY
  5
1030A
330
FD9D
100
AcDbDictionary
280
     1
281
     1
  3
ACAD_XREC_ROUNDTRIP
360
1030B
  0
DICTIONARY
  5
102FB
330
FD05
100
AcDbDictionary
280
     1
281
     1
  3
ACAD_XREC_ROUNDTRIP
360
102FC
  0
DICTIONARY
  5
10304
330
FD9A
100
AcDbDictionary
280
     1
281
     1
  3
ACAD_XREC_ROUNDTRIP
360
10305
  0
DICTIONARY
  5
1030C
330
FD9E
100
AcDbDictionary
280
     1
281
     1
  3
ACAD_XREC_ROUNDTRIP
360
1030D
  0
XRECORD
  5
102DF
102
{ACAD_REACTORS
330
102DE
102
}
330
102DE
100
AcDbXrecord
280
     1
102
SHADEPLOT
 70
     0
102
SHADEPLOTRESLEVEL
 70
     2
102
SHADEPLOTCUSTOMDPI
 70
   300
  0
XRECORD
  5
102DD
102
{ACAD_REACTORS
330
102DC
102
}
330
102DC
100
AcDbXrecord
280
     1
102
SHADEPLOT
 70
     0
102
SHADEPLOTRESLEVEL
 70
     2
102
SHADEPLOTCUSTOMDPI
 70
   300
  0
XRECORD
  5
102E1
102
{ACAD_REACTORS
330
FCE9
102
}
330
FCE9
100
AcDbXrecord
280
     1
102
MATERIAL
148
0.0
149
0.0
149
0.0
 93
        0
 94
      127
282
     0
 72
     0
 77
     0
171
     0
175
     0
179
     0
273
     0
  0
XRECORD
  5
FCEB
102
{ACAD_REACTORS
330
FCE9
102
}
330
FCE9
100
AcDbXrecord
280
     1
270
     1
271
     1
  0
XRECORD
  5
FCEA
102
{ACAD_REACTORS
330
FCE9
102
}
330
FCE9
100
AcDbXrecord
280
     1
270
     1
271
     1
  0
XRECORD
  5
FCEE
102
{ACAD_REACTORS
330
FCE9
102
}
330
FCE9
100
AcDbXrecord
280
     1
270
     1
271
     1
  0
XRECORD
  5
FCED
102
{ACAD_REACTORS
330
FCE9
102
}
330
FCE9
100
AcDbXrecord
280
     1
270
     1
271
     1
  0
XRECORD
  5
FCEF
102
{ACAD_REACTORS
330
FCE9
102
}
330
FCE9
100
AcDbXrecord
280
     1
270
     1
271
     1
  0
XRECORD
  5
FCEC
102
{ACAD_REACTORS
330
FCE9
102
}
330
FCE9
100
AcDbXrecord
280
     1
270
     1
271
     1
  0
XRECORD
  5
102E0
102
{ACAD_REACTORS
330
FCE1
102
}
330
FCE1
100
AcDbXrecord
280
     1
102
MATERIAL
148
0.0
149
0.0
149
0.0
 93
        0
 94
      127
282
     0
 72
     0
 77
     0
171
     0
175
     0
179
     0
273
     0
  0
XRECORD
  5
FCE3
102
{ACAD_REACTORS
330
FCE1
102
}
330
FCE1
100
AcDbXrecord
280
     1
270
     1
271
     1
  0
XRECORD
  5
FCE2
102
{ACAD_REACTORS
330
FCE1
102
}
330
FCE1
100
AcDbXrecord
280
     1
270
     1
271
     1
  0
XRECORD
  5
FCE6
102
{ACAD_REACTORS
330
FCE1
102
}
330
FCE1
100
AcDbXrecord
280
     1
270
     1
271
     1
  0
XRECORD
  5
FCE5
102
{ACAD_REACTORS
330
FCE1
102
}
330
FCE1
100
AcDbXrecord
280
     1
270
     1
271
     1
  0
XRECORD
  5
FCE7
102
{ACAD_REACTORS
330
FCE1
102
}
330
FCE1
100
AcDbXrecord
280
     1
270
     1
271
     1
  0
XRECORD
  5
FCE4
102
{ACAD_REACTORS
330
FCE1
102
}
330
FCE1
100
AcDbXrecord
280
     1
270
     1
271
     1
  0
XRECORD
  5
102E2
102
{ACAD_REACTORS
330
FCF1
102
}
330
FCF1
100
AcDbXrecord
280
     1
102
MATERIAL
148
0.0
149
0.0
149
0.0
 93
        0
 94
      127
282
     0
 72
     0
 77
     0
171
     0
175
     0
179
     0
273
     0
  0
XRECORD
  5
FCF3
102
{ACAD_REACTORS
330
FCF1
102
}
330
FCF1
100
AcDbXrecord
280
     1
270
     1
271
     1
  0
XRECORD
  5
FCF2
102
{ACAD_REACTORS
330
FCF1
102
}
330
FCF1
100
AcDbXrecord
280
     1
270
     1
271
     1
  0
XRECORD
  5
FCF6
102
{ACAD_REACTORS
330
FCF1
102
}
330
FCF1
100
AcDbXrecord
280
     1
270
     1
271
     1
  0
XRECORD
  5
FCF5
102
{ACAD_REACTORS
330
FCF1
102
}
330
FCF1
100
AcDbXrecord
280
     1
270
     1
271
     1
  0
XRECORD
  5
FCF7
102
{ACAD_REACTORS
330
FCF1
102
}
330
FCF1
100
AcDbXrecord
280
     1
270
     1
271
     1
  0
XRECORD
  5
FCF4
102
{ACAD_REACTORS
330
FCF1
102
}
330
FCF1
100
AcDbXrecord
280
     1
270
     1
271
     1
  0
CELLSTYLEMAP
  5
102D7
102
{ACAD_REACTORS
330
FD69
102
}
330
FD69
100
AcDbCellStyleMap
 90
        3
300
CELLSTYLE
  1
TABLEFORMAT_BEGIN
 90
        5
170
     1
 91
        0
 92
    32768
 62
   257
 93
        1
300
CONTENTFORMAT
  1
CONTENTFORMAT_BEGIN
 90
        0
 91
        0
 92
      512
 93
        0
300

 40
0.0
140
1.0
 94
        5
 62
     0
340
F
144
0.25
309
CONTENTFORMAT_END
171
     0
 94
        0
309
TABLEFORMAT_END
  1
CELLSTYLE_BEGIN
 90
        1
 91
        1
300
_TITLE
309
CELLSTYLE_END
300
CELLSTYLE
  1
TABLEFORMAT_BEGIN
 90
        5
170
     1
 91
        0
 92
        0
 62
   257
 93
        1
300
CONTENTFORMAT
  1
CONTENTFORMAT_BEGIN
 90
        0
 91
        0
 92
      512
 93
        0
300

 40
0.0
140
1.0
 94
        5
 62
     0
340
F
144
0.18
309
CONTENTFORMAT_END
171
     0
 94
        0
309
TABLEFORMAT_END
  1
CELLSTYLE_BEGIN
 90
        2
 91
        1
300
_HEADER
309
CELLSTYLE_END
300
CELLSTYLE
  1
TABLEFORMAT_BEGIN
 90
        5
170
     1
 91
        0
 92
        0
 62
   257
 93
        1
300
CONTENTFORMAT
  1
CONTENTFORMAT_BEGIN
 90
        0
 91
        0
 92
      512
 93
        0
300

 40
0.0
140
1.0
 94
        2
 62
     0
340
F
144
0.18
309
CONTENTFORMAT_END
171
     0
 94
        0
309
TABLEFORMAT_END
  1
CELLSTYLE_BEGIN
 90
        3
 91
        2
300
_DATA
309
CELLSTYLE_END
  0
XRECORD
  5
10303
102
{ACAD_REACTORS
330
FD69
102
}
330
FD69
100
AcDbXrecord
280
     1
102
ACAD_ROUNDTRIP_PRE2007_TABLESTYLE
 90
      512
 91
        0
  1

 92
      512
 93
        0
  2

 94
      512
 95
        0
  3

  0
XRECORD
  5
102EE
102
{ACAD_REACTORS
330
102ED
102
}
330
102ED
100
AcDbXrecord
280
     1
102
RTVSPropertyOp0
 70
     1
102
RTVSPropertyOp1
 70
     1
102
RTVSPropertyOp2
 70
     1
102
RTVSPropertyOp3
 70
     1
102
RTVSPropertyOp4
 70
     1
102
RTVSPropertyOp5
 70
     1
102
RTVSPropertyOp6
 70
     1
102
RTVSPropertyOp7
 70
     1
102
RTVSPropertyOp8
 70
     1
102
RTVSPropertyOp9
 70
     1
102
RTVSPropertyOp10
 70
     1
102
RTVSPropertyOp11
 70
     1
102
RTVSPropertyOp12
 70
     1
102
RTVSPropertyOp13
 70
     1
102
RTVSPropertyOp14
 70
     1
102
RTVSPropertyOp15
 70
     1
102
RTVSPropertyOp16
 70
     1
102
RTVSPropertyOp17
 70
     1
102
RTVSPropertyOp18
 70
     1
102
RTVSPropertyOp19
 70
     1
102
RTVSPropertyOp20
 70
     1
102
RTVSPropertyOp21
 70
     1
102
RTVSPropertyOp22
 70
     1
102
RTVSPropertyOp23
 70
     1
102
RTVSPropertyOp24
 70
     1
102
RTVSPropertyOp25
 70
     1
102
RTVSPropertyOp26
 70
     1
102
RTVSPropertyOp27
 70
     1
102
RTVSPropertyOp28
 70
     1
102
RTVSPropertyOp29
 70
     1
102
RTVSPropertyOp30
 70
     1
102
RTVSPropertyOp31
 70
     1
102
RTVSPropertyOp32
 70
     1
  0
XRECORD
  5
102F2
102
{ACAD_REACTORS
330
102F1
102
}
330
102F1
100
AcDbXrecord
280
     1
102
RTVSPropertyOp0
 70
     1
102
RTVSPropertyOp1
 70
     1
102
RTVSPropertyOp2
 70
     1
102
RTVSPropertyOp3
 70
     1
102
RTVSPropertyOp4
 70
     1
102
RTVSPropertyOp5
 70
     1
102
RTVSPropertyOp6
 70
     1
102
RTVSPropertyOp7
 70
     1
102
RTVSPropertyOp8
 70
     1
102
RTVSPropertyOp9
 70
     1
102
RTVSPropertyOp10
 70
     1
102
RTVSPropertyOp11
 70
     1
102
RTVSPropertyOp12
 70
     1
102
RTVSPropertyOp13
 70
     1
102
RTVSPropertyOp14
 70
     1
102
RTVSPropertyOp15
 70
     1
102
RTVSPropertyOp16
 70
     1
102
RTVSPropertyOp17
 70
     1
102
RTVSPropertyOp18
 70
     1
102
RTVSPropertyOp19
 70
     1
102
RTVSPropertyOp20
 70
     1
102
RTVSPropertyOp21
 70
     1
102
RTVSPropertyOp22
 70
     1
102
RTVSPropertyOp23
 70
     1
102
RTVSPropertyOp24
 70
     1
102
RTVSPropertyOp25
 70
     1
102
RTVSPropertyOp26
 70
     1
102
RTVSPropertyOp27
 70
     1
102
RTVSPropertyOp28
 70
     1
102
RTVSPropertyOp29
 70
     1
102
RTVSPropertyOp30
 70
     1
102
RTVSPropertyOp31
 70
     1
102
RTVSPropertyOp32
 70
     1
  0
XRECORD
  5
102F0
102
{ACAD_REACTORS
330
102EF
102
}
330
102EF
100
AcDbXrecord
280
     1
102
RTVSPropertyOp0
 70
     1
102
RTVSPropertyOp1
 70
     1
102
RTVSPropertyOp2
 70
     1
102
RTVSPropertyOp3
 70
     1
102
RTVSPropertyOp4
 70
     1
102
RTVSPropertyOp5
 70
     1
102
RTVSPropertyOp6
 70
     1
102
RTVSPropertyOp7
 70
     1
102
RTVSPropertyOp8
 70
     1
102
RTVSPropertyOp9
 70
     1
102
RTVSPropertyOp10
 70
     1
102
RTVSPropertyOp11
 70
     1
102
RTVSPropertyOp12
 70
     1
102
RTVSPropertyOp13
 70
     1
102
RTVSPropertyOp14
 70
     1
102
RTVSPropertyOp15
 70
     1
102
RTVSPropertyOp16
 70
     1
102
RTVSPropertyOp17
 70
     1
102
RTVSPropertyOp18
 70
     1
102
RTVSPropertyOp19
 70
     1
102
RTVSPropertyOp20
 70
     1
102
RTVSPropertyOp21
 70
     1
102
RTVSPropertyOp22
 70
     1
102
RTVSPropertyOp23
 70
     1
102
RTVSPropertyOp24
 70
     1
102
RTVSPropertyOp25
 70
     1
102
RTVSPropertyOp26
 70
     1
102
RTVSPropertyOp27
 70
     1
102
RTVSPropertyOp28
 70
     1
102
RTVSPropertyOp29
 70
     1
102
RTVSPropertyOp30
 70
     1
102
RTVSPropertyOp31
 70
     1
102
RTVSPropertyOp32
 70
     1
  0
XRECORD
  5
102EC
102
{ACAD_REACTORS
330
102EB
102
}
330
102EB
100
AcDbXrecord
280
     1
102
RTVSPropertyOp0
 70
     1
102
RTVSPropertyOp1
 70
     1
102
RTVSPropertyOp2
 70
     1
102
RTVSPropertyOp3
 70
     1
102
RTVSPropertyOp4
 70
     1
102
RTVSPropertyOp5
 70
     1
102
RTVSPropertyOp6
 70
     1
102
RTVSPropertyOp7
 70
     1
102
RTVSPropertyOp8
 70
     1
102
RTVSPropertyOp9
 70
     1
102
RTVSPropertyOp10
 70
     1
102
RTVSPropertyOp11
 70
     1
102
RTVSPropertyOp12
 70
     1
102
RTVSPropertyOp13
 70
     1
102
RTVSPropertyOp14
 70
     1
102
RTVSPropertyOp15
 70
     1
102
RTVSPropertyOp16
 70
     1
102
RTVSPropertyOp17
 70
     1
102
RTVSPropertyOp18
 70
     1
102
RTVSPropertyOp19
 70
     1
102
RTVSPropertyOp20
 70
     1
102
RTVSPropertyOp21
 70
     1
102
RTVSPropertyOp22
 70
     1
102
RTVSPropertyOp23
 70
     1
102
RTVSPropertyOp24
 70
     1
102
RTVSPropertyOp25
 70
     1
102
RTVSPropertyOp26
 70
     1
102
RTVSPropertyOp27
 70
     1
102
RTVSPropertyOp28
 70
     1
102
RTVSPropertyOp29
 70
     1
102
RTVSPropertyOp30
 70
     1
102
RTVSPropertyOp31
 70
     1
102
RTVSPropertyOp32
 70
     1
  0
XRECORD
  5
102FA
102
{ACAD_REACTORS
330
102F9
102
}
330
102F9
100
AcDbXrecord
280
     1
102
RTVSPropertyOp0
 70
     1
102
RTVSPropertyOp1
 70
     1
102
RTVSPropertyOp2
 70
     1
102
RTVSPropertyOp3
 70
     1
102
RTVSPropertyOp4
 70
     1
102
RTVSPropertyOp5
 70
     1
102
RTVSPropertyOp6
 70
     1
102
RTVSPropertyOp7
 70
     1
102
RTVSPropertyOp8
 70
     1
102
RTVSPropertyOp9
 70
     1
102
RTVSPropertyOp10
 70
     1
102
RTVSPropertyOp11
 70
     1
102
RTVSPropertyOp12
 70
     1
102
RTVSPropertyOp13
 70
     1
102
RTVSPropertyOp14
 70
     1
102
RTVSPropertyOp15
 70
     1
102
RTVSPropertyOp16
 70
     1
102
RTVSPropertyOp17
 70
     1
102
RTVSPropertyOp18
 70
     1
102
RTVSPropertyOp19
 70
     1
102
RTVSPropertyOp20
 70
     1
102
RTVSPropertyOp21
 70
     1
102
RTVSPropertyOp22
 70
     1
102
RTVSPropertyOp23
 70
     1
102
RTVSPropertyOp24
 70
     1
102
RTVSPropertyOp25
 70
     1
102
RTVSPropertyOp26
 70
     1
102
RTVSPropertyOp27
 70
     1
102
RTVSPropertyOp28
 70
     1
102
RTVSPropertyOp29
 70
     1
102
RTVSPropertyOp30
 70
     1
102
RTVSPropertyOp31
 70
     1
102
RTVSPropertyOp32
 70
     1
  0
XRECORD
  5
10302
102
{ACAD_REACTORS
330
10301
102
}
330
10301
100
AcDbXrecord
280
     1
102
RTVSPropertyOp0
 70
     1
102
RTVSPropertyOp1
 70
     1
102
RTVSPropertyOp2
 70
     1
102
RTVSPropertyOp3
 70
     1
102
RTVSPropertyOp4
 70
     1
102
RTVSPropertyOp5
 70
     1
102
RTVSPropertyOp6
 70
     1
102
RTVSPropertyOp7
 70
     1
102
RTVSPropertyOp8
 70
     1
102
RTVSPropertyOp9
 70
     1
102
RTVSPropertyOp10
 70
     1
102
RTVSPropertyOp11
 70
     1
102
RTVSPropertyOp12
 70
     1
102
RTVSPropertyOp13
 70
     1
102
RTVSPropertyOp14
 70
     1
102
RTVSPropertyOp15
 70
     1
102
RTVSPropertyOp16
 70
     1
102
RTVSPropertyOp17
 70
     1
102
RTVSPropertyOp18
 70
     1
102
RTVSPropertyOp19
 70
     1
102
RTVSPropertyOp20
 70
     1
102
RTVSPropertyOp21
 70
     1
102
RTVSPropertyOp22
 70
     1
102
RTVSPropertyOp23
 70
     1
102
RTVSPropertyOp24
 70
     1
102
RTVSPropertyOp25
 70
     1
102
RTVSPropertyOp26
 70
     1
102
RTVSPropertyOp27
 70
     1
102
RTVSPropertyOp28
 70
     1
102
RTVSPropertyOp29
 70
     1
102
RTVSPropertyOp30
 70
     1
102
RTVSPropertyOp31
 70
     1
102
RTVSPropertyOp32
 70
     1
  0
XRECORD
  5
102F4
102
{ACAD_REACTORS
330
102F3
102
}
330
102F3
100
AcDbXrecord
280
     1
102
RTVSPropertyOp0
 70
     1
102
RTVSPropertyOp1
 70
     1
102
RTVSPropertyOp2
 70
     1
102
RTVSPropertyOp3
 70
     1
102
RTVSPropertyOp4
 70
     1
102
RTVSPropertyOp5
 70
     1
102
RTVSPropertyOp6
 70
     1
102
RTVSPropertyOp7
 70
     1
102
RTVSPropertyOp8
 70
     1
102
RTVSPropertyOp9
 70
     1
102
RTVSPropertyOp10
 70
     1
102
RTVSPropertyOp11
 70
     1
102
RTVSPropertyOp12
 70
     1
102
RTVSPropertyOp13
 70
     1
102
RTVSPropertyOp14
 70
     1
102
RTVSPropertyOp15
 70
     1
102
RTVSPropertyOp16
 70
     1
102
RTVSPropertyOp17
 70
     1
102
RTVSPropertyOp18
 70
     1
102
RTVSPropertyOp19
 70
     1
102
RTVSPropertyOp20
 70
     1
102
RTVSPropertyOp21
 70
     1
102
RTVSPropertyOp22
 70
     1
102
RTVSPropertyOp23
 70
     1
102
RTVSPropertyOp24
 70
     1
102
RTVSPropertyOp25
 70
     1
102
RTVSPropertyOp26
 70
     1
102
RTVSPropertyOp27
 70
     1
102
RTVSPropertyOp28
 70
     1
102
RTVSPropertyOp29
 70
     1
102
RTVSPropertyOp30
 70
     1
102
RTVSPropertyOp31
 70
     1
102
RTVSPropertyOp32
 70
     1
  0
XRECORD
  5
102F8
102
{ACAD_REACTORS
330
102F7
102
}
330
102F7
100
AcDbXrecord
280
     1
102
RTVSPropertyOp0
 70
     1
102
RTVSPropertyOp1
 70
     1
102
RTVSPropertyOp2
 70
     1
102
RTVSPropertyOp3
 70
     1
102
RTVSPropertyOp4
 70
     1
102
RTVSPropertyOp5
 70
     1
102
RTVSPropertyOp6
 70
     1
102
RTVSPropertyOp7
 70
     1
102
RTVSPropertyOp8
 70
     1
102
RTVSPropertyOp9
 70
     1
102
RTVSPropertyOp10
 70
     1
102
RTVSPropertyOp11
 70
     1
102
RTVSPropertyOp12
 70
     1
102
RTVSPropertyOp13
 70
     1
102
RTVSPropertyOp14
 70
     1
102
RTVSPropertyOp15
 70
     1
102
RTVSPropertyOp16
 70
     1
102
RTVSPropertyOp17
 70
     1
102
RTVSPropertyOp18
 70
     1
102
RTVSPropertyOp19
 70
     1
102
RTVSPropertyOp20
 70
     1
102
RTVSPropertyOp21
 70
     1
102
RTVSPropertyOp22
 70
     1
102
RTVSPropertyOp23
 70
     1
102
RTVSPropertyOp24
 70
     1
102
RTVSPropertyOp25
 70
     1
102
RTVSPropertyOp26
 70
     1
102
RTVSPropertyOp27
 70
     1
102
RTVSPropertyOp28
 70
     1
102
RTVSPropertyOp29
 70
     1
102
RTVSPropertyOp30
 70
     1
102
RTVSPropertyOp31
 70
     1
102
RTVSPropertyOp32
 70
     1
  0
XRECORD
  5
10317
102
{ACAD_REACTORS
330
10316
102
}
330
10316
100
AcDbXrecord
280
     1
102
RTVSPropertyOp0
 70
     0
102
RTVSPropertyOp1
 70
     0
102
RTVSPropertyOp2
 70
     0
102
RTVSPropertyOp3
 70
     0
102
RTVSPropertyOp4
 70
     0
102
RTVSPropertyOp5
 70
     0
102
RTVSPropertyOp6
 70
     0
102
RTVSPropertyOp7
 70
     0
102
RTVSPropertyOp8
 70
     0
102
RTVSPropertyOp9
 70
     0
102
RTVSPropertyOp10
 70
     0
102
RTVSPropertyOp11
 70
     0
102
RTVSPropertyOp12
 70
     0
102
RTVSPropertyOp13
 70
     0
102
RTVSPropertyOp14
 70
     2
102
RTVSPropertyOp15
 70
     0
102
RTVSPropertyOp16
 70
     0
102
RTVSPropertyOp17
 70
     0
102
RTVSPropertyOp18
 70
     0
102
RTVSPropertyOp19
 70
     0
102
RTVSPropertyOp20
 70
     0
102
RTVSPropertyOp21
 70
     0
102
RTVSPropertyOp22
 70
     0
102
RTVSPropertyOp23
 70
     0
102
RTVSPropertyOp24
 70
     0
102
RTVSPropertyOp25
 70
     0
102
RTVSPropertyOp26
 70
     0
102
RTVSPropertyOp27
 70
     0
102
RTVSPropertyOp28
 70
     1
102
RTVSPropertyOp29
 70
     1
102
RTVSPropertyOp30
 70
     1
102
RTVSPropertyOp31
 70
     1
102
RTVSPropertyOp32
 70
     1
  0
XRECORD
  5
10300
102
{ACAD_REACTORS
330
102FF
102
}
330
102FF
100
AcDbXrecord
280
     1
102
RTVSPropertyOp0
 70
     1
102
RTVSPropertyOp1
 70
     1
102
RTVSPropertyOp2
 70
     1
102
RTVSPropertyOp3
 70
     1
102
RTVSPropertyOp4
 70
     1
102
RTVSPropertyOp5
 70
     1
102
RTVSPropertyOp6
 70
     1
102
RTVSPropertyOp7
 70
     1
102
RTVSPropertyOp8
 70
     1
102
RTVSPropertyOp9
 70
     1
102
RTVSPropertyOp10
 70
     1
102
RTVSPropertyOp11
 70
     1
102
RTVSPropertyOp12
 70
     1
102
RTVSPropertyOp13
 70
     1
102
RTVSPropertyOp14
 70
     1
102
RTVSPropertyOp15
 70
     1
102
RTVSPropertyOp16
 70
     1
102
RTVSPropertyOp17
 70
     1
102
RTVSPropertyOp18
 70
     1
102
RTVSPropertyOp19
 70
     1
102
RTVSPropertyOp20
 70
     1
102
RTVSPropertyOp21
 70
     1
102
RTVSPropertyOp22
 70
     1
102
RTVSPropertyOp23
 70
     1
102
RTVSPropertyOp24
 70
     1
102
RTVSPropertyOp25
 70
     1
102
RTVSPropertyOp26
 70
     1
102
RTVSPropertyOp27
 70
     1
102
RTVSPropertyOp28
 70
     1
102
RTVSPropertyOp29
 70
     1
102
RTVSPropertyOp30
 70
     1
102
RTVSPropertyOp31
 70
     1
102
RTVSPropertyOp32
 70
     1
  0
XRECORD
  5
102E4
102
{ACAD_REACTORS
330
102E3
102
}
330
102E3
100
AcDbXrecord
280
     1
102
RTVSPropertyOp0
 70
     1
102
RTVSPropertyOp1
 70
     1
102
RTVSPropertyOp2
 70
     1
102
RTVSPropertyOp3
 70
     1
102
RTVSPropertyOp4
 70
     1
102
RTVSPropertyOp5
 70
     1
102
RTVSPropertyOp6
 70
     1
102
RTVSPropertyOp7
 70
     1
102
RTVSPropertyOp8
 70
     1
102
RTVSPropertyOp9
 70
     1
102
RTVSPropertyOp10
 70
     1
102
RTVSPropertyOp11
 70
     1
102
RTVSPropertyOp12
 70
     1
102
RTVSPropertyOp13
 70
     1
102
RTVSPropertyOp14
 70
     1
102
RTVSPropertyOp15
 70
     1
102
RTVSPropertyOp16
 70
     1
102
RTVSPropertyOp17
 70
     1
102
RTVSPropertyOp18
 70
     1
102
RTVSPropertyOp19
 70
     1
102
RTVSPropertyOp20
 70
     1
102
RTVSPropertyOp21
 70
     1
102
RTVSPropertyOp22
 70
     1
102
RTVSPropertyOp23
 70
     1
102
RTVSPropertyOp24
 70
     1
102
RTVSPropertyOp25
 70
     1
102
RTVSPropertyOp26
 70
     1
102
RTVSPropertyOp27
 70
     1
102
RTVSPropertyOp28
 70
     1
102
RTVSPropertyOp29
 70
     1
102
RTVSPropertyOp30
 70
     1
102
RTVSPropertyOp31
 70
     1
102
RTVSPropertyOp32
 70
     1
  0
XRECORD
  5
102E6
102
{ACAD_REACTORS
330
102E5
102
}
330
102E5
100
AcDbXrecord
280
     1
102
RTVSPropertyOp0
 70
     1
102
RTVSPropertyOp1
 70
     1
102
RTVSPropertyOp2
 70
     1
102
RTVSPropertyOp3
 70
     1
102
RTVSPropertyOp4
 70
     1
102
RTVSPropertyOp5
 70
     1
102
RTVSPropertyOp6
 70
     1
102
RTVSPropertyOp7
 70
     1
102
RTVSPropertyOp8
 70
     1
102
RTVSPropertyOp9
 70
     1
102
RTVSPropertyOp10
 70
     1
102
RTVSPropertyOp11
 70
     1
102
RTVSPropertyOp12
 70
     1
102
RTVSPropertyOp13
 70
     1
102
RTVSPropertyOp14
 70
     1
102
RTVSPropertyOp15
 70
     1
102
RTVSPropertyOp16
 70
     1
102
RTVSPropertyOp17
 70
     1
102
RTVSPropertyOp18
 70
     1
102
RTVSPropertyOp19
 70
     1
102
RTVSPropertyOp20
 70
     1
102
RTVSPropertyOp21
 70
     1
102
RTVSPropertyOp22
 70
     1
102
RTVSPropertyOp23
 70
     1
102
RTVSPropertyOp24
 70
     1
102
RTVSPropertyOp25
 70
     1
102
RTVSPropertyOp26
 70
     1
102
RTVSPropertyOp27
 70
     1
102
RTVSPropertyOp28
 70
     1
102
RTVSPropertyOp29
 70
     1
102
RTVSPropertyOp30
 70
     1
102
RTVSPropertyOp31
 70
     1
102
RTVSPropertyOp32
 70
     1
  0
XRECORD
  5
102E8
102
{ACAD_REACTORS
330
102E7
102
}
330
102E7
100
AcDbXrecord
280
     1
102
RTVSPropertyOp0
 70
     1
102
RTVSPropertyOp1
 70
     1
102
RTVSPropertyOp2
 70
     1
102
RTVSPropertyOp3
 70
     1
102
RTVSPropertyOp4
 70
     1
102
RTVSPropertyOp5
 70
     1
102
RTVSPropertyOp6
 70
     1
102
RTVSPropertyOp7
 70
     1
102
RTVSPropertyOp8
 70
     1
102
RTVSPropertyOp9
 70
     1
102
RTVSPropertyOp10
 70
     1
102
RTVSPropertyOp11
 70
     1
102
RTVSPropertyOp12
 70
     1
102
RTVSPropertyOp13
 70
     1
102
RTVSPropertyOp14
 70
     1
102
RTVSPropertyOp15
 70
     1
102
RTVSPropertyOp16
 70
     1
102
RTVSPropertyOp17
 70
     1
102
RTVSPropertyOp18
 70
     1
102
RTVSPropertyOp19
 70
     1
102
RTVSPropertyOp20
 70
     1
102
RTVSPropertyOp21
 70
     1
102
RTVSPropertyOp22
 70
     1
102
RTVSPropertyOp23
 70
     1
102
RTVSPropertyOp24
 70
     1
102
RTVSPropertyOp25
 70
     1
102
RTVSPropertyOp26
 70
     1
102
RTVSPropertyOp27
 70
     1
102
RTVSPropertyOp28
 70
     1
102
RTVSPropertyOp29
 70
     1
102
RTVSPropertyOp30
 70
     1
102
RTVSPropertyOp31
 70
     1
102
RTVSPropertyOp32
 70
     1
  0
XRECORD
  5
102EA
102
{ACAD_REACTORS
330
102E9
102
}
330
102E9
100
AcDbXrecord
280
     1
102
RTVSPropertyOp0
 70
     1
102
RTVSPropertyOp1
 70
     1
102
RTVSPropertyOp2
 70
     1
102
RTVSPropertyOp3
 70
     1
102
RTVSPropertyOp4
 70
     1
102
RTVSPropertyOp5
 70
     1
102
RTVSPropertyOp6
 70
     1
102
RTVSPropertyOp7
 70
     1
102
RTVSPropertyOp8
 70
     1
102
RTVSPropertyOp9
 70
     1
102
RTVSPropertyOp10
 70
     1
102
RTVSPropertyOp11
 70
     1
102
RTVSPropertyOp12
 70
     1
102
RTVSPropertyOp13
 70
     1
102
RTVSPropertyOp14
 70
     1
102
RTVSPropertyOp15
 70
     1
102
RTVSPropertyOp16
 70
     1
102
RTVSPropertyOp17
 70
     1
102
RTVSPropertyOp18
 70
     1
102
RTVSPropertyOp19
 70
     1
102
RTVSPropertyOp20
 70
     1
102
RTVSPropertyOp21
 70
     1
102
RTVSPropertyOp22
 70
     1
102
RTVSPropertyOp23
 70
     1
102
RTVSPropertyOp24
 70
     1
102
RTVSPropertyOp25
 70
     1
102
RTVSPropertyOp26
 70
     1
102
RTVSPropertyOp27
 70
     1
102
RTVSPropertyOp28
 70
     1
102
RTVSPropertyOp29
 70
     1
102
RTVSPropertyOp30
 70
     1
102
RTVSPropertyOp31
 70
     1
102
RTVSPropertyOp32
 70
     1
  0
XRECORD
  5
10307
102
{ACAD_REACTORS
330
10306
102
}
330
10306
100
AcDbXrecord
280
     1
102
RTVSPropertyOp0
 70
     1
102
RTVSPropertyOp1
 70
     1
102
RTVSPropertyOp2
 70
     1
102
RTVSPropertyOp3
 70
     1
102
RTVSPropertyOp4
 70
     1
102
RTVSPropertyOp5
 70
     1
102
RTVSPropertyOp6
 70
     1
102
RTVSPropertyOp7
 70
     1
102
RTVSPropertyOp8
 70
     1
102
RTVSPropertyOp9
 70
     1
102
RTVSPropertyOp10
 70
     1
102
RTVSPropertyOp11
 70
     1
102
RTVSPropertyOp12
 70
     1
102
RTVSPropertyOp13
 70
     1
102
RTVSPropertyOp14
 70
     1
102
RTVSPropertyOp15
 70
     1
102
RTVSPropertyOp16
 70
     1
102
RTVSPropertyOp17
 70
     1
102
RTVSPropertyOp18
 70
     1
102
RTVSPropertyOp19
 70
     1
102
RTVSPropertyOp20
 70
     1
102
RTVSPropertyOp21
 70
     1
102
RTVSPropertyOp22
 70
     1
102
RTVSPropertyOp23
 70
     1
102
RTVSPropertyOp24
 70
     1
102
RTVSPropertyOp25
 70
     1
102
RTVSPropertyOp26
 70
     1
102
RTVSPropertyOp27
 70
     1
102
RTVSPropertyOp28
 70
     1
102
RTVSPropertyOp29
 70
     1
102
RTVSPropertyOp30
 70
     1
102
RTVSPropertyOp31
 70
     1
102
RTVSPropertyOp32
 70
     1
  0
XRECORD
  5
10313
102
{ACAD_REACTORS
330
10312
102
}
330
10312
100
AcDbXrecord
280
     1
102
RTVSPropertyOp0
 70
     0
102
RTVSPropertyOp1
 70
     0
102
RTVSPropertyOp2
 70
     0
102
RTVSPropertyOp3
 70
     0
102
RTVSPropertyOp4
 70
     0
102
RTVSPropertyOp5
 70
     0
102
RTVSPropertyOp6
 70
     0
102
RTVSPropertyOp7
 70
     0
102
RTVSPropertyOp8
 70
     0
102
RTVSPropertyOp9
 70
     0
102
RTVSPropertyOp10
 70
     0
102
RTVSPropertyOp11
 70
     0
102
RTVSPropertyOp12
 70
     0
102
RTVSPropertyOp13
 70
     0
102
RTVSPropertyOp14
 70
     2
102
RTVSPropertyOp15
 70
     0
102
RTVSPropertyOp16
 70
     0
102
RTVSPropertyOp17
 70
     0
102
RTVSPropertyOp18
 70
     0
102
RTVSPropertyOp19
 70
     0
102
RTVSPropertyOp20
 70
     0
102
RTVSPropertyOp21
 70
     0
102
RTVSPropertyOp22
 70
     0
102
RTVSPropertyOp23
 70
     0
102
RTVSPropertyOp24
 70
     0
102
RTVSPropertyOp25
 70
     0
102
RTVSPropertyOp26
 70
     0
102
RTVSPropertyOp27
 70
     0
102
RTVSPropertyOp28
 70
     1
102
RTVSPropertyOp29
 70
     1
102
RTVSPropertyOp30
 70
     1
102
RTVSPropertyOp31
 70
     1
102
RTVSPropertyOp32
 70
     1
  0
XRECORD
  5
102FE
102
{ACAD_REACTORS
330
102FD
102
}
330
102FD
100
AcDbXrecord
280
     1
102
RTVSPropertyOp0
 70
     1
102
RTVSPropertyOp1
 70
     1
102
RTVSPropertyOp2
 70
     1
102
RTVSPropertyOp3
 70
     1
102
RTVSPropertyOp4
 70
     1
102
RTVSPropertyOp5
 70
     1
102
RTVSPropertyOp6
 70
     1
102
RTVSPropertyOp7
 70
     1
102
RTVSPropertyOp8
 70
     1
102
RTVSPropertyOp9
 70
     1
102
RTVSPropertyOp10
 70
     1
102
RTVSPropertyOp11
 70
     1
102
RTVSPropertyOp12
 70
     1
102
RTVSPropertyOp13
 70
     1
102
RTVSPropertyOp14
 70
     1
102
RTVSPropertyOp15
 70
     1
102
RTVSPropertyOp16
 70
     1
102
RTVSPropertyOp17
 70
     1
102
RTVSPropertyOp18
 70
     1
102
RTVSPropertyOp19
 70
     1
102
RTVSPropertyOp20
 70
     1
102
RTVSPropertyOp21
 70
     1
102
RTVSPropertyOp22
 70
     1
102
RTVSPropertyOp23
 70
     1
102
RTVSPropertyOp24
 70
     1
102
RTVSPropertyOp25
 70
     1
102
RTVSPropertyOp26
 70
     1
102
RTVSPropertyOp27
 70
     1
102
RTVSPropertyOp28
 70
     1
102
RTVSPropertyOp29
 70
     1
102
RTVSPropertyOp30
 70
     1
102
RTVSPropertyOp31
 70
     1
102
RTVSPropertyOp32
 70
     1
  0
XRECORD
  5
10315
102
{ACAD_REACTORS
330
10314
102
}
330
10314
100
AcDbXrecord
280
     1
102
RTVSPropertyOp0
 70
     0
102
RTVSPropertyOp1
 70
     0
102
RTVSPropertyOp2
 70
     0
102
RTVSPropertyOp3
 70
     0
102
RTVSPropertyOp4
 70
     0
102
RTVSPropertyOp5
 70
     0
102
RTVSPropertyOp6
 70
     0
102
RTVSPropertyOp7
 70
     0
102
RTVSPropertyOp8
 70
     0
102
RTVSPropertyOp9
 70
     0
102
RTVSPropertyOp10
 70
     0
102
RTVSPropertyOp11
 70
     0
102
RTVSPropertyOp12
 70
     0
102
RTVSPropertyOp13
 70
     0
102
RTVSPropertyOp14
 70
     2
102
RTVSPropertyOp15
 70
     0
102
RTVSPropertyOp16
 70
     0
102
RTVSPropertyOp17
 70
     0
102
RTVSPropertyOp18
 70
     0
102
RTVSPropertyOp19
 70
     0
102
RTVSPropertyOp20
 70
     0
102
RTVSPropertyOp21
 70
     0
102
RTVSPropertyOp22
 70
     0
102
RTVSPropertyOp23
 70
     0
102
RTVSPropertyOp24
 70
     0
102
RTVSPropertyOp25
 70
     0
102
RTVSPropertyOp26
 70
     0
102
RTVSPropertyOp27
 70
     0
102
RTVSPropertyOp28
 70
     1
102
RTVSPropertyOp29
 70
     1
102
RTVSPropertyOp30
 70
     1
102
RTVSPropertyOp31
 70
     1
102
RTVSPropertyOp32
 70
     1
  0
XRECORD
  5
102F6
102
{ACAD_REACTORS
330
102F5
102
}
330
102F5
100
AcDbXrecord
280
     1
102
RTVSPropertyOp0
 70
     1
102
RTVSPropertyOp1
 70
     1
102
RTVSPropertyOp2
 70
     1
102
RTVSPropertyOp3
 70
     1
102
RTVSPropertyOp4
 70
     1
102
RTVSPropertyOp5
 70
     1
102
RTVSPropertyOp6
 70
     1
102
RTVSPropertyOp7
 70
     1
102
RTVSPropertyOp8
 70
     1
102
RTVSPropertyOp9
 70
     1
102
RTVSPropertyOp10
 70
     1
102
RTVSPropertyOp11
 70
     1
102
RTVSPropertyOp12
 70
     1
102
RTVSPropertyOp13
 70
     1
102
RTVSPropertyOp14
 70
     1
102
RTVSPropertyOp15
 70
     1
102
RTVSPropertyOp16
 70
     1
102
RTVSPropertyOp17
 70
     1
102
RTVSPropertyOp18
 70
     1
102
RTVSPropertyOp19
 70
     1
102
RTVSPropertyOp20
 70
     1
102
RTVSPropertyOp21
 70
     1
102
RTVSPropertyOp22
 70
     1
102
RTVSPropertyOp23
 70
     1
102
RTVSPropertyOp24
 70
     1
102
RTVSPropertyOp25
 70
     1
102
RTVSPropertyOp26
 70
     1
102
RTVSPropertyOp27
 70
     1
102
RTVSPropertyOp28
 70
     1
102
RTVSPropertyOp29
 70
     1
102
RTVSPropertyOp30
 70
     1
102
RTVSPropertyOp31
 70
     1
102
RTVSPropertyOp32
 70
     1
  0
XRECORD
  5
10311
102
{ACAD_REACTORS
330
10310
102
}
330
10310
100
AcDbXrecord
280
     1
102
RTVSPropertyOp0
 70
     1
102
RTVSPropertyOp1
 70
     1
102
RTVSPropertyOp2
 70
     1
102
RTVSPropertyOp3
 70
     1
102
RTVSPropertyOp4
 70
     1
102
RTVSPropertyOp5
 70
     1
102
RTVSPropertyOp6
 70
     1
102
RTVSPropertyOp7
 70
     1
102
RTVSPropertyOp8
 70
     1
102
RTVSPropertyOp9
 70
     1
102
RTVSPropertyOp10
 70
     1
102
RTVSPropertyOp11
 70
     1
102
RTVSPropertyOp12
 70
     1
102
RTVSPropertyOp13
 70
     1
102
RTVSPropertyOp14
 70
     1
102
RTVSPropertyOp15
 70
     1
102
RTVSPropertyOp16
 70
     1
102
RTVSPropertyOp17
 70
     1
102
RTVSPropertyOp18
 70
     1
102
RTVSPropertyOp19
 70
     1
102
RTVSPropertyOp20
 70
     1
102
RTVSPropertyOp21
 70
     1
102
RTVSPropertyOp22
 70
     1
102
RTVSPropertyOp23
 70
     1
102
RTVSPropertyOp24
 70
     1
102
RTVSPropertyOp25
 70
     1
102
RTVSPropertyOp26
 70
     1
102
RTVSPropertyOp27
 70
     1
102
RTVSPropertyOp28
 70
     1
102
RTVSPropertyOp29
 70
     1
102
RTVSPropertyOp30
 70
     1
102
RTVSPropertyOp31
 70
     1
102
RTVSPropertyOp32
 70
     1
  0
XRECORD
  5
1030F
102
{ACAD_REACTORS
330
1030E
102
}
330
1030E
100
AcDbXrecord
280
     1
102
RTVSPropertyOp0
 70
     1
102
RTVSPropertyOp1
 70
     1
102
RTVSPropertyOp2
 70
     1
102
RTVSPropertyOp3
 70
     1
102
RTVSPropertyOp4
 70
     1
102
RTVSPropertyOp5
 70
     1
102
RTVSPropertyOp6
 70
     1
102
RTVSPropertyOp7
 70
     1
102
RTVSPropertyOp8
 70
     1
102
RTVSPropertyOp9
 70
     1
102
RTVSPropertyOp10
 70
     1
102
RTVSPropertyOp11
 70
     1
102
RTVSPropertyOp12
 70
     1
102
RTVSPropertyOp13
 70
     1
102
RTVSPropertyOp14
 70
     1
102
RTVSPropertyOp15
 70
     1
102
RTVSPropertyOp16
 70
     1
102
RTVSPropertyOp17
 70
     1
102
RTVSPropertyOp18
 70
     1
102
RTVSPropertyOp19
 70
     1
102
RTVSPropertyOp20
 70
     1
102
RTVSPropertyOp21
 70
     1
102
RTVSPropertyOp22
 70
     1
102
RTVSPropertyOp23
 70
     1
102
RTVSPropertyOp24
 70
     1
102
RTVSPropertyOp25
 70
     1
102
RTVSPropertyOp26
 70
     1
102
RTVSPropertyOp27
 70
     1
102
RTVSPropertyOp28
 70
     1
102
RTVSPropertyOp29
 70
     1
102
RTVSPropertyOp30
 70
     1
102
RTVSPropertyOp31
 70
     1
102
RTVSPropertyOp32
 70
     1
  0
XRECORD
  5
10309
102
{ACAD_REACTORS
330
10308
102
}
330
10308
100
AcDbXrecord
280
     1
102
RTVSPropertyOp0
 70
     1
102
RTVSPropertyOp1
 70
     1
102
RTVSPropertyOp2
 70
     1
102
RTVSPropertyOp3
 70
     1
102
RTVSPropertyOp4
 70
     1
102
RTVSPropertyOp5
 70
     1
102
RTVSPropertyOp6
 70
     1
102
RTVSPropertyOp7
 70
     1
102
RTVSPropertyOp8
 70
     1
102
RTVSPropertyOp9
 70
     1
102
RTVSPropertyOp10
 70
     1
102
RTVSPropertyOp11
 70
     1
102
RTVSPropertyOp12
 70
     1
102
RTVSPropertyOp13
 70
     1
102
RTVSPropertyOp14
 70
     1
102
RTVSPropertyOp15
 70
     1
102
RTVSPropertyOp16
 70
     1
102
RTVSPropertyOp17
 70
     1
102
RTVSPropertyOp18
 70
     1
102
RTVSPropertyOp19
 70
     1
102
RTVSPropertyOp20
 70
     1
102
RTVSPropertyOp21
 70
     1
102
RTVSPropertyOp22
 70
     1
102
RTVSPropertyOp23
 70
     1
102
RTVSPropertyOp24
 70
     1
102
RTVSPropertyOp25
 70
     1
102
RTVSPropertyOp26
 70
     1
102
RTVSPropertyOp27
 70
     1
102
RTVSPropertyOp28
 70
     1
102
RTVSPropertyOp29
 70
     1
102
RTVSPropertyOp30
 70
     1
102
RTVSPropertyOp31
 70
     1
102
RTVSPropertyOp32
 70
     1
  0
XRECORD
  5
1030B
102
{ACAD_REACTORS
330
1030A
102
}
330
1030A
100
AcDbXrecord
280
     1
102
RTVSPropertyOp0
 70
     1
102
RTVSPropertyOp1
 70
     1
102
RTVSPropertyOp2
 70
     1
102
RTVSPropertyOp3
 70
     1
102
RTVSPropertyOp4
 70
     1
102
RTVSPropertyOp5
 70
     1
102
RTVSPropertyOp6
 70
     1
102
RTVSPropertyOp7
 70
     1
102
RTVSPropertyOp8
 70
     1
102
RTVSPropertyOp9
 70
     1
102
RTVSPropertyOp10
 70
     1
102
RTVSPropertyOp11
 70
     1
102
RTVSPropertyOp12
 70
     1
102
RTVSPropertyOp13
 70
     1
102
RTVSPropertyOp14
 70
     1
102
RTVSPropertyOp15
 70
     1
102
RTVSPropertyOp16
 70
     1
102
RTVSPropertyOp17
 70
     1
102
RTVSPropertyOp18
 70
     1
102
RTVSPropertyOp19
 70
     1
102
RTVSPropertyOp20
 70
     1
102
RTVSPropertyOp21
 70
     1
102
RTVSPropertyOp22
 70
     1
102
RTVSPropertyOp23
 70
     1
102
RTVSPropertyOp24
 70
     1
102
RTVSPropertyOp25
 70
     1
102
RTVSPropertyOp26
 70
     1
102
RTVSPropertyOp27
 70
     1
102
RTVSPropertyOp28
 70
     1
102
RTVSPropertyOp29
 70
     1
102
RTVSPropertyOp30
 70
     1
102
RTVSPropertyOp31
 70
     1
102
RTVSPropertyOp32
 70
     1
  0
XRECORD
  5
102FC
102
{ACAD_REACTORS
330
102FB
102
}
330
102FB
100
AcDbXrecord
280
     1
102
RTVSPropertyOp0
 70
     1
102
RTVSPropertyOp1
 70
     1
102
RTVSPropertyOp2
 70
     1
102
RTVSPropertyOp3
 70
     1
102
RTVSPropertyOp4
 70
     1
102
RTVSPropertyOp5
 70
     1
102
RTVSPropertyOp6
 70
     1
102
RTVSPropertyOp7
 70
     1
102
RTVSPropertyOp8
 70
     1
102
RTVSPropertyOp9
 70
     1
102
RTVSPropertyOp10
 70
     1
102
RTVSPropertyOp11
 70
     1
102
RTVSPropertyOp12
 70
     1
102
RTVSPropertyOp13
 70
     1
102
RTVSPropertyOp14
 70
     1
102
RTVSPropertyOp15
 70
     1
102
RTVSPropertyOp16
 70
     1
102
RTVSPropertyOp17
 70
     1
102
RTVSPropertyOp18
 70
     1
102
RTVSPropertyOp19
 70
     1
102
RTVSPropertyOp20
 70
     1
102
RTVSPropertyOp21
 70
     1
102
RTVSPropertyOp22
 70
     1
102
RTVSPropertyOp23
 70
     1
102
RTVSPropertyOp24
 70
     1
102
RTVSPropertyOp25
 70
     1
102
RTVSPropertyOp26
 70
     1
102
RTVSPropertyOp27
 70
     1
102
RTVSPropertyOp28
 70
     1
102
RTVSPropertyOp29
 70
     1
102
RTVSPropertyOp30
 70
     1
102
RTVSPropertyOp31
 70
     1
102
RTVSPropertyOp32
 70
     1
  0
XRECORD
  5
10305
102
{ACAD_REACTORS
330
10304
102
}
330
10304
100
AcDbXrecord
280
     1
102
RTVSPropertyOp0
 70
     1
102
RTVSPropertyOp1
 70
     1
102
RTVSPropertyOp2
 70
     1
102
RTVSPropertyOp3
 70
     1
102
RTVSPropertyOp4
 70
     1
102
RTVSPropertyOp5
 70
     1
102
RTVSPropertyOp6
 70
     1
102
RTVSPropertyOp7
 70
     1
102
RTVSPropertyOp8
 70
     1
102
RTVSPropertyOp9
 70
     1
102
RTVSPropertyOp10
 70
     1
102
RTVSPropertyOp11
 70
     1
102
RTVSPropertyOp12
 70
     1
102
RTVSPropertyOp13
 70
     1
102
RTVSPropertyOp14
 70
     1
102
RTVSPropertyOp15
 70
     1
102
RTVSPropertyOp16
 70
     1
102
RTVSPropertyOp17
 70
     1
102
RTVSPropertyOp18
 70
     1
102
RTVSPropertyOp19
 70
     1
102
RTVSPropertyOp20
 70
     1
102
RTVSPropertyOp21
 70
     1
102
RTVSPropertyOp22
 70
     1
102
RTVSPropertyOp23
 70
     1
102
RTVSPropertyOp24
 70
     1
102
RTVSPropertyOp25
 70
     1
102
RTVSPropertyOp26
 70
     1
102
RTVSPropertyOp27
 70
     1
102
RTVSPropertyOp28
 70
     1
102
RTVSPropertyOp29
 70
     1
102
RTVSPropertyOp30
 70
     1
102
RTVSPropertyOp31
 70
     1
102
RTVSPropertyOp32
 70
     1
  0
XRECORD
  5
1030D
102
{ACAD_REACTORS
330
1030C
102
}
330
1030C
100
AcDbXrecord
280
     1
102
RTVSPropertyOp0
 70
     1
102
RTVSPropertyOp1
 70
     1
102
RTVSPropertyOp2
 70
     1
102
RTVSPropertyOp3
 70
     1
102
RTVSPropertyOp4
 70
     1
102
RTVSPropertyOp5
 70
     1
102
RTVSPropertyOp6
 70
     1
102
RTVSPropertyOp7
 70
     1
102
RTVSPropertyOp8
 70
     1
102
RTVSPropertyOp9
 70
     1
102
RTVSPropertyOp10
 70
     1
102
RTVSPropertyOp11
 70
     1
102
RTVSPropertyOp12
 70
     1
102
RTVSPropertyOp13
 70
     1
102
RTVSPropertyOp14
 70
     1
102
RTVSPropertyOp15
 70
     1
102
RTVSPropertyOp16
 70
     1
102
RTVSPropertyOp17
 70
     1
102
RTVSPropertyOp18
 70
     1
102
RTVSPropertyOp19
 70
     1
102
RTVSPropertyOp20
 70
     1
102
RTVSPropertyOp21
 70
     1
102
RTVSPropertyOp22
 70
     1
102
RTVSPropertyOp23
 70
     1
102
RTVSPropertyOp24
 70
     1
102
RTVSPropertyOp25
 70
     1
102
RTVSPropertyOp26
 70
     1
102
RTVSPropertyOp27
 70
     1
102
RTVSPropertyOp28
 70
     1
102
RTVSPropertyOp29
 70
     1
102
RTVSPropertyOp30
 70
     1
102
RTVSPropertyOp31
 70
     1
102
RTVSPropertyOp32
 70
     1
  0
ENDSEC
  0
EOF
