  0
SECTION
  2
HEADER
  9
$ACADVER
  1
AC1015
  9
$ACADMAINTVER
 70
    20
  9
$DWGCODEPAGE
  3
ANSI_1252
  9
$INSBASE
 10
9.464814862643089
 20
4.206281095300671
 30
0.0
  9
$EXTMIN
 10
-9.822498266376307
 20
-6.020862690213913
 30
0.0
  9
$EXTMAX
 10
39.87180980926172
 20
25.69048118937661
 30
0.0
  9
$LIMMIN
 10
0.0
 20
0.0
  9
$LIMMAX
 10
15.8
 20
9.8
  9
$ORTHOMODE
 70
     0
  9
$REGENMODE
 70
     1
  9
$FILLMODE
 70
     1
  9
$QTEXTMODE
 70
     0
  9
$MIRRTEXT
 70
     1
  9
$LTSCALE
 40
1.0
  9
$ATTMODE
 70
     1
  9
$TEXTSIZE
 40
0.1875
  9
$TRACEWID
 40
0.05
  9
$TEXTSTYLE
  7
STANDARD
  9
$CLAYER
  8
0
  9
$CELTYPE
  6
BYLAYER
  9
$CECOLOR
 62
   256
  9
$CELTSCALE
 40
1.0
  9
$DISPSILH
 70
     0
  9
$DIMSCALE
 40
0.0
  9
$DIMASZ
 40
0.125
  9
$DIMEXO
 40
0.25
  9
$DIMDLI
 40
0.3828125
  9
$DIMRND
 40
0.0
  9
$DIMDLE
 40
0.0
  9
$DIMEXE
 40
0.125
  9
$DIMTP
 40
0.0
  9
$DIMTM
 40
0.0
  9
$DIMTXT
 40
0.1875
  9
$DIMCEN
 40
0.09375
  9
$DIMTSZ
 40
0.0
  9
$DIMTOL
 70
     0
  9
$DIMLIM
 70
     0
  9
$DIMTIH
 70
     0
  9
$DIMTOH
 70
     0
  9
$DIMSE1
 70
     0
  9
$DIMSE2
 70
     0
  9
$DIMTAD
 70
     1
  9
$DIMZIN
 70
     0
  9
$DIMBLK
  1

  9
$DIMASO
 70
     0
  9
$DIMSHO
 70
     1
  9
$DIMPOST
  1

  9
$DIMAPOST
  1

  9
$DIMALT
 70
     0
  9
$DIMALTD
 70
     2
  9
$DIMALTF
 40
25.4
  9
$DIMLFAC
 40
1.0
  9
$DIMTOFL
 70
     0
  9
$DIMTVP
 40
1.0
  9
$DIMTIX
 70
     0
  9
$DIMSOXD
 70
     0
  9
$DIMSAH
 70
     0
  9
$DIMBLK1
  1

  9
$DIMBLK2
  1

  9
$DIMSTYLE
  2
STANDARD
  9
$DIMCLRD
 70
     0
  9
$DIMCLRE
 70
     0
  9
$DIMCLRT
 70
     0
  9
$DIMTFAC
 40
1.0
  9
$DIMGAP
 40
0.09
  9
$DIMJUST
 70
     0
  9
$DIMSD1
 70
     0
  9
$DIMSD2
 70
     0
  9
$DIMTOLJ
 70
     1
  9
$DIMTZIN
 70
     0
  9
$DIMALTZ
 70
     0
  9
$DIMALTTZ
 70
     0
  9
$DIMUPT
 70
     0
  9
$DIMDEC
 70
     5
  9
$DIMTDEC
 70
     5
  9
$DIMALTU
 70
     4
  9
$DIMALTTD
 70
     2
  9
$DIMTXSTY
  7
STANDARD
  9
$DIMAUNIT
 70
     0
  9
$DIMADEC
 70
     0
  9
$DIMALTRND
 40
0.0
  9
$DIMAZIN
 70
     0
  9
$DIMDSEP
 70
    46
  9
$DIMATFIT
 70
     3
  9
$DIMFRAC
 70
     0
  9
$DIMLDRBLK
  1

  9
$DIMLUNIT
 70
     4
  9
$DIMLWD
 70
    -2
  9
$DIMLWE
 70
    -2
  9
$DIMTMOVE
 70
     2
  9
$LUNITS
 70
     2
  9
$LUPREC
 70
     5
  9
$SKETCHINC
 40
0.1
  9
$FILLETRAD
 40
0.0
  9
$AUNITS
 70
     1
  9
$AUPREC
 70
     4
  9
$MENU
  1
acad
  9
$ELEVATION
 40
0.0
  9
$PELEVATION
 40
0.0
  9
$THICKNESS
 40
0.0
  9
$LIMCHECK
 70
     0
  9
$CHAMFERA
 40
0.0
  9
$CHAMFERB
 40
0.0
  9
$CHAMFERC
 40
0.0
  9
$CHAMFERD
 40
0.0
  9
$SKPOLY
 70
     0
  9
$TDCREATE
 40
2450140.523167593
  9
$TDUCREATE
 40
2450140.731500926
  9
$TDUPDATE
 40
2457809.479641366
  9
$TDUUPDATE
 40
2457809.687974699
  9
$TDINDWG
 40
0.1621151157
  9
$TDUSRTIMER
 40
0.1621151157
  9
$USRTIMER
 70
     1
  9
$ANGBASE
 50
0.0
  9
$ANGDIR
 70
     0
  9
$PDMODE
 70
    34
  9
$PDSIZE
 40
0.3
  9
$PLINEWID
 40
0.0
  9
$SPLFRAME
 70
     0
  9
$SPLINETYPE
 70
     6
  9
$SPLINESEGS
 70
     8
  9
$HANDSEED
  5
2BF4
  9
$SURFTAB1
 70
     6
  9
$SURFTAB2
 70
     6
  9
$SURFTYPE
 70
     6
  9
$SURFU
 70
     6
  9
$SURFV
 70
     6
  9
$UCSBASE
  2

  9
$UCSNAME
  2

  9
$UCSORG
 10
-9.822498266376307
 20
-6.020862690213913
 30
0.0
  9
$UCSXDIR
 10
1.0
 20
0.0
 30
0.0
  9
$UCSYDIR
 10
0.0
 20
1.0
 30
0.0
  9
$UCSORTHOREF
  2

  9
$UCSORTHOVIEW
 70
     0
  9
$UCSORGTOP
 10
0.0
 20
0.0
 30
0.0
  9
$UCSORGBOTTOM
 10
0.0
 20
0.0
 30
0.0
  9
$UCSORGLEFT
 10
0.0
 20
0.0
 30
0.0
  9
$UCSORGRIGHT
 10
0.0
 20
0.0
 30
0.0
  9
$UCSORGFRONT
 10
0.0
 20
0.0
 30
0.0
  9
$UCSORGBACK
 10
0.0
 20
0.0
 30
0.0
  9
$PUCSBASE
  2

  9
$PUCSNAME
  2

  9
$PUCSORG
 10
0.0
 20
0.0
 30
0.0
  9
$PUCSXDIR
 10
1.0
 20
0.0
 30
0.0
  9
$PUCSYDIR
 10
0.0
 20
1.0
 30
0.0
  9
$PUCSORTHOREF
  2

  9
$PUCSORTHOVIEW
 70
     0
  9
$PUCSORGTOP
 10
0.0
 20
0.0
 30
0.0
  9
$PUCSORGBOTTOM
 10
0.0
 20
0.0
 30
0.0
  9
$PUCSORGLEFT
 10
0.0
 20
0.0
 30
0.0
  9
$PUCSORGRIGHT
 10
0.0
 20
0.0
 30
0.0
  9
$PUCSORGFRONT
 10
0.0
 20
0.0
 30
0.0
  9
$PUCSORGBACK
 10
0.0
 20
0.0
 30
0.0
  9
$USERI1
 70
     0
  9
$USERI2
 70
     0
  9
$USERI3
 70
     0
  9
$USERI4
 70
     0
  9
$USERI5
 70
     0
  9
$USERR1
 40
0.0
  9
$USERR2
 40
0.0
  9
$USERR3
 40
0.0
  9
$USERR4
 40
0.0
  9
$USERR5
 40
0.0
  9
$WORLDVIEW
 70
     1
  9
$SHADEDGE
 70
     3
  9
$SHADEDIF
 70
    70
  9
$TILEMODE
 70
     1
  9
$MAXACTVP
 70
    16
  9
$PINSBASE
 10
0.0
 20
0.0
 30
0.0
  9
$PLIMCHECK
 70
     0
  9
$PEXTMIN
 10
1.000000000000000E+20
 20
1.000000000000000E+20
 30
1.000000000000000E+20
  9
$PEXTMAX
 10
-1.000000000000000E+20
 20
-1.000000000000000E+20
 30
-1.000000000000000E+20
  9
$PLIMMIN
 10
0.0
 20
0.0
  9
$PLIMMAX
 10
12.0
 20
9.0
  9
$UNITMODE
 70
     0
  9
$VISRETAIN
 70
     0
  9
$PLINEGEN
 70
     0
  9
$PSLTSCALE
 70
     1
  9
$TREEDEPTH
 70
  3020
  9
$CMLSTYLE
  2
STANDARD
  9
$CMLJUST
 70
     0
  9
$CMLSCALE
 40
1.0
  9
$PROXYGRAPHICS
 70
     1
  9
$MEASUREMENT
 70
     0
  9
$CELWEIGHT
370
    -1
  9
$ENDCAPS
280
     0
  9
$JOINSTYLE
280
     0
  9
$LWDISPLAY
290
     0
  9
$INSUNITS
 70
     0
  9
$HYPERLINKBASE
  1

  9
$STYLESHEET
  1
monochrome2.ctb
  9
$XEDIT
290
     1
  9
$CEPSNTYPE
380
     0
  9
$PSTYLEMODE
290
     1
  9
$FINGERPRINTGUID
  2
{B9A079D0-CE13-11D5-B0F0-00B0D0DA680F}
  9
$VERSIONGUID
  2
{43B22E87-51AC-45FB-A324-340D9282F9E2}
  9
$EXTNAMES
290
     1
  9
$PSVPSCALE
 40
0.0
  9
$OLESTARTUP
290
     0
  0
ENDSEC
  0
SECTION
  2
CLASSES
  0
CLASS
  1
DICTIONARYVAR
  2
AcDbDictionaryVar
  3
ObjectDBX Classes
 90
        0
280
     0
281
     0
  0
CLASS
  1
ACDBDICTIONARYWDFLT
  2
AcDbDictionaryWithDefault
  3
ObjectDBX Classes
 90
        0
280
     0
281
     0
  0
CLASS
  1
ACDBPLACEHOLDER
  2
AcDbPlaceHolder
  3
ObjectDBX Classes
 90
        0
280
     0
281
     0
  0
CLASS
  1
LAYOUT
  2
AcDbLayout
  3
ObjectDBX Classes
 90
        0
280
     0
281
     0
  0
CLASS
  1
MATERIAL
  2
AcDbMaterial
  3
ObjectDBX Classes
 90
     1153
280
     0
281
     0
  0
CLASS
  1
VISUALSTYLE
  2
AcDbVisualStyle
  3
ObjectDBX Classes
 90
     4095
280
     0
281
     0
  0
CLASS
  1
TABLESTYLE
  2
AcDbTableStyle
  3
ObjectDBX Classes
 90
     4095
280
     0
281
     0
  0
CLASS
  1
SCALE
  2
AcDbScale
  3
ObjectDBX Classes
 90
     1153
280
     0
281
     0
  0
CLASS
  1
MLEADERSTYLE
  2
AcDbMLeaderStyle
  3
ACDB_MLEADERSTYLE_CLASS
 90
     4095
280
     0
281
     0
  0
CLASS
  1
SORTENTSTABLE
  2
AcDbSortentsTable
  3
ObjectDBX Classes
 90
        0
280
     0
281
     0
  0
CLASS
  1
CELLSTYLEMAP
  2
AcDbCellStyleMap
  3
ObjectDBX Classes
 90
     1152
280
     0
281
     0
  0
CLASS
  1
EXACXREFPANELOBJECT
  2
ExAcXREFPanelObject
  3
EXAC_ESW
 90
     1025
280
     0
281
     0
  0
CLASS
  1
NPOCOLLECTION
  2
AcDbImpNonPersistentObjectsCollection
  3
ObjectDBX Classes
 90
     1153
280
     0
281
     0
  0
CLASS
  1
FIELD
  2
AcDbField
  3
ObjectDBX Classes
 90
    33920
280
     0
281
     0
  0
CLASS
  1
FIELDLIST
  2
AcDbFieldList
  3
ObjectDBX Classes
 90
     1152
280
     0
281
     0
  0
ENDSEC
  0
SECTION
  2
TABLES
  0
TABLE
  2
VPORT
  5
8
102
{ACAD_XDICTIONARY
360
10E8
102
}
330
0
100
AcDbSymbolTable
 70
     1
  0
VPORT
  5
1033
330
8
100
AcDbSymbolTableRecord
100
AcDbViewportTableRecord
  2
*Active
 70
     0
 10
0.0
 20
0.0
 11
1.0
 21
1.0
 12
72.64111108816237
 22
18.59521900358636
 13
0.0
 23
0.0
 14
1.0
 24
1.0
 15
0.0
 25
0.0
 16
0.0
 26
0.0
 36
1.0
 17
0.0
 27
0.0
 37
0.0
 40
49.45622097645467
 41
3.716019417475727
 42
50.0
 43
0.0
 44
0.0
 50
0.0
 51
0.0
 71
     0
 72
   100
 73
     1
 74
     0
 75
     0
 76
     0
 77
     0
 78
     0
281
     0
 65
     1
110
-9.822498266376307
120
-6.020862690213913
130
0.0
111
1.0
121
0.0
131
0.0
112
0.0
122
1.0
132
0.0
 79
     0
146
0.0
1001
ACAD_NAV_VCDISPLAY
1070
     3
  0
ENDTAB
  0
TABLE
  2
LTYPE
  5
5
330
0
100
AcDbSymbolTable
 70
     4
  0
LTYPE
  5
11
330
5
100
AcDbSymbolTableRecord
100
AcDbLinetypeTableRecord
  2
BYBLOCK
 70
     0
  3

 72
    65
 73
     0
 40
0.0
  0
LTYPE
  5
12
330
5
100
AcDbSymbolTableRecord
100
AcDbLinetypeTableRecord
  2
BYLAYER
 70
     0
  3

 72
    65
 73
     0
 40
0.0
  0
LTYPE
  5
13
330
5
100
AcDbSymbolTableRecord
100
AcDbLinetypeTableRecord
  2
CONTINUOUS
 70
     0
  3
Solid line
 72
    65
 73
     0
 40
0.0
  0
LTYPE
  5
FA3
330
5
100
AcDbSymbolTableRecord
100
AcDbLinetypeTableRecord
  2
HIDDEN
 70
     0
  3
Hidden __ __ __ __ __ __ __ __ __ __ __ __ __ _
 72
    65
 73
     2
 40
0.375
 49
0.25
 74
     0
 49
-0.125
 74
     0
  0
LTYPE
  5
2B39
330
5
100
AcDbSymbolTableRecord
100
AcDbLinetypeTableRecord
  2
DASHED
 70
     0
  3
Dashed __ __ __ __ __ __ __ __ __ __ __ __ __ _
 72
    65
 73
     2
 40
0.75
 49
0.5
 74
     0
 49
-0.25
 74
     0
  0
LTYPE
  5
2B3A
330
5
100
AcDbSymbolTableRecord
100
AcDbLinetypeTableRecord
  2
DOT
 70
     0
  3
Dot . . . . . . . . . . . . . . . . . . . . . .
 72
    65
 73
     2
 40
0.25
 49
0.0
 74
     0
 49
-0.25
 74
     0
  0
ENDTAB
  0
TABLE
  2
LAYER
  5
2
102
{ACAD_XDICTIONARY
360
10C4
102
}
330
0
100
AcDbSymbolTable
 70
     5
  0
LAYER
  5
E
102
{ACAD_XDICTIONARY
360
10DF
102
}
330
2
100
AcDbSymbolTableRecord
100
AcDbLayerTableRecord
  2
0
 70
     0
 62
     4
  6
CONTINUOUS
370
    -3
390
102C
  0
LAYER
  5
1E
102
{ACAD_XDICTIONARY
360
10E1
102
}
330
2
100
AcDbSymbolTableRecord
100
AcDbLayerTableRecord
  2
KCADSLABEL
 70
     0
 62
     3
  6
CONTINUOUS
370
    -3
390
102C
  0
LAYER
  5
1141
102
{ACAD_XDICTIONARY
360
1142
102
}
330
2
100
AcDbSymbolTableRecord
100
AcDbLayerTableRecord
  2
TEXT
 70
     0
 62
     3
  6
CONTINUOUS
370
    -3
390
102C
  0
LAYER
  5
125B
102
{ACAD_XDICTIONARY
360
125C
102
}
330
2
100
AcDbSymbolTableRecord
100
AcDbLayerTableRecord
  2
KCADSMISC
 70
     0
 62
     1
  6
CONTINUOUS
370
    -3
390
102C
  0
LAYER
  5
2B3B
330
2
100
AcDbSymbolTableRecord
100
AcDbLayerTableRecord
  2
Kawneer Logo-English
 70
     0
 62
     7
  6
CONTINUOUS
370
    -3
390
102C
1001
AcAecLayerStandard
1000

1000

1001
AcCmTransparency
1071
        0
  0
ENDTAB
  0
TABLE
  2
STYLE
  5
3
330
0
100
AcDbSymbolTable
 70
     1
  0
STYLE
  5
F
330
3
100
AcDbSymbolTableRecord
100
AcDbTextStyleTableRecord
  2
STANDARD
 70
     0
 40
0.125
 41
1.0
 50
0.0
 71
     0
 42
0.1875
  3
arial.ttf
  4

1001
ACAD
1000
Arial
1071
       34
  0
ENDTAB
  0
TABLE
  2
VIEW
  5
6
330
0
100
AcDbSymbolTable
 70
     0
  0
ENDTAB
  0
TABLE
  2
UCS
  5
7
330
0
100
AcDbSymbolTable
 70
     0
  0
ENDTAB
  0
TABLE
  2
APPID
  5
9
330
0
100
AcDbSymbolTable
 70
    15
  0
APPID
  5
10
330
9
100
AcDbSymbolTableRecord
100
AcDbRegAppTableRecord
  2
ACAD
 70
     0
  0
APPID
  5
1145
330
9
100
AcDbSymbolTableRecord
100
AcDbRegAppTableRecord
  2
ACAD_NAV_VCDISPLAY
 70
     0
  0
APPID
  5
2B3C
330
9
100
AcDbSymbolTableRecord
100
AcDbRegAppTableRecord
  2
ACAD_EXEMPT_FROM_CAD_STANDARDS
 70
     0
  0
APPID
  5
2B3D
330
9
100
AcDbSymbolTableRecord
100
AcDbRegAppTableRecord
  2
GradientColor1ACI
 70
     0
  0
APPID
  5
2B3E
330
9
100
AcDbSymbolTableRecord
100
AcDbRegAppTableRecord
  2
GradientColor2ACI
 70
     0
  0
APPID
  5
2B3F
330
9
100
AcDbSymbolTableRecord
100
AcDbRegAppTableRecord
  2
ACAD_MLEADERVER
 70
     0
  0
APPID
  5
2B40
330
9
100
AcDbSymbolTableRecord
100
AcDbRegAppTableRecord
  2
ACAD_PSEXT
 70
     0
  0
APPID
  5
2B41
330
9
100
AcDbSymbolTableRecord
100
AcDbRegAppTableRecord
  2
ACAD_DSTYLE_DIMJAG
 70
     0
  0
APPID
  5
2B42
330
9
100
AcDbSymbolTableRecord
100
AcDbRegAppTableRecord
  2
ACAD_DSTYLE_DIMTALN
 70
     0
  0
APPID
  5
2B43
330
9
100
AcDbSymbolTableRecord
100
AcDbRegAppTableRecord
  2
ACAD_DSTYLE_DIMBREAK
 70
     0
  0
APPID
  5
2B44
330
9
100
AcDbSymbolTableRecord
100
AcDbRegAppTableRecord
  2
AcDbDynamicBlockGUID
 70
     0
  0
APPID
  5
2B45
330
9
100
AcDbSymbolTableRecord
100
AcDbRegAppTableRecord
  2
ACAUTHENVIRON
 70
     0
  0
APPID
  5
2B46
330
9
100
AcDbSymbolTableRecord
100
AcDbRegAppTableRecord
  2
AcDbDynamicBlockTrueName
 70
     0
  0
APPID
  5
2B47
330
9
100
AcDbSymbolTableRecord
100
AcDbRegAppTableRecord
  2
AcAecLayerStandard
 70
     0
  0
APPID
  5
2B48
330
9
100
AcDbSymbolTableRecord
100
AcDbRegAppTableRecord
  2
AcCmTransparency
 70
     0
  0
ENDTAB
  0
TABLE
  2
DIMSTYLE
  5
A
330
0
100
AcDbSymbolTable
 70
     1
100
AcDbDimStyleTable
 71
     1
340
138
  0
DIMSTYLE
105
138
330
A
100
AcDbSymbolTableRecord
100
AcDbDimStyleTableRecord
  2
STANDARD
 70
     0
340
F
  0
ENDTAB
  0
TABLE
  2
BLOCK_RECORD
  5
1
330
0
100
AcDbSymbolTable
 70
     5
  0
BLOCK_RECORD
  5
17
102
{ACAD_XDICTIONARY
360
1059
102
}
330
1
100
AcDbSymbolTableRecord
100
AcDbBlockTableRecord
  2
*MODEL_SPACE
340
102F
  0
BLOCK_RECORD
  5
14
102
{ACAD_XDICTIONARY
360
1057
102
}
330
1
100
AcDbSymbolTableRecord
100
AcDbBlockTableRecord
  2
*PAPER_SPACE
340
1030
  0
BLOCK_RECORD
  5
1F5D
330
1
100
AcDbSymbolTableRecord
100
AcDbBlockTableRecord
  2
*X0
340
0
102
{BLKREFS
331
203E
102
}
  0
BLOCK_RECORD
  5
1F86
330
1
100
AcDbSymbolTableRecord
100
AcDbBlockTableRecord
  2
*X1
340
0
102
{BLKREFS
331
2055
102
}
  0
BLOCK_RECORD
  5
2164
330
1
100
AcDbSymbolTableRecord
100
AcDbBlockTableRecord
  2
*X2
340
0
102
{BLKREFS
331
223B
102
}
  0
BLOCK_RECORD
  5
248D
330
1
100
AcDbSymbolTableRecord
100
AcDbBlockTableRecord
  2
*X3
340
0
102
{BLKREFS
331
250A
102
}
  0
BLOCK_RECORD
  5
2B4B
102
{ACAD_XDICTIONARY
360
2B55
102
}
330
1
100
AcDbSymbolTableRecord
100
AcDbBlockTableRecord
  2
Kawneer Logo English
340
0
102
{BLKREFS
331
2B59
102
}
1001
ACAD
1000
DesignCenter Data
1002
{
1070
     1
1070
     1
1002
}
  0
ENDTAB
  0
ENDSEC
  0
SECTION
  2
BLOCKS
  0
BLOCK
  5
22
330
17
100
AcDbEntity
  8
0
100
AcDbBlockBegin
  2
*MODEL_SPACE
 70
     0
 10
0.0
 20
0.0
 30
0.0
  3
*MODEL_SPACE
  1

  0
ENDBLK
  5
23
330
17
100
AcDbEntity
  8
0
100
AcDbBlockEnd
  0
BLOCK
  5
20
330
14
100
AcDbEntity
 67
     1
  8
0
100
AcDbBlockBegin
  2
*PAPER_SPACE
 70
     0
 10
0.0
 20
0.0
 30
0.0
  3
*PAPER_SPACE
  1

  0
ENDBLK
  5
21
330
14
100
AcDbEntity
 67
     1
  8
0
100
AcDbBlockEnd
  0
BLOCK
  5
1F5E
330
1F5D
100
AcDbEntity
  8
0
100
AcDbBlockBegin
  2
*X0
 70
     1
 10
0.0
 20
0.0
 30
0.0
  3
*X0
  1

  0
LINE
  5
1F5F
330
1F5D
100
AcDbEntity
  8
0
 62
     0
100
AcDbLine
 10
4.76182639489219
 20
6.904712496808165
 30
0.0
 11
4.77496670688805
 21
6.953752808804026
 31
0.0
  0
LINE
  5
1F60
330
1F5D
100
AcDbEntity
  8
0
 62
     0
100
AcDbLine
 10
4.532186731506265
 20
6.772129975335683
 30
0.0
 11
4.545327043502125
 21
6.821170287331543
 31
0.0
  0
LINE
  5
1F61
330
1F5D
100
AcDbEntity
  8
0
 62
     0
100
AcDbLine
 10
4.302547068120341
 20
6.639547453863202
 30
0.0
 11
4.315687380116202
 21
6.688587765859062
 31
0.0
  0
LINE
  5
1F62
330
1F5D
100
AcDbEntity
  8
0
 62
     0
100
AcDbLine
 10
4.072907404734417
 20
6.506964932390721
 30
0.0
 11
4.086047716730278
 21
6.556005244386581
 31
0.0
  0
LINE
  5
1F63
330
1F5D
100
AcDbEntity
  8
0
 62
     0
100
AcDbLine
 10
3.843267741348493
 20
6.374382410918239
 30
0.0
 11
3.856408053344353
 21
6.423422722914099
 31
0.0
  0
LINE
  5
1F64
330
1F5D
100
AcDbEntity
  8
0
 62
     0
100
AcDbLine
 10
3.613628077962569
 20
6.241799889445758
 30
0.0
 11
3.62676838995843
 21
6.290840201441618
 31
0.0
  0
LINE
  5
1F65
330
1F5D
100
AcDbEntity
  8
0
 62
     0
100
AcDbLine
 10
3.383988414576645
 20
6.109217367973276
 30
0.0
 11
3.397128726572506
 21
6.158257679969135
 31
0.0
  0
LINE
  5
1F66
330
1F5D
100
AcDbEntity
  8
0
 62
     0
100
AcDbLine
 10
4.991466058278113
 20
7.037295018280646
 30
0.0
 11
5.004606370273974
 21
7.086335330276507
 31
0.0
  0
LINE
  5
1F67
330
1F5D
100
AcDbEntity
  8
0
 62
     0
100
AcDbLine
 10
5.221105721664037
 20
7.169877539753128
 30
0.0
 11
5.234246033659898
 21
7.218917851748988
 31
0.0
  0
LINE
  5
1F68
330
1F5D
100
AcDbEntity
  8
0
 62
     0
100
AcDbLine
 10
5.450745385049962
 20
7.302460061225609
 30
0.0
 11
5.463885697045823
 21
7.35150037322147
 31
0.0
  0
LINE
  5
1F69
330
1F5D
100
AcDbEntity
  8
0
 62
     0
100
AcDbLine
 10
5.680385048435885
 20
7.43504258269809
 30
0.0
 11
5.693525360431746
 21
7.484082894693951
 31
0.0
  0
LINE
  5
1F6A
330
1F5D
100
AcDbEntity
  8
0
 62
     0
100
AcDbLine
 10
5.910024711821809
 20
7.567625104170572
 30
0.0
 11
5.92316502381767
 21
7.616665416166433
 31
0.0
  0
LINE
  5
1F6B
330
1F5D
100
AcDbEntity
  8
0
 62
     0
100
AcDbLine
 10
6.139664375207734
 20
7.700207625643053
 30
0.0
 11
6.152804687203595
 21
7.749247937638914
 31
0.0
  0
LINE
  5
1F6C
330
1F5D
100
AcDbEntity
  8
0
 62
     0
100
AcDbLine
 10
6.369304038593656
 20
7.832790147115535
 30
0.0
 11
6.382444350589518
 21
7.881830459111395
 31
0.0
  0
LINE
  5
1F6D
330
1F5D
100
AcDbEntity
  8
0
 62
     0
100
AcDbLine
 10
6.598943701979581
 20
7.965372668588016
 30
0.0
 11
6.612084013975442
 21
8.014412980583877
 31
0.0
  0
LINE
  5
1F6E
330
1F5D
100
AcDbEntity
  8
0
 62
     0
100
AcDbLine
 10
6.91495151257318
 20
9.144729873311932
 30
0.0
 11
6.925710418239198
 21
9.184882655891351
 31
0.0
  0
LINE
  5
1F6F
330
1F5D
100
AcDbEntity
  8
0
 62
     0
100
AcDbLine
 10
6.828583365365505
 20
8.097955190060497
 30
0.0
 11
6.841723677361366
 21
8.146995502056359
 31
0.0
  0
LINE
  5
1F70
330
1F5D
100
AcDbEntity
  8
0
 62
     0
100
AcDbLine
 10
6.965088912183555
 20
8.60740082630043
 30
0.0
 11
7.001088912183556
 21
8.741754655372917
 31
0.0
  0
LINE
  5
1F71
330
1F5D
100
AcDbEntity
  8
0
 62
     0
100
AcDbLine
 10
4.838372949225717
 20
6.948906670558166
 30
0.0
 11
4.851513261221577
 21
6.997946982554027
 31
0.0
  0
LINE
  5
1F72
330
1F5D
100
AcDbEntity
  8
0
 62
     0
100
AcDbLine
 10
4.608733285839792
 20
6.816324149085684
 30
0.0
 11
4.621873597835653
 21
6.865364461081545
 31
0.0
  0
LINE
  5
1F73
330
1F5D
100
AcDbEntity
  8
0
 62
     0
100
AcDbLine
 10
4.379093622453868
 20
6.683741627613203
 30
0.0
 11
4.392233934449729
 21
6.732781939609063
 31
0.0
  0
LINE
  5
1F74
330
1F5D
100
AcDbEntity
  8
0
 62
     0
100
AcDbLine
 10
4.149453959067944
 20
6.551159106140722
 30
0.0
 11
4.162594271063805
 21
6.600199418136582
 31
0.0
  0
LINE
  5
1F75
330
1F5D
100
AcDbEntity
  8
0
 62
     0
100
AcDbLine
 10
3.91981429568202
 20
6.41857658466824
 30
0.0
 11
3.93295460767788
 21
6.4676168966641
 31
0.0
  0
LINE
  5
1F76
330
1F5D
100
AcDbEntity
  8
0
 62
     0
100
AcDbLine
 10
3.690174632296096
 20
6.285994063195759
 30
0.0
 11
3.703314944291957
 21
6.335034375191619
 31
0.0
  0
LINE
  5
1F77
330
1F5D
100
AcDbEntity
  8
0
 62
     0
100
AcDbLine
 10
3.460534968910172
 20
6.153411541723277
 30
0.0
 11
3.473675280906033
 21
6.202451853719137
 31
0.0
  0
LINE
  5
1F78
330
1F5D
100
AcDbEntity
  8
0
 62
     0
100
AcDbLine
 10
3.230895305524248
 20
6.020829020250796
 30
0.0
 11
3.244035617520109
 21
6.069869332246655
 31
0.0
  0
LINE
  5
1F79
330
1F5D
100
AcDbEntity
  8
0
 62
     0
100
AcDbLine
 10
5.06801261261164
 20
7.081489192030647
 30
0.0
 11
5.081152924607502
 21
7.130529504026508
 31
0.0
  0
LINE
  5
1F7A
330
1F5D
100
AcDbEntity
  8
0
 62
     0
100
AcDbLine
 10
5.297652275997564
 20
7.214071713503129
 30
0.0
 11
5.310792587993425
 21
7.26311202549899
 31
0.0
  0
LINE
  5
1F7B
330
1F5D
100
AcDbEntity
  8
0
 62
     0
100
AcDbLine
 10
5.527291939383489
 20
7.34665423497561
 30
0.0
 11
5.54043225137935
 21
7.395694546971471
 31
0.0
  0
LINE
  5
1F7C
330
1F5D
100
AcDbEntity
  8
0
 62
     0
100
AcDbLine
 10
5.756931602769412
 20
7.479236756448091
 30
0.0
 11
5.770071914765273
 21
7.528277068443952
 31
0.0
  0
LINE
  5
1F7D
330
1F5D
100
AcDbEntity
  8
0
 62
     0
100
AcDbLine
 10
5.986571266155336
 20
7.611819277920573
 30
0.0
 11
5.999711578151197
 21
7.660859589916434
 31
0.0
  0
LINE
  5
1F7E
330
1F5D
100
AcDbEntity
  8
0
 62
     0
100
AcDbLine
 10
6.216210929541261
 20
7.744401799393054
 30
0.0
 11
6.229351241537122
 21
7.793442111388916
 31
0.0
  0
LINE
  5
1F7F
330
1F5D
100
AcDbEntity
  8
0
 62
     0
100
AcDbLine
 10
6.445850592927183
 20
7.876984320865536
 30
0.0
 11
6.458990904923045
 21
7.926024632861397
 31
0.0
  0
LINE
  5
1F80
330
1F5D
100
AcDbEntity
  8
0
 62
     0
100
AcDbLine
 10
6.812889439871582
 20
9.24679194601353
 30
0.0
 11
6.8236483455376
 21
9.286944728592946
 31
0.0
  0
LINE
  5
1F81
330
1F5D
100
AcDbEntity
  8
0
 62
     0
100
AcDbLine
 10
6.675490256313108
 20
8.009566842338017
 30
0.0
 11
6.688630568308969
 21
8.058607154333879
 31
0.0
  0
LINE
  5
1F82
330
1F5D
100
AcDbEntity
  8
0
 62
     0
100
AcDbLine
 10
6.965088912183555
 20
9.090363739850179
 30
0.0
 11
6.976741454461549
 21
9.133851619669
 31
0.0
  0
LINE
  5
1F83
330
1F5D
100
AcDbEntity
  8
0
 62
     0
100
AcDbLine
 10
6.905129919699032
 20
8.142149363810498
 30
0.0
 11
6.918270231694893
 21
8.191189675806359
 31
0.0
  0
LINE
  5
1F84
330
1F5D
100
AcDbEntity
  8
0
 62
     0
100
AcDbLine
 10
6.965088912183555
 20
8.365919370133378
 30
0.0
 11
7.001088912183556
 21
8.500273199205862
 31
0.0
  0
ENDBLK
  5
1F85
330
1F5D
100
AcDbEntity
  8
0
100
AcDbBlockEnd
  0
BLOCK
  5
1F87
330
1F86
100
AcDbEntity
  8
0
100
AcDbBlockBegin
  2
*X1
 70
     1
 10
0.0
 20
0.0
 30
0.0
  3
*X1
  1

  0
LINE
  5
1F88
330
1F86
100
AcDbEntity
  8
0
 62
     0
100
AcDbLine
 10
4.76182639489219
 20
6.904712496808165
 30
0.0
 11
4.77496670688805
 21
6.953752808804026
 31
0.0
  0
LINE
  5
1F89
330
1F86
100
AcDbEntity
  8
0
 62
     0
100
AcDbLine
 10
4.532186731506265
 20
6.772129975335683
 30
0.0
 11
4.545327043502125
 21
6.821170287331543
 31
0.0
  0
LINE
  5
1F8A
330
1F86
100
AcDbEntity
  8
0
 62
     0
100
AcDbLine
 10
4.302547068120341
 20
6.639547453863202
 30
0.0
 11
4.315687380116202
 21
6.688587765859062
 31
0.0
  0
LINE
  5
1F8B
330
1F86
100
AcDbEntity
  8
0
 62
     0
100
AcDbLine
 10
4.072907404734417
 20
6.506964932390721
 30
0.0
 11
4.086047716730278
 21
6.556005244386581
 31
0.0
  0
LINE
  5
1F8C
330
1F86
100
AcDbEntity
  8
0
 62
     0
100
AcDbLine
 10
3.843267741348493
 20
6.374382410918239
 30
0.0
 11
3.856408053344353
 21
6.423422722914099
 31
0.0
  0
LINE
  5
1F8D
330
1F86
100
AcDbEntity
  8
0
 62
     0
100
AcDbLine
 10
3.613628077962569
 20
6.241799889445758
 30
0.0
 11
3.62676838995843
 21
6.290840201441618
 31
0.0
  0
LINE
  5
1F8E
330
1F86
100
AcDbEntity
  8
0
 62
     0
100
AcDbLine
 10
3.383988414576645
 20
6.109217367973276
 30
0.0
 11
3.397128726572506
 21
6.158257679969135
 31
0.0
  0
LINE
  5
1F8F
330
1F86
100
AcDbEntity
  8
0
 62
     0
100
AcDbLine
 10
4.991466058278113
 20
7.037295018280646
 30
0.0
 11
5.004606370273974
 21
7.086335330276507
 31
0.0
  0
LINE
  5
1F90
330
1F86
100
AcDbEntity
  8
0
 62
     0
100
AcDbLine
 10
5.221105721664037
 20
7.169877539753128
 30
0.0
 11
5.234246033659898
 21
7.218917851748988
 31
0.0
  0
LINE
  5
1F91
330
1F86
100
AcDbEntity
  8
0
 62
     0
100
AcDbLine
 10
5.450745385049962
 20
7.302460061225609
 30
0.0
 11
5.463885697045823
 21
7.35150037322147
 31
0.0
  0
LINE
  5
1F92
330
1F86
100
AcDbEntity
  8
0
 62
     0
100
AcDbLine
 10
5.680385048435885
 20
7.43504258269809
 30
0.0
 11
5.693525360431746
 21
7.484082894693951
 31
0.0
  0
LINE
  5
1F93
330
1F86
100
AcDbEntity
  8
0
 62
     0
100
AcDbLine
 10
5.910024711821809
 20
7.567625104170572
 30
0.0
 11
5.92316502381767
 21
7.616665416166433
 31
0.0
  0
LINE
  5
1F94
330
1F86
100
AcDbEntity
  8
0
 62
     0
100
AcDbLine
 10
6.139664375207734
 20
7.700207625643053
 30
0.0
 11
6.152804687203595
 21
7.749247937638914
 31
0.0
  0
LINE
  5
1F95
330
1F86
100
AcDbEntity
  8
0
 62
     0
100
AcDbLine
 10
6.369304038593656
 20
7.832790147115535
 30
0.0
 11
6.382444350589518
 21
7.881830459111395
 31
0.0
  0
LINE
  5
1F96
330
1F86
100
AcDbEntity
  8
0
 62
     0
100
AcDbLine
 10
6.598943701979581
 20
7.965372668588016
 30
0.0
 11
6.612084013975442
 21
8.014412980583877
 31
0.0
  0
LINE
  5
1F97
330
1F86
100
AcDbEntity
  8
0
 62
     0
100
AcDbLine
 10
6.91495151257318
 20
9.144729873311932
 30
0.0
 11
6.925710418239198
 21
9.184882655891351
 31
0.0
  0
LINE
  5
1F98
330
1F86
100
AcDbEntity
  8
0
 62
     0
100
AcDbLine
 10
6.828583365365505
 20
8.097955190060497
 30
0.0
 11
6.841723677361366
 21
8.146995502056359
 31
0.0
  0
LINE
  5
1F99
330
1F86
100
AcDbEntity
  8
0
 62
     0
100
AcDbLine
 10
6.965088912183555
 20
8.60740082630043
 30
0.0
 11
7.001088912183556
 21
8.741754655372917
 31
0.0
  0
LINE
  5
1F9A
330
1F86
100
AcDbEntity
  8
0
 62
     0
100
AcDbLine
 10
4.838372949225717
 20
6.948906670558166
 30
0.0
 11
4.851513261221577
 21
6.997946982554027
 31
0.0
  0
LINE
  5
1F9B
330
1F86
100
AcDbEntity
  8
0
 62
     0
100
AcDbLine
 10
4.608733285839792
 20
6.816324149085684
 30
0.0
 11
4.621873597835653
 21
6.865364461081545
 31
0.0
  0
LINE
  5
1F9C
330
1F86
100
AcDbEntity
  8
0
 62
     0
100
AcDbLine
 10
4.379093622453868
 20
6.683741627613203
 30
0.0
 11
4.392233934449729
 21
6.732781939609063
 31
0.0
  0
LINE
  5
1F9D
330
1F86
100
AcDbEntity
  8
0
 62
     0
100
AcDbLine
 10
4.149453959067944
 20
6.551159106140722
 30
0.0
 11
4.162594271063805
 21
6.600199418136582
 31
0.0
  0
LINE
  5
1F9E
330
1F86
100
AcDbEntity
  8
0
 62
     0
100
AcDbLine
 10
3.91981429568202
 20
6.41857658466824
 30
0.0
 11
3.93295460767788
 21
6.4676168966641
 31
0.0
  0
LINE
  5
1F9F
330
1F86
100
AcDbEntity
  8
0
 62
     0
100
AcDbLine
 10
3.690174632296096
 20
6.285994063195759
 30
0.0
 11
3.703314944291957
 21
6.335034375191619
 31
0.0
  0
LINE
  5
1FA0
330
1F86
100
AcDbEntity
  8
0
 62
     0
100
AcDbLine
 10
3.460534968910172
 20
6.153411541723277
 30
0.0
 11
3.473675280906033
 21
6.202451853719137
 31
0.0
  0
LINE
  5
1FA1
330
1F86
100
AcDbEntity
  8
0
 62
     0
100
AcDbLine
 10
3.230895305524248
 20
6.020829020250796
 30
0.0
 11
3.244035617520109
 21
6.069869332246655
 31
0.0
  0
LINE
  5
1FA2
330
1F86
100
AcDbEntity
  8
0
 62
     0
100
AcDbLine
 10
5.06801261261164
 20
7.081489192030647
 30
0.0
 11
5.081152924607502
 21
7.130529504026508
 31
0.0
  0
LINE
  5
1FA3
330
1F86
100
AcDbEntity
  8
0
 62
     0
100
AcDbLine
 10
5.297652275997564
 20
7.214071713503129
 30
0.0
 11
5.310792587993425
 21
7.26311202549899
 31
0.0
  0
LINE
  5
1FA4
330
1F86
100
AcDbEntity
  8
0
 62
     0
100
AcDbLine
 10
5.527291939383489
 20
7.34665423497561
 30
0.0
 11
5.54043225137935
 21
7.395694546971471
 31
0.0
  0
LINE
  5
1FA5
330
1F86
100
AcDbEntity
  8
0
 62
     0
100
AcDbLine
 10
5.756931602769412
 20
7.479236756448091
 30
0.0
 11
5.770071914765273
 21
7.528277068443952
 31
0.0
  0
LINE
  5
1FA6
330
1F86
100
AcDbEntity
  8
0
 62
     0
100
AcDbLine
 10
5.986571266155336
 20
7.611819277920573
 30
0.0
 11
5.999711578151197
 21
7.660859589916434
 31
0.0
  0
LINE
  5
1FA7
330
1F86
100
AcDbEntity
  8
0
 62
     0
100
AcDbLine
 10
6.216210929541261
 20
7.744401799393054
 30
0.0
 11
6.229351241537122
 21
7.793442111388916
 31
0.0
  0
LINE
  5
1FA8
330
1F86
100
AcDbEntity
  8
0
 62
     0
100
AcDbLine
 10
6.445850592927183
 20
7.876984320865536
 30
0.0
 11
6.458990904923045
 21
7.926024632861397
 31
0.0
  0
LINE
  5
1FA9
330
1F86
100
AcDbEntity
  8
0
 62
     0
100
AcDbLine
 10
6.812889439871582
 20
9.24679194601353
 30
0.0
 11
6.8236483455376
 21
9.286944728592946
 31
0.0
  0
LINE
  5
1FAA
330
1F86
100
AcDbEntity
  8
0
 62
     0
100
AcDbLine
 10
6.675490256313108
 20
8.009566842338017
 30
0.0
 11
6.688630568308969
 21
8.058607154333879
 31
0.0
  0
LINE
  5
1FAB
330
1F86
100
AcDbEntity
  8
0
 62
     0
100
AcDbLine
 10
6.965088912183555
 20
9.090363739850179
 30
0.0
 11
6.976741454461549
 21
9.133851619669
 31
0.0
  0
LINE
  5
1FAC
330
1F86
100
AcDbEntity
  8
0
 62
     0
100
AcDbLine
 10
6.905129919699032
 20
8.142149363810498
 30
0.0
 11
6.918270231694893
 21
8.191189675806359
 31
0.0
  0
LINE
  5
1FAD
330
1F86
100
AcDbEntity
  8
0
 62
     0
100
AcDbLine
 10
6.965088912183555
 20
8.365919370133378
 30
0.0
 11
7.001088912183556
 21
8.500273199205862
 31
0.0
  0
ENDBLK
  5
1FAE
330
1F86
100
AcDbEntity
  8
0
100
AcDbBlockEnd
  0
BLOCK
  5
2165
330
2164
100
AcDbEntity
  8
0
100
AcDbBlockBegin
  2
*X2
 70
     1
 10
0.0
 20
0.0
 30
0.0
  3
*X2
  1

  0
LINE
  5
2166
330
2164
100
AcDbEntity
  8
0
 62
     0
100
AcDbLine
 10
2.085401984442803
 20
3.676392242112535
 30
0.0
 11
2.121301984442804
 21
3.712292242112536
 31
0.0
  0
LINE
  5
2167
330
2164
100
AcDbEntity
  8
0
 62
     0
100
AcDbLine
 10
2.085401984442803
 20
3.94155728505749
 30
0.0
 11
2.121301984442804
 21
3.977457285057491
 31
0.0
  0
LINE
  5
2168
330
2164
100
AcDbEntity
  8
0
 62
     0
100
AcDbLine
 10
2.085401984442802
 20
4.206722328002444
 30
0.0
 11
2.121301984442804
 21
4.242622328002446
 31
0.0
  0
LINE
  5
2169
330
2164
100
AcDbEntity
  8
0
 62
     0
100
AcDbLine
 10
2.511691826408285
 20
4.633012169967927
 30
0.0
 11
2.620973858711061
 21
4.742294202270703
 31
0.0
  0
LINE
  5
216A
330
2164
100
AcDbEntity
  8
0
 62
     0
100
AcDbLine
 10
2.085401984442803
 20
3.588003894612535
 30
0.0
 11
2.121301984442805
 21
3.623903894612536
 31
0.0
  0
LINE
  5
216B
330
2164
100
AcDbEntity
  8
0
 62
     0
100
AcDbLine
 10
2.085401984442803
 20
3.85316893755749
 30
0.0
 11
2.121301984442804
 21
3.889068937557491
 31
0.0
  0
LINE
  5
216C
330
2164
100
AcDbEntity
  8
0
 62
     0
100
AcDbLine
 10
2.085401984442802
 20
4.118333980502445
 30
0.0
 11
2.121301984442804
 21
4.154233980502445
 31
0.0
  0
LINE
  5
216D
330
2164
100
AcDbEntity
  8
0
 62
     0
100
AcDbLine
 10
2.720820901991811
 20
4.753752898051454
 30
0.0
 11
2.830102934294588
 21
4.863034930354229
 31
0.0
  0
LINE
  5
216E
330
2164
100
AcDbEntity
  8
0
 62
     0
100
AcDbLine
 10
2.085401984442802
 20
4.3834990234474
 30
0.0
 11
2.202715706491232
 21
4.500812745495829
 31
0.0
  0
ENDBLK
  5
216F
330
2164
100
AcDbEntity
  8
0
100
AcDbBlockEnd
  0
BLOCK
  5
248E
330
248D
100
AcDbEntity
  8
0
100
AcDbBlockBegin
  2
*X3
 70
     1
 10
0.0
 20
0.0
 30
0.0
  3
*X3
  1

  0
LINE
  5
248F
330
248D
100
AcDbEntity
  8
0
 62
     0
100
AcDbLine
 10
0.6073221143946983
 20
4.584797758569027
 30
0.0
 11
0.6433221143946989
 21
4.620797758569028
 31
0.0
  0
LINE
  5
2490
330
248D
100
AcDbEntity
  8
0
 62
     0
100
AcDbLine
 10
0.3715144007570631
 20
4.614155087876348
 30
0.0
 11
0.4068962453397292
 21
4.649536932459013
 31
0.0
  0
LINE
  5
2491
330
248D
100
AcDbEntity
  8
0
 62
     0
100
AcDbLine
 10
0.3708962453397291
 20
4.878701975403968
 30
0.0
 11
0.4068962453397292
 21
4.914701975403969
 31
0.0
  0
LINE
  5
2492
330
248D
100
AcDbEntity
  8
0
 62
     0
100
AcDbLine
 10
0.3708962453397291
 20
5.143867018348924
 30
0.0
 11
0.4068962453397292
 21
5.179867018348923
 31
0.0
  0
LINE
  5
2493
330
248D
100
AcDbEntity
  8
0
 62
     0
100
AcDbLine
 10
0.3708962453397291
 20
5.409032061293879
 30
0.0
 11
0.4068962453397293
 21
5.445032061293879
 31
0.0
  0
LINE
  5
2494
330
248D
100
AcDbEntity
  8
0
 62
     0
100
AcDbLine
 10
0.3708962453397291
 20
5.674197104238834
 30
0.0
 11
0.4068962453397293
 21
5.710197104238835
 31
0.0
  0
LINE
  5
2495
330
248D
100
AcDbEntity
  8
0
 62
     0
100
AcDbLine
 10
0.3708962453397291
 20
5.939362147183789
 30
0.0
 11
0.4068962453397293
 21
5.97536214718379
 31
0.0
  0
LINE
  5
2496
330
248D
100
AcDbEntity
  8
0
 62
     0
100
AcDbLine
 10
0.3708962453397291
 20
6.204527190128745
 30
0.0
 11
0.4068962453397293
 21
6.240527190128745
 31
0.0
  0
LINE
  5
2497
330
248D
100
AcDbEntity
  8
0
 62
     0
100
AcDbLine
 10
0.3708962453397292
 20
6.469692233073701
 30
0.0
 11
0.4068962453397293
 21
6.5056922330737
 31
0.0
  0
LINE
  5
2498
330
248D
100
AcDbEntity
  8
0
 62
     0
100
AcDbLine
 10
0.3708962453397292
 20
6.734857276018655
 30
0.0
 11
0.572643181911552
 21
6.936604212590478
 31
0.0
  0
LINE
  5
2499
330
248D
100
AcDbEntity
  8
0
 62
     0
100
AcDbLine
 10
0.8724871573396537
 20
4.584797758569028
 30
0.0
 11
0.9084871573396542
 21
4.620797758569028
 31
0.0
  0
LINE
  5
249A
330
248D
100
AcDbEntity
  8
0
 62
     0
100
AcDbLine
 10
1.137652200284609
 20
4.584797758569028
 30
0.0
 11
1.173652200284609
 21
4.620797758569028
 31
0.0
  0
LINE
  5
249B
330
248D
100
AcDbEntity
  8
0
 62
     0
100
AcDbLine
 10
1.402817243229564
 20
4.584797758569028
 30
0.0
 11
1.438817243229564
 21
4.620797758569028
 31
0.0
  0
LINE
  5
249C
330
248D
100
AcDbEntity
  8
0
 62
     0
100
AcDbLine
 10
1.667982286174519
 20
4.584797758569028
 30
0.0
 11
1.70398228617452
 21
4.620797758569028
 31
0.0
  0
LINE
  5
249D
330
248D
100
AcDbEntity
  8
0
 62
     0
100
AcDbLine
 10
1.933147329119475
 20
4.584797758569028
 30
0.0
 11
1.969147329119475
 21
4.620797758569028
 31
0.0
  0
LINE
  5
249E
330
248D
100
AcDbEntity
  8
0
 62
     0
100
AcDbLine
 10
2.19831237206443
 20
4.584797758569028
 30
0.0
 11
2.23431237206443
 21
4.620797758569028
 31
0.0
  0
LINE
  5
249F
330
248D
100
AcDbEntity
  8
0
 62
     0
100
AcDbLine
 10
2.463477415009386
 20
4.584797758569028
 30
0.0
 11
2.499477415009386
 21
4.620797758569028
 31
0.0
  0
LINE
  5
24A0
330
248D
100
AcDbEntity
  8
0
 62
     0
100
AcDbLine
 10
2.728642457954341
 20
4.584797758569028
 30
0.0
 11
2.73926913286138
 21
4.595424433476066
 31
0.0
  0
LINE
  5
24A1
330
248D
100
AcDbEntity
  8
0
 62
     0
100
AcDbLine
 10
0.430545418949743
 20
4.584797758569027
 30
0.0
 11
0.4665454189497435
 21
4.620797758569028
 31
0.0
  0
LINE
  5
24A2
330
248D
100
AcDbEntity
  8
0
 62
     0
100
AcDbLine
 10
0.3708962453397291
 20
4.790313627903969
 30
0.0
 11
0.4068962453397292
 21
4.826313627903968
 31
0.0
  0
LINE
  5
24A3
330
248D
100
AcDbEntity
  8
0
 62
     0
100
AcDbLine
 10
0.3708962453397291
 20
5.055478670848923
 30
0.0
 11
0.4068962453397292
 21
5.091478670848924
 31
0.0
  0
LINE
  5
24A4
330
248D
100
AcDbEntity
  8
0
 62
     0
100
AcDbLine
 10
0.3708962453397291
 20
5.320643713793879
 30
0.0
 11
0.4068962453397293
 21
5.35664371379388
 31
0.0
  0
LINE
  5
24A5
330
248D
100
AcDbEntity
  8
0
 62
     0
100
AcDbLine
 10
0.3708962453397291
 20
5.585808756738834
 30
0.0
 11
0.4068962453397293
 21
5.621808756738834
 31
0.0
  0
LINE
  5
24A6
330
248D
100
AcDbEntity
  8
0
 62
     0
100
AcDbLine
 10
0.3708962453397291
 20
5.85097379968379
 30
0.0
 11
0.4068962453397293
 21
5.88697379968379
 31
0.0
  0
LINE
  5
24A7
330
248D
100
AcDbEntity
  8
0
 62
     0
100
AcDbLine
 10
0.3708962453397291
 20
6.116138842628745
 30
0.0
 11
0.4068962453397293
 21
6.152138842628745
 31
0.0
  0
LINE
  5
24A8
330
248D
100
AcDbEntity
  8
0
 62
     0
100
AcDbLine
 10
0.3708962453397292
 20
6.3813038855737
 30
0.0
 11
0.4068962453397293
 21
6.417303885573701
 31
0.0
  0
LINE
  5
24A9
330
248D
100
AcDbEntity
  8
0
 62
     0
100
AcDbLine
 10
0.3708962453397292
 20
6.646468928518656
 30
0.0
 11
0.4068962453397293
 21
6.682468928518655
 31
0.0
  0
LINE
  5
24AA
330
248D
100
AcDbEntity
  8
0
 62
     0
100
AcDbLine
 10
0.6957104618946984
 20
4.584797758569027
 30
0.0
 11
0.731710461894699
 21
4.620797758569028
 31
0.0
  0
LINE
  5
24AB
330
248D
100
AcDbEntity
  8
0
 62
     0
100
AcDbLine
 10
0.9608755048396538
 20
4.584797758569028
 30
0.0
 11
0.9968755048396541
 21
4.620797758569028
 31
0.0
  0
LINE
  5
24AC
330
248D
100
AcDbEntity
  8
0
 62
     0
100
AcDbLine
 10
1.226040547784609
 20
4.584797758569028
 30
0.0
 11
1.262040547784609
 21
4.620797758569028
 31
0.0
  0
LINE
  5
24AD
330
248D
100
AcDbEntity
  8
0
 62
     0
100
AcDbLine
 10
1.491205590729564
 20
4.584797758569028
 30
0.0
 11
1.527205590729565
 21
4.620797758569028
 31
0.0
  0
LINE
  5
24AE
330
248D
100
AcDbEntity
  8
0
 62
     0
100
AcDbLine
 10
1.756370633674519
 20
4.584797758569028
 30
0.0
 11
1.79237063367452
 21
4.620797758569028
 31
0.0
  0
LINE
  5
24AF
330
248D
100
AcDbEntity
  8
0
 62
     0
100
AcDbLine
 10
2.021535676619475
 20
4.584797758569028
 30
0.0
 11
2.057535676619475
 21
4.620797758569028
 31
0.0
  0
LINE
  5
24B0
330
248D
100
AcDbEntity
  8
0
 62
     0
100
AcDbLine
 10
2.28670071956443
 20
4.584797758569028
 30
0.0
 11
2.32270071956443
 21
4.620797758569028
 31
0.0
  0
LINE
  5
24B1
330
248D
100
AcDbEntity
  8
0
 62
     0
100
AcDbLine
 10
2.551865762509386
 20
4.584797758569028
 30
0.0
 11
2.587865762509386
 21
4.620797758569028
 31
0.0
  0
ENDBLK
  5
24B2
330
248D
100
AcDbEntity
  8
0
100
AcDbBlockEnd
  0
BLOCK
  5
2B57
330
2B4B
100
AcDbEntity
  8
0
100
AcDbBlockBegin
  2
Kawneer Logo English
 70
     0
 10
0.0
 20
0.0
 30
0.0
  3
Kawneer Logo English
  1

  0
MTEXT
  5
2B4C
102
{ACAD_XDICTIONARY
360
2BB4
102
}
330
2B4B
100
AcDbEntity
  8
Kawneer Logo-English
100
AcDbMText
 10
1.510096758583198
 20
0.0372523876656778
 30
0.0
 40
0.036
 41
0.6125900866323382
 71
     3
 72
     5
  1
{\fArial TUR|b0|i0|c0|p34;\T1.05;AN ARCONIC COMPANY}
 73
     1
 44
1.0
1001
ACAD
1000
ACAD_MTEXT_COLUMN_INFO_BEGIN
1070
    75
1070
     2
1070
    79
1070
     0
1070
    76
1070
     1
1070
    78
1070
     0
1070
    48
1040
0.6125900866323382
1070
    49
1040
1.0
1070
    50
1070
     1
1040
0.0
1000
ACAD_MTEXT_COLUMN_INFO_END
1000
MTEXTBEGIN
1070
    73
1070
     1
1070
    44
1040
1.0
1070
    74
1070
     0
1000
MTEXTEND
  0
HATCH
  5
2B4D
330
2B4B
100
AcDbEntity
  8
Kawneer Logo-English
100
AcDbHatch
 10
0.0
 20
0.0
 30
0.0
210
0.0
220
0.0
230
1.0
  2
SOLID
 70
     1
 71
     0
 91
        1
 92
        1
 93
       81
 72
     1
 10
0.2706169776412204
 20
0.0336337282279411
 11
0.2687512969786691
 21
0.0350329887248546
 72
     1
 10
0.2687512969786696
 20
0.0350329887248547
 11
0.2633408230572721
 21
0.039137486182467
 72
     1
 10
0.2633408230572729
 20
0.0391374861824669
 11
0.2550385441089194
 21
0.0453875164020133
 72
     1
 10
0.2550385441089191
 20
0.0453875164020132
 11
0.2442175962661241
 21
0.053596511317238
 72
     1
 10
0.2442175962661235
 20
0.0535965113172379
 11
0.2314376837276472
 21
0.0632980507625037
 72
     1
 10
0.2314376837276479
 20
0.0632980507625037
 11
0.2172585106922595
 21
0.0741189986052996
 72
     1
 10
0.2172585106922598
 20
0.0741189986052996
 11
0.2019599292593419
 21
0.0856862187131167
 72
     1
 10
0.201959929259341
 20
0.0856862187131167
 11
0.1862882116939105
 21
0.0976265749534437
 72
     1
 10
0.1862882116939102
 20
0.0976265749534437
 11
0.1706164941284813
 21
0.1095669311937706
 72
     1
 10
0.1706164941284811
 20
0.1095669311937709
 11
0.1553179126955632
 21
0.1211341513015875
 72
     1
 10
0.1553179126955642
 20
0.1211341513015876
 11
0.1411387396601757
 21
0.131955099144384
 72
     1
 10
0.1411387396601755
 20
0.1319550991443839
 11
0.1284521111548274
 21
0.141749922622777
 72
     1
 10
0.1284521111548278
 20
0.1417499226227768
 11
0.117631163312031
 21
0.1499589175380016
 72
     1
 10
0.1176311633120304
 20
0.1499589175380017
 11
0.1094221683968068
 21
0.1563022317906752
 72
     1
 10
0.1094221683968062
 20
0.1563022317906754
 11
0.1041049785085351
 21
0.1604067292482882
 72
     1
 10
0.1041049785085351
 20
0.1604067292482878
 11
0.1023325818791119
 21
0.1618992737783286
 72
     1
 10
0.1023325818791116
 20
0.1618992737783289
 11
0.1043848306079176
 21
0.1636716704077524
 72
     1
 10
0.1043848306079194
 20
0.1636716704077524
 11
0.1100751566286996
 21
0.1683358720641301
 72
     1
 10
0.1100751566286986
 20
0.1683358720641301
 11
0.1189371397758159
 21
0.1757053106812067
 72
     1
 10
0.1189371397758161
 20
0.1757053106812067
 11
0.1304110758505067
 21
0.1851269980270901
 72
     1
 10
0.1304110758505059
 20
0.1851269980270902
 11
0.1439372606540007
 21
0.1963210820023967
 72
     1
 10
0.1439372606540017
 20
0.1963210820023967
 11
0.1589559899875385
 21
0.2087278584083611
 72
     1
 10
0.1589559899875379
 20
0.2087278584083611
 11
0.1750941277186041
 21
0.2220674751456017
 72
     1
 10
0.1750941277186047
 20
0.2220674751456017
 11
0.19169868561531
 21
0.2358735120484796
 72
     1
 10
0.1916986856153105
 20
0.2358735120484796
 11
0.208303243512014
 21
0.2495862649182301
 72
     1
 10
0.2083032435120131
 20
0.2495862649182304
 11
0.2244413812430811
 21
0.2628325976223432
 72
     1
 10
0.2244413812430812
 20
0.2628325976223429
 11
0.239460110576618
 21
0.2753326580614352
 72
     1
 10
0.2394601105766174
 20
0.2753326580614351
 11
0.2529862953801122
 21
0.2864334580036143
 72
     1
 10
0.2529862953801132
 20
0.2864334580036143
 11
0.2643669474216756
 21
0.2958551453494973
 72
     1
 10
0.2643669474216757
 20
0.2958551453494973
 11
0.2731356465356649
 21
0.3031312999334466
 72
     1
 10
0.273135646535664
 20
0.3031312999334466
 11
0.2788259725564443
 21
0.3077955015898243
 72
     1
 10
0.278825972556445
 20
0.3077955015898246
 11
0.2807849372521245
 21
0.3094746141861208
 72
     1
 10
0.2807849372521249
 20
0.3094746141861205
 11
0.2798520969208501
 21
0.3094746141861205
 72
     1
 10
0.2798520969208496
 20
0.3094746141861205
 11
0.2769602918938953
 21
0.3095678982192478
 72
     1
 10
0.2769602918938943
 20
0.3095678982192481
 11
0.2724826583037715
 21
0.3095678982192481
 72
     1
 10
0.2724826583037729
 20
0.3095678982192481
 11
0.2666057642167363
 21
0.3095678982192481
 72
     1
 10
0.266605764216735
 20
0.3095678982192481
 11
0.2597027457652953
 21
0.3095678982192481
 72
     1
 10
0.2597027457652956
 20
0.3095678982192481
 11
0.2519601710157094
 21
0.3095678982192481
 72
     1
 10
0.2519601710157104
 20
0.3095678982192481
 11
0.2437511761004851
 21
0.3095678982192481
 72
     1
 10
0.243751176100484
 20
0.3095678982192481
 11
0.2351690450527495
 21
0.3095678982192481
 72
     1
 10
0.2351690450527495
 20
0.3095678982192481
 11
0.2266801980381413
 21
0.3095678982192481
 72
     1
 10
0.2266801980381423
 20
0.3095678982192481
 11
0.2183779190897905
 21
0.3094746141861208
 72
     1
 10
0.2183779190897899
 20
0.3094746141861205
 11
0.2106353443402037
 21
0.3094746141861205
 72
     1
 10
0.2106353443402029
 20
0.3094746141861205
 11
0.2037323258887632
 21
0.3094746141861205
 72
     1
 10
0.203732325888764
 20
0.3094746141861205
 11
0.1978554318017273
 21
0.3094746141861205
 72
     1
 10
0.1978554318017278
 20
0.3094746141861205
 11
0.1932845141784786
 21
0.3094746141861205
 72
     1
 10
0.1932845141784787
 20
0.3094746141861205
 11
0.1903927091515244
 21
0.3094746141861205
 72
     1
 10
0.1903927091515234
 20
0.3094746141861205
 11
0.1893665847871204
 21
0.3094746141861205
 72
     1
 10
0.1893665847871206
 20
0.3094746141861205
 11
0.1879673242902067
 21
0.3077955015898243
 72
     1
 10
0.1879673242902076
 20
0.3077955015898246
 11
0.1841426789319786
 21
0.3030380159003196
 72
     1
 10
0.1841426789319787
 20
0.3030380159003192
 11
0.1780792167786874
 21
0.29576186131637
 72
     1
 10
0.1780792167786873
 20
0.29576186131637
 11
0.170243357995973
 21
0.2862468899373593
 72
     1
 10
0.170243357995973
 20
0.2862468899373593
 11
0.1610082387163447
 21
0.2750528059620528
 72
     1
 10
0.1610082387163438
 20
0.2750528059620528
 11
0.1507469950723126
 21
0.2624594614898328
 72
     1
 10
0.1507469950723133
 20
0.2624594614898328
 11
0.1396461951301336
 21
0.2491198447525922
 72
     1
 10
0.1396461951301333
 20
0.2491198447525922
 11
0.1282655430885727
 21
0.2352205238165866
 72
     1
 10
0.1282655430885726
 20
0.2352205238165868
 11
0.1168848910470102
 21
0.2214144869137089
 72
     1
 10
0.1168848910470102
 20
0.2214144869137087
 11
0.1058773751379587
 21
0.2079815861433408
 72
     1
 10
0.105877375137958
 20
0.2079815861433408
 11
0.0955228474608004
 21
0.1954815257042486
 72
     1
 10
0.0955228474608019
 20
0.1954815257042488
 11
0.0862877281811736
 21
0.1842874417289424
 72
     1
 10
0.0862877281811727
 20
0.1842874417289424
 11
0.0784518693984583
 21
0.1747724703499316
 72
     1
 10
0.0784518693984584
 20
0.1747724703499314
 11
0.0723884072451672
 21
0.1674963157659821
 72
     1
 10
0.0723884072451671
 20
0.1674963157659822
 11
0.0685637618869363
 21
0.1627388300764767
 72
     1
 10
0.0685637618869364
 20
0.1627388300764767
 11
0.0671645013900242
 21
0.1611530015133082
 72
     1
 10
0.0671645013900251
 20
0.1611530015133082
 11
0.0680040576881734
 21
0.1596604569832674
 72
     1
 10
0.0680040576881726
 20
0.1596604569832674
 11
0.0704294425494878
 21
0.1556492435587824
 72
     1
 10
0.0704294425494871
 20
0.1556492435587824
 11
0.0742540879077179
 21
0.1493059293061089
 72
     1
 10
0.0742540879077192
 20
0.1493059293061089
 11
0.0791048576303511
 21
0.1411902184240116
 72
     1
 10
0.0791048576303508
 20
0.1411902184240116
 11
0.0848884676842594
 21
0.1314886789787458
 72
     1
 10
0.0848884676842596
 20
0.1314886789787459
 11
0.0913250659700619
 21
0.1207610151690772
 72
     1
 10
0.0913250659700613
 20
0.1207610151690775
 11
0.0982280844214992
 21
0.1091937950612604
 72
     1
 10
0.0982280844214985
 20
0.1091937950612603
 11
0.1053176709391927
 21
0.0973467228540611
 72
     1
 10
0.105317670939193
 20
0.0973467228540612
 11
0.1124072574568872
 21
0.0854996506468619
 72
     1
 10
0.1124072574568871
 20
0.0854996506468617
 11
0.1193102759083267
 21
0.0739324305390446
 72
     1
 10
0.1193102759083278
 20
0.0739324305390448
 11
0.1257468741941283
 21
0.0632047667293762
 72
     1
 10
0.1257468741941277
 20
0.063204766729376
 11
0.1315304842480362
 21
0.0535032272841102
 72
     1
 10
0.1315304842480365
 20
0.0535032272841104
 11
0.1363812539706702
 21
0.0453875164020132
 72
     1
 10
0.1363812539706699
 20
0.0453875164020132
 11
0.1402058993288989
 21
0.0391374861824667
 72
     1
 10
0.1402058993288988
 20
0.0391374861824669
 11
0.1426312841902157
 21
0.0350329887248546
 72
     1
 10
0.1426312841902164
 20
0.0350329887248547
 11
0.1434708404883648
 21
0.0336337282279412
 72
     1
 10
0.143470840488364
 20
0.0336337282279411
 11
0.2706169776412211
 21
0.0336337282279411
 97
        0
 75
     0
 76
     1
 98
        1
 10
-0.3743130907707726
 20
-0.2500502867693841
1001
ACAD
1010
0.0
1020
0.0
1030
0.0
  0
HATCH
  5
2B4E
330
2B4B
100
AcDbEntity
  8
Kawneer Logo-English
100
AcDbHatch
 10
0.0
 20
0.0
 30
0.0
210
0.0
220
0.0
230
1.0
  2
SOLID
 70
     1
 71
     0
 91
        1
 92
        1
 93
       18
 72
     1
 10
0.0001865656044393
 20
0.2563959993365415
 11
-0.0000000024618153
 21
0.113671428651383
 72
     1
 10
-0.0000000024618159
 20
0.1136714286513832
 11
0.0012126899688416
 21
0.1152572572145516
 72
     1
 10
0.0012126899688421
 20
0.1152572572145516
 11
0.0045709151614355
 21
0.1197348908046738
 72
     1
 10
0.004570915161435
 20
0.119734890804674
 11
0.0098881050497044
 21
0.1268244773223682
 72
     1
 10
0.0098881050497044
 20
0.1268244773223682
 11
0.0166978394680158
 21
0.1359663125688683
 72
     1
 10
0.016697839468016
 20
0.1359663125688683
 11
0.0248135503501131
 21
0.1467872604116651
 72
     1
 10
0.024813550350113
 20
0.1467872604116652
 11
0.0338621015634867
 21
0.1588209006851195
 72
     1
 10
0.0338621015634872
 20
0.1588209006851194
 11
0.0434703569756247
 21
0.1716940972567221
 72
     1
 10
0.0434703569756247
 20
0.1716940972567224
 11
0.0534517485202732
 21
0.1850337139939626
 72
     1
 10
0.0534517485202724
 20
0.1850337139939624
 11
0.0634331400649208
 21
0.1983733307312025
 72
     1
 10
0.0634331400649222
 20
0.1983733307312024
 11
0.0730413954770597
 21
0.2112465273028051
 72
     1
 10
0.0730413954770595
 20
0.2112465273028053
 11
0.0820899466904331
 21
0.2233734516093873
 72
     1
 10
0.0820899466904321
 20
0.2233734516093873
 11
0.0902056575725293
 21
0.2341943994521837
 72
     1
 10
0.0902056575725308
 20
0.2341943994521837
 11
0.0970153919908422
 21
0.2433362346986839
 72
     1
 10
0.0970153919908405
 20
0.2433362346986839
 11
0.1022392978459834
 21
0.2503325371832507
 72
     1
 10
0.1022392978459843
 20
0.2503325371832508
 11
0.1056908070717041
 21
0.2549034548065008
 72
     1
 10
0.1056908070717046
 20
0.254903454806501
 11
0.1069034995023621
 21
0.2564892833696694
 72
     1
 10
0.1069034995023625
 20
0.2564892833696695
 11
0.0001865656044399
 21
0.2563959993365418
 97
        0
 75
     0
 76
     1
 98
        1
 10
-0.3743130907707726
 20
-0.2500502867693841
1001
ACAD
1010
0.0
1020
0.0
1030
0.0
  0
HATCH
  5
2B4F
330
2B4B
100
AcDbEntity
  8
Kawneer Logo-English
100
AcDbHatch
 10
0.0
 20
0.0
 30
0.0
210
0.0
220
0.0
230
1.0
  2
SOLID
 70
     1
 71
     0
 91
        2
 92
       16
 93
       76
 72
     1
 10
1.358402087941634
 20
0.1650709309046659
 11
1.358402087941634
 21
0.16796273593162
 72
     1
 10
1.358402087941634
 20
0.1679627359316202
 11
1.358402087941634
 21
0.1729067896873803
 72
     1
 10
1.358402087941634
 20
0.1729067896873803
 11
1.358402087941634
 21
0.1791568199069267
 72
     1
 10
1.358402087941634
 20
0.1791568199069267
 11
1.358402087941634
 21
0.1861531223914932
 72
     1
 10
1.358402087941634
 20
0.186153122391493
 11
1.358402087941634
 21
0.1931494248760595
 72
     1
 10
1.358402087941634
 20
0.1931494248760596
 11
1.358402087941634
 21
0.1994927391287338
 72
     1
 10
1.358402087941634
 20
0.1994927391287336
 11
1.358402087941634
 21
0.2044367928844937
 72
     1
 10
1.358402087941634
 20
0.2044367928844937
 11
1.358402087941634
 21
0.2072353138783208
 72
     1
 10
1.358402087941634
 20
0.2072353138783208
 11
1.359894632471676
 21
0.2072353138783208
 72
     1
 10
1.359894632471676
 20
0.2072353138783208
 11
1.362693153465502
 21
0.2072353138783208
 72
     1
 10
1.362693153465502
 20
0.2072353138783208
 11
1.366424514790605
 21
0.2072353138783208
 72
     1
 10
1.366424514790606
 20
0.2072353138783208
 11
1.371088716446983
 21
0.2072353138783208
 72
     1
 10
1.371088716446982
 20
0.2072353138783208
 11
1.376405906335254
 21
0.2072353138783208
 72
     1
 10
1.376405906335254
 20
0.2072353138783208
 11
1.382282800422289
 21
0.2072353138783208
 72
     1
 10
1.38228280042229
 20
0.2072353138783208
 11
1.388346262575581
 21
0.2072353138783208
 72
     1
 10
1.388346262575579
 20
0.2072353138783208
 11
1.394596292795125
 21
0.2072353138783208
 72
     1
 10
1.394596292795125
 20
0.2072353138783208
 11
1.400753038981545
 21
0.2072353138783208
 72
     1
 10
1.400753038981546
 20
0.2072353138783208
 11
1.406723217101709
 21
0.2072353138783208
 72
     1
 10
1.406723217101708
 20
0.2072353138783208
 11
1.412320259089362
 21
0.2072353138783208
 72
     1
 10
1.412320259089362
 20
0.2072353138783208
 11
1.417264312845122
 21
0.2072353138783208
 72
     1
 10
1.417264312845123
 20
0.2072353138783208
 11
1.421368810302735
 21
0.2072353138783208
 72
     1
 10
1.421368810302734
 20
0.2072353138783208
 11
1.424540467429071
 21
0.2072353138783208
 72
     1
 10
1.424540467429072
 20
0.2072353138783208
 11
1.426592716157878
 21
0.2072353138783208
 72
     1
 10
1.426592716157878
 20
0.2072353138783208
 11
1.427338988422898
 21
0.2072353138783208
 72
     1
 10
1.427338988422898
 20
0.2072353138783208
 11
1.430977065714873
 21
0.207142029845193
 72
     1
 10
1.430977065714872
 20
0.207142029845193
 11
1.434335290907465
 21
0.2068621777458102
 72
     1
 10
1.434335290907465
 20
0.2068621777458102
 11
1.435921119470633
 21
0.2066756096795552
 72
     1
 10
1.435921119470633
 20
0.206675609679555
 11
1.437413664000673
 21
0.2063957575801723
 72
     1
 10
1.437413664000674
 20
0.2063957575801723
 11
1.438906208530714
 21
0.2061159054807895
 72
     1
 10
1.438906208530714
 20
0.2061159054807898
 11
1.440398753060756
 21
0.2056494853151523
 72
     1
 10
1.440398753060756
 20
0.2056494853151521
 11
1.441704729524542
 21
0.2050897811163865
 72
     1
 10
1.441704729524542
 20
0.2050897811163866
 11
1.443010705988328
 21
0.204530076917621
 72
     1
 10
1.443010705988329
 20
0.204530076917621
 11
1.444223398418986
 21
0.2036905206194736
 72
     1
 10
1.444223398418985
 20
0.2036905206194736
 11
1.445436090849643
 21
0.2028509643213252
 72
     1
 10
1.445436090849643
 20
0.2028509643213252
 11
1.446555499247174
 21
0.2018248399569224
 72
     1
 10
1.446555499247173
 20
0.2018248399569223
 11
1.447581623611576
 21
0.2007054315593917
 72
     1
 10
1.447581623611578
 20
0.2007054315593915
 11
1.448607747975981
 21
0.1993061710624781
 72
     1
 10
1.448607747975981
 20
0.1993061710624781
 11
1.449540588307258
 21
0.1978136265324374
 72
     1
 10
1.449540588307256
 20
0.1978136265324373
 11
1.450380144605403
 21
0.1961345139361415
 72
     1
 10
1.450380144605404
 20
0.1961345139361415
 11
1.451126416870426
 21
0.1944554013398453
 72
     1
 10
1.451126416870426
 20
0.1944554013398454
 11
1.451592837036063
 21
0.1929628568098046
 72
     1
 10
1.451592837036062
 20
0.1929628568098046
 11
1.451965973168573
 21
0.1913770282466361
 72
     1
 10
1.451965973168574
 20
0.1913770282466361
 11
1.452245825267955
 21
0.1899777677497231
 72
     1
 10
1.452245825267954
 20
0.1899777677497231
 11
1.452432393334211
 21
0.188671791285937
 72
     1
 10
1.452432393334211
 20
0.1886717912859369
 11
1.452432393334211
 21
0.1874590988552789
 72
     1
 10
1.452432393334211
 20
0.1874590988552789
 11
1.452525677367338
 21
0.1863396904577482
 72
     1
 10
1.452525677367337
 20
0.1863396904577481
 11
1.452432393334211
 21
0.1844740097951972
 72
     1
 10
1.452432393334211
 20
0.1844740097951974
 11
1.452245825267955
 21
0.1827948971989012
 72
     1
 10
1.452245825267954
 20
0.1827948971989009
 11
1.451872689135445
 21
0.1810225005694773
 72
     1
 10
1.451872689135446
 20
0.1810225005694774
 11
1.451406268969809
 21
0.1794366720063093
 72
     1
 10
1.451406268969809
 20
0.1794366720063094
 11
1.450846564771043
 21
0.1779441274762682
 72
     1
 10
1.450846564771041
 20
0.1779441274762681
 11
1.450100292506021
 21
0.1764515829462274
 72
     1
 10
1.450100292506023
 20
0.1764515829462275
 11
1.449260736207875
 21
0.1750523224493141
 72
     1
 10
1.449260736207873
 20
0.1750523224493139
 11
1.448327895876597
 21
0.1737463459855283
 72
     1
 10
1.448327895876596
 20
0.1737463459855281
 11
1.44702191941281
 21
0.1723470854886151
 72
     1
 10
1.447021919412811
 20
0.1723470854886151
 11
1.445715942949025
 21
0.1711343930579568
 72
     1
 10
1.445715942949026
 20
0.1711343930579568
 11
1.444316682452114
 21
0.1700149846604262
 72
     1
 10
1.444316682452114
 20
0.1700149846604259
 11
1.442824137922072
 21
0.168988860296023
 72
     1
 10
1.442824137922072
 20
0.168988860296023
 11
1.441238309358904
 21
0.1682425880310024
 72
     1
 10
1.441238309358902
 20
0.1682425880310024
 11
1.439559196762608
 21
0.1674963157659821
 72
     1
 10
1.439559196762608
 20
0.1674963157659822
 11
1.437880084166311
 21
0.1669366115672166
 72
     1
 10
1.437880084166311
 20
0.1669366115672167
 11
1.436107687536888
 21
0.1664701914015788
 72
     1
 10
1.436107687536888
 20
0.1664701914015789
 11
1.434242006874337
 21
0.166003771235941
 72
     1
 10
1.434242006874337
 20
0.1660037712359412
 11
1.432376326211786
 21
0.1657239191365588
 72
     1
 10
1.432376326211785
 20
0.1657239191365585
 11
1.430417361516107
 21
0.1655373510703035
 72
     1
 10
1.430417361516108
 20
0.1655373510703037
 11
1.428458396820429
 21
0.1653507830040482
 72
     1
 10
1.428458396820428
 20
0.1653507830040482
 11
1.424353899362817
 21
0.1651642149377932
 72
     1
 10
1.424353899362817
 20
0.1651642149377932
 11
1.420156117872077
 21
0.1650709309046658
 72
     1
 10
1.420156117872076
 20
0.1650709309046659
 11
1.41773073301076
 21
0.1650709309046659
 72
     1
 10
1.417730733010761
 20
0.1650709309046659
 11
1.411107566658704
 21
0.1650709309046659
 72
     1
 10
1.411107566658702
 20
0.1650709309046659
 11
1.401779163345947
 21
0.1650709309046659
 72
     1
 10
1.401779163345949
 20
0.1650709309046659
 11
1.390958215503152
 21
0.1650709309046659
 72
     1
 10
1.390958215503152
 20
0.1650709309046659
 11
1.379950699594101
 21
0.1650709309046659
 72
     1
 10
1.379950699594099
 20
0.1650709309046659
 11
1.369969308049451
 21
0.1650709309046659
 72
     1
 10
1.369969308049451
 20
0.1650709309046659
 11
1.362320017332992
 21
0.1650709309046659
 72
     1
 10
1.362320017332992
 20
0.1650709309046659
 11
1.358402087941635
 21
0.1650709309046659
 97
        0
 92
        1
 93
      107
 72
     1
 10
1.443756978253348
 20
0.1485596570410883
 11
1.446928635379685
 21
0.1492126452729816
 72
     1
 10
1.446928635379685
 20
0.1492126452729817
 11
1.449540588307256
 21
0.1498656335048746
 72
     1
 10
1.449540588307256
 20
0.1498656335048745
 11
1.451872689135445
 21
0.1506119057698948
 72
     1
 10
1.451872689135446
 20
0.1506119057698946
 11
1.45401822189738
 21
0.1514514620680426
 72
     1
 10
1.45401822189738
 20
0.1514514620680425
 11
1.455883902559929
 21
0.1521977343330632
 72
     1
 10
1.455883902559929
 20
0.1521977343330631
 11
1.457563015156225
 21
0.1530372906312111
 72
     1
 10
1.457563015156225
 20
0.1530372906312111
 11
1.459148843719394
 21
0.1539701309624869
 72
     1
 10
1.459148843719394
 20
0.1539701309624866
 11
1.460641388249434
 21
0.1549029712937624
 72
     1
 10
1.460641388249434
 20
0.1549029712937622
 11
1.462133932779476
 21
0.155835811625038
 72
     1
 10
1.462133932779476
 20
0.155835811625038
 11
1.463439909243262
 21
0.1568619359894408
 72
     1
 10
1.463439909243262
 20
0.1568619359894408
 11
1.464745885707048
 21
0.1579813443869714
 72
     1
 10
1.464745885707047
 20
0.1579813443869716
 11
1.465865294104579
 21
0.1591007527845022
 72
     1
 10
1.465865294104579
 20
0.1591007527845025
 11
1.466984702502109
 21
0.1602201611820331
 72
     1
 10
1.466984702502108
 20
0.1602201611820328
 11
1.468010826866511
 21
0.1613395695795634
 72
     1
 10
1.468010826866511
 20
0.1613395695795637
 11
1.468943667197788
 21
0.1625522620102216
 72
     1
 10
1.468943667197788
 20
0.1625522620102216
 11
1.469876507529063
 21
0.1636716704077522
 72
     1
 10
1.469876507529063
 20
0.1636716704077524
 11
1.470622779794084
 21
0.1648843628384107
 72
     1
 10
1.470622779794084
 20
0.1648843628384107
 11
1.471462336092232
 21
0.1661903393021964
 72
     1
 10
1.471462336092232
 20
0.1661903393021967
 11
1.472115324324125
 21
0.1674030317328546
 72
     1
 10
1.472115324324124
 20
0.1674030317328546
 11
1.472768312556016
 21
0.1686157241635125
 72
     1
 10
1.472768312556017
 20
0.1686157241635125
 11
1.473328016754783
 21
0.1699217006272986
 72
     1
 10
1.473328016754782
 20
0.1699217006272989
 11
1.47379443692042
 21
0.1711343930579568
 72
     1
 10
1.47379443692042
 20
0.1711343930579568
 11
1.474260857086057
 21
0.1724403695217425
 72
     1
 10
1.474260857086058
 20
0.1724403695217424
 11
1.474727277251697
 21
0.1736530619524008
 72
     1
 10
1.474727277251697
 20
0.173653061952401
 11
1.475380265483589
 21
0.1760784468137175
 72
     1
 10
1.475380265483588
 20
0.1760784468137173
 11
1.475846685649225
 21
0.1785038316750338
 72
     1
 10
1.475846685649226
 20
0.1785038316750335
 11
1.476219821781737
 21
0.1808359325032223
 72
     1
 10
1.476219821781738
 20
0.1808359325032223
 11
1.47649967388112
 21
0.1830747492982838
 72
     1
 10
1.47649967388112
 20
0.1830747492982838
 11
1.476592957914248
 21
0.1851269980270901
 72
     1
 10
1.476592957914248
 20
0.1851269980270902
 11
1.476686241947374
 21
0.1870859627227688
 72
     1
 10
1.476686241947375
 20
0.1870859627227687
 11
1.476592957914249
 21
0.1888583593521923
 72
     1
 10
1.476592957914248
 20
0.1888583593521922
 11
1.476499673881119
 21
0.1906307559816158
 72
     1
 10
1.47649967388112
 20
0.1906307559816159
 11
1.476406389847991
 21
0.1924031526110394
 72
     1
 10
1.476406389847991
 20
0.1924031526110394
 11
1.476126537748608
 21
0.1940822652073352
 72
     1
 10
1.476126537748608
 20
0.1940822652073352
 11
1.475846685649226
 21
0.195761377803631
 72
     1
 10
1.475846685649226
 20
0.1957613778036309
 11
1.475566833549843
 21
0.1974404903999272
 72
     1
 10
1.475566833549843
 20
0.1974404903999272
 11
1.475100413384206
 21
0.1990263189630953
 72
     1
 10
1.475100413384205
 20
0.1990263189630952
 11
1.474633993218568
 21
0.2006121475262637
 72
     1
 10
1.474633993218568
 20
0.2006121475262639
 11
1.47416757305293
 21
0.2021046920563051
 72
     1
 10
1.474167573052932
 20
0.2021046920563049
 11
1.473514584821038
 21
0.2035972365863457
 72
     1
 10
1.473514584821037
 20
0.2035972365863459
 11
1.472954880622271
 21
0.2050897811163867
 72
     1
 10
1.472954880622272
 20
0.2050897811163866
 11
1.472208608357252
 21
0.2064890416133
 72
     1
 10
1.472208608357252
 20
0.2064890416133001
 11
1.471462336092232
 21
0.2078883021102135
 72
     1
 10
1.471462336092232
 20
0.2078883021102136
 11
1.470622779794083
 21
0.2091942785739993
 72
     1
 10
1.470622779794084
 20
0.2091942785739991
 11
1.469783223495935
 21
0.2105002550377848
 72
     1
 10
1.469783223495934
 20
0.2105002550377851
 11
1.468850383164659
 21
0.2118062315015707
 72
     1
 10
1.468850383164661
 20
0.2118062315015709
 11
1.467917542833386
 21
0.2130189239322288
 72
     1
 10
1.467917542833385
 20
0.2130189239322289
 11
1.466891418468982
 21
0.2141383323297595
 72
     1
 10
1.466891418468982
 20
0.2141383323297595
 11
1.465772010071451
 21
0.2153510247604178
 72
     1
 10
1.46577201007145
 20
0.215351024760418
 11
1.464652601673919
 21
0.2163771491248209
 72
     1
 10
1.46465260167392
 20
0.2163771491248209
 11
1.463533193276389
 21
0.2174032734892238
 72
     1
 10
1.463533193276389
 20
0.2174032734892238
 11
1.462227216812603
 21
0.2184293978536266
 72
     1
 10
1.462227216812602
 20
0.2184293978536266
 11
1.461014524381945
 21
0.2193622381849024
 72
     1
 10
1.461014524381946
 20
0.2193622381849023
 11
1.459615263885032
 21
0.2202950785161781
 72
     1
 10
1.459615263885031
 20
0.2202950785161782
 11
1.458309287421245
 21
0.2211346348143262
 72
     1
 10
1.458309287421246
 20
0.221134634814326
 11
1.456816742891206
 21
0.221974191112474
 72
     1
 10
1.456816742891206
 20
0.2219741911124738
 11
1.455417482394292
 21
0.2227204633774945
 72
     1
 10
1.455417482394291
 20
0.2227204633774944
 11
1.453831653831122
 21
0.2233734516093874
 72
     1
 10
1.453831653831123
 20
0.2233734516093873
 11
1.452339109301082
 21
0.2240264398412803
 72
     1
 10
1.452339109301082
 20
0.2240264398412803
 11
1.450659996704785
 21
0.2245861440400459
 72
     1
 10
1.450659996704787
 20
0.2245861440400457
 11
1.44907416814162
 21
0.2251458482388108
 72
     1
 10
1.449074168141619
 20
0.2251458482388109
 11
1.447301771512194
 21
0.2256122684044489
 72
     1
 10
1.447301771512194
 20
0.2256122684044488
 11
1.445249522783388
 21
0.2261719726032139
 72
     1
 10
1.445249522783388
 20
0.226171972603214
 11
1.44329055808771
 21
0.2265451087357246
 72
     1
 10
1.443290558087712
 20
0.2265451087357244
 11
1.441145025325778
 21
0.2269182448682345
 72
     1
 10
1.441145025325776
 20
0.2269182448682345
 11
1.438906208530714
 21
0.2271980969676173
 72
     1
 10
1.438906208530714
 20
0.2271980969676173
 11
1.436387539636271
 21
0.2273846650338724
 72
     1
 10
1.436387539636271
 20
0.2273846650338724
 11
1.433495734609316
 21
0.2275712331001274
 72
     1
 10
1.433495734609317
 20
0.2275712331001274
 11
1.430044225383597
 21
0.2276645171332552
 72
     1
 10
1.430044225383597
 20
0.2276645171332549
 11
1.42612629599224
 21
0.2277578011663822
 72
     1
 10
1.42612629599224
 20
0.2277578011663825
 11
1.426033011959112
 21
0.2277578011663825
 72
     1
 10
1.426033011959111
 20
0.2277578011663825
 11
1.33489451159349
 21
0.2277578011663825
 72
     1
 10
1.334894511593491
 20
0.2277578011663825
 11
1.334894511593491
 21
0.0926825211976832
 72
     1
 10
1.334894511593491
 20
0.0926825211976832
 11
1.358588656007891
 21
0.0926825211976832
 72
     1
 10
1.358588656007891
 20
0.0926825211976832
 11
1.358588656007891
 21
0.0947347699264896
 72
     1
 10
1.358588656007891
 20
0.0947347699264896
 11
1.358588656007891
 21
0.1001452438478876
 72
     1
 10
1.358588656007891
 20
0.1001452438478875
 11
1.358588656007891
 21
0.1079811026306024
 72
     1
 10
1.358588656007891
 20
0.1079811026306024
 11
1.358588656007891
 21
0.1170296538439752
 72
     1
 10
1.358588656007891
 20
0.1170296538439753
 11
1.358588656007891
 21
0.1262647731236032
 72
     1
 10
1.358588656007891
 20
0.1262647731236031
 11
1.358588656007891
 21
0.1347536201382103
 72
     1
 10
1.358588656007891
 20
0.1347536201382104
 11
1.358588656007891
 21
0.1412835024571394
 72
     1
 10
1.358588656007891
 20
0.1412835024571393
 11
1.358588656007891
 21
0.1448282957159864
 72
     1
 10
1.358588656007891
 20
0.1448282957159865
 11
1.362320017332992
 21
0.1448282957159865
 72
     1
 10
1.362320017332992
 20
0.1448282957159865
 11
1.369409603850688
 21
0.1448282957159865
 72
     1
 10
1.369409603850688
 20
0.1448282957159865
 11
1.378738007163443
 21
0.1448282957159865
 72
     1
 10
1.378738007163443
 20
0.1448282957159865
 11
1.388999250807475
 21
0.1448282957159865
 72
     1
 10
1.388999250807473
 20
0.1448282957159865
 11
1.399260494451505
 21
0.1448282957159865
 72
     1
 10
1.399260494451506
 20
0.1448282957159865
 11
1.408215761631749
 21
0.1448282957159865
 72
     1
 10
1.408215761631748
 20
0.1448282957159865
 11
1.414745643950677
 21
0.1448282957159865
 72
     1
 10
1.414745643950678
 20
0.1448282957159865
 11
1.41773073301076
 21
0.1448282957159865
 72
     1
 10
1.417730733010761
 20
0.1448282957159865
 11
1.420062833838949
 21
0.1420297747221594
 72
     1
 10
1.420062833838949
 20
0.1420297747221597
 11
1.425193455660966
 21
0.1359663125688683
 72
     1
 10
1.425193455660965
 20
0.1359663125688683
 11
1.432283042178659
 21
0.1275707495873888
 72
     1
 10
1.432283042178659
 20
0.1275707495873886
 11
1.440305469027628
 21
0.1180557782083779
 72
     1
 10
1.440305469027629
 20
0.1180557782083781
 11
1.448234611843471
 21
0.1087273748956225
 72
     1
 10
1.448234611843471
 20
0.1087273748956225
 11
1.455044346261782
 21
0.1006116640135252
 72
     1
 10
1.455044346261782
 20
0.1006116640135252
 11
1.459895115984414
 21
0.0948280539596167
 72
     1
 10
1.459895115984414
 20
0.0948280539596169
 11
1.461760796646965
 21
0.0926825211976832
 72
     1
 10
1.461760796646967
 20
0.0926825211976832
 11
1.49254452757906
 21
0.0926825211976832
 72
     1
 10
1.492544527579059
 20
0.0926825211976832
 11
1.490678846916508
 21
0.0948280539596169
 72
     1
 10
1.490678846916508
 20
0.0948280539596169
 11
1.48564150912762
 21
0.100518379980398
 72
     1
 10
1.48564150912762
 20
0.1005183799803981
 11
1.478458638576797
 21
0.1088206589287502
 72
     1
 10
1.478458638576798
 20
0.1088206589287502
 11
1.470063075595318
 21
0.1183356303077609
 72
     1
 10
1.470063075595317
 20
0.118335630307761
 11
1.461480944547582
 21
0.1282237378192818
 72
     1
 10
1.461480944547582
 20
0.1282237378192818
 11
1.453551801731739
 21
0.1372722890326546
 72
     1
 10
1.45355180173174
 20
0.1372722890326546
 11
1.447395055545323
 21
0.1444551595834761
 72
     1
 10
1.447395055545323
 20
0.1444551595834759
 11
1.443756978253349
 21
0.1485596570410882
 97
        0
 75
     0
 76
     1
 98
        1
 10
-0.3743130907707726
 20
-0.2500502867693841
1001
ACAD
1010
0.0
1020
0.0
1030
0.0
  0
HATCH
  5
2B50
330
2B4B
100
AcDbEntity
  8
Kawneer Logo-English
100
AcDbHatch
 10
0.0
 20
0.0
 30
0.0
210
0.0
220
0.0
230
1.0
  2
SOLID
 70
     1
 71
     0
 91
        1
 92
        1
 93
       87
 72
     1
 10
1.205602841678699
 20
0.1525708704655737
 11
1.207468522341251
 21
0.1525708704655737
 72
     1
 10
1.207468522341252
 20
0.1525708704655737
 11
1.211199883666355
 21
0.1525708704655737
 72
     1
 10
1.211199883666355
 20
0.1525708704655737
 11
1.216517073554626
 21
0.1525708704655737
 72
     1
 10
1.216517073554626
 20
0.1525708704655737
 11
1.223046955873555
 21
0.1525708704655737
 72
     1
 10
1.223046955873553
 20
0.1525708704655737
 11
1.230602962556885
 21
0.1525708704655737
 72
     1
 10
1.230602962556885
 20
0.1525708704655737
 11
1.238998525538365
 21
0.1525708704655737
 72
     1
 10
1.238998525538365
 20
0.1525708704655737
 11
1.247767224652354
 21
0.1525708704655737
 72
     1
 10
1.247767224652355
 20
0.1525708704655737
 11
1.256815775865728
 21
0.1525708704655737
 72
     1
 10
1.256815775865729
 20
0.1525708704655737
 11
1.265771043045974
 21
0.1525708704655737
 72
     1
 10
1.265771043045973
 20
0.1525708704655737
 11
1.274446458126836
 21
0.1525708704655737
 72
     1
 10
1.274446458126837
 20
0.1525708704655737
 11
1.282562169008935
 21
0.1525708704655737
 72
     1
 10
1.282562169008935
 20
0.1525708704655737
 11
1.289745039559756
 21
0.1525708704655737
 72
     1
 10
1.289745039559755
 20
0.1525708704655737
 11
1.295808501713046
 21
0.1525708704655737
 72
     1
 10
1.295808501713046
 20
0.1525708704655737
 11
1.300472703369423
 21
0.1525708704655737
 72
     1
 10
1.300472703369423
 20
0.1525708704655737
 11
1.303457792429505
 21
0.1525708704655737
 72
     1
 10
1.303457792429505
 20
0.1525708704655737
 11
1.304483916793908
 21
0.1525708704655737
 72
     1
 10
1.304483916793908
 20
0.1525708704655737
 11
1.304483916793908
 21
0.1730000737205081
 72
     1
 10
1.304483916793908
 20
0.1730000737205078
 11
1.303457792429505
 21
0.1730000737205078
 72
     1
 10
1.303457792429505
 20
0.1730000737205078
 11
1.300472703369423
 21
0.1730000737205078
 72
     1
 10
1.300472703369423
 20
0.1730000737205078
 11
1.295808501713045
 21
0.1730000737205078
 72
     1
 10
1.295808501713046
 20
0.1730000737205078
 11
1.289745039559754
 21
0.1730000737205078
 72
     1
 10
1.289745039559755
 20
0.1730000737205078
 11
1.282562169008934
 21
0.1730000737205078
 72
     1
 10
1.282562169008935
 20
0.1730000737205078
 11
1.274446458126837
 21
0.1730000737205078
 72
     1
 10
1.274446458126837
 20
0.1730000737205078
 11
1.265771043045975
 21
0.1730000737205078
 72
     1
 10
1.265771043045973
 20
0.1730000737205078
 11
1.256815775865728
 21
0.1730000737205078
 72
     1
 10
1.256815775865729
 20
0.1730000737205078
 11
1.247767224652355
 21
0.1730000737205078
 72
     1
 10
1.247767224652355
 20
0.1730000737205078
 11
1.238998525538365
 21
0.1730000737205078
 72
     1
 10
1.238998525538365
 20
0.1730000737205078
 11
1.230602962556885
 21
0.1730000737205078
 72
     1
 10
1.230602962556885
 20
0.1730000737205078
 11
1.223046955873553
 21
0.1730000737205078
 72
     1
 10
1.223046955873553
 20
0.1730000737205078
 11
1.216517073554625
 21
0.1730000737205078
 72
     1
 10
1.216517073554626
 20
0.1730000737205078
 11
1.211199883666355
 21
0.1730000737205078
 72
     1
 10
1.211199883666355
 20
0.1730000737205078
 11
1.207468522341252
 21
0.1730000737205078
 72
     1
 10
1.207468522341252
 20
0.1730000737205078
 11
1.205602841678701
 21
0.1730000737205078
 72
     1
 10
1.205602841678699
 20
0.1730000737205078
 11
1.205602841678699
 21
0.1754254585818243
 72
     1
 10
1.205602841678699
 20
0.1754254585818245
 11
1.205602841678699
 21
0.1794366720063095
 72
     1
 10
1.205602841678699
 20
0.1794366720063094
 11
1.205602841678699
 21
0.1843807257620694
 72
     1
 10
1.205602841678699
 20
0.1843807257620694
 11
1.205602841678699
 21
0.1898844837165951
 72
     1
 10
1.205602841678699
 20
0.1898844837165951
 11
1.205602841678699
 21
0.1952949576379935
 72
     1
 10
1.205602841678699
 20
0.1952949576379937
 11
1.205602841678699
 21
0.2003322954268815
 72
     1
 10
1.205602841678699
 20
0.2003322954268814
 11
1.205602841678699
 21
0.2042502248182386
 72
     1
 10
1.205602841678699
 20
0.2042502248182386
 11
1.205602841678699
 21
0.206675609679555
 72
     1
 10
1.205602841678699
 20
0.206675609679555
 11
1.207468522341251
 21
0.206675609679555
 72
     1
 10
1.207468522341252
 20
0.206675609679555
 11
1.211293167699483
 21
0.206675609679555
 72
     1
 10
1.211293167699483
 20
0.206675609679555
 11
1.21670364162088
 21
0.206675609679555
 72
     1
 10
1.216703641620879
 20
0.206675609679555
 11
1.223420092006063
 21
0.206675609679555
 72
     1
 10
1.223420092006064
 20
0.206675609679555
 11
1.231255950788778
 21
0.206675609679555
 72
     1
 10
1.231255950788778
 20
0.206675609679555
 11
1.239744797803386
 21
0.206675609679555
 72
     1
 10
1.239744797803385
 20
0.206675609679555
 11
1.248886633049885
 21
0.206675609679555
 72
     1
 10
1.248886633049885
 20
0.206675609679555
 11
1.258121752329513
 21
0.206675609679555
 72
     1
 10
1.258121752329514
 20
0.206675609679555
 11
1.267356871609143
 21
0.206675609679555
 72
     1
 10
1.267356871609142
 20
0.206675609679555
 11
1.276218854756259
 21
0.206675609679555
 72
     1
 10
1.276218854756259
 20
0.206675609679555
 11
1.284521133704611
 21
0.206675609679555
 72
     1
 10
1.284521133704611
 20
0.206675609679555
 11
1.291890572321688
 21
0.206675609679555
 72
     1
 10
1.291890572321688
 20
0.206675609679555
 11
1.298140602541234
 21
0.206675609679555
 72
     1
 10
1.298140602541234
 20
0.206675609679555
 11
1.30289808823074
 21
0.206675609679555
 72
     1
 10
1.30289808823074
 20
0.206675609679555
 11
1.305976461323949
 21
0.206675609679555
 72
     1
 10
1.305976461323949
 20
0.206675609679555
 11
1.30709586972148
 21
0.206675609679555
 72
     1
 10
1.307095869721479
 20
0.206675609679555
 11
1.307095869721479
 21
0.2277578011663822
 72
     1
 10
1.307095869721479
 20
0.2277578011663825
 11
1.304577200827036
 21
0.2277578011663825
 72
     1
 10
1.304577200827037
 20
0.2277578011663825
 11
1.182188549363684
 21
0.2277578011663825
 72
     1
 10
1.182188549363684
 20
0.2277578011663825
 11
1.182188549363684
 21
0.0926825211976832
 72
     1
 10
1.182188549363684
 20
0.0926825211976832
 11
1.311853355410986
 21
0.0926825211976832
 72
     1
 10
1.311853355410985
 20
0.0926825211976832
 11
1.311853355410985
 21
0.113671428651383
 72
     1
 10
1.311853355410985
 20
0.1136714286513832
 11
1.310733947013454
 21
0.1136714286513832
 72
     1
 10
1.310733947013455
 20
0.1136714286513832
 11
1.307469005853991
 21
0.1136714286513832
 72
     1
 10
1.307469005853991
 20
0.1136714286513832
 11
1.302431668065102
 21
0.1136714286513832
 72
     1
 10
1.302431668065103
 20
0.1136714286513832
 11
1.295901785746174
 21
0.1136714286513832
 72
     1
 10
1.295901785746174
 20
0.1136714286513832
 11
1.288159210996586
 21
0.1136714286513832
 72
     1
 10
1.288159210996587
 20
0.1136714286513832
 11
1.279483795915724
 21
0.1136714286513832
 72
     1
 10
1.279483795915723
 20
0.1136714286513832
 11
1.270155392602968
 21
0.1136714286513832
 72
     1
 10
1.270155392602969
 20
0.1136714286513832
 11
1.260547137190832
 21
0.1136714286513832
 72
     1
 10
1.260547137190831
 20
0.1136714286513832
 11
1.250752313712437
 21
0.1136714286513832
 72
     1
 10
1.250752313712437
 20
0.1136714286513832
 11
1.241330626366554
 21
0.1136714286513832
 72
     1
 10
1.241330626366555
 20
0.1136714286513832
 11
1.23237535918631
 21
0.1136714286513832
 72
     1
 10
1.232375359186308
 20
0.1136714286513832
 11
1.224166364271082
 21
0.1136714286513832
 72
     1
 10
1.224166364271083
 20
0.1136714286513832
 11
1.217170061786517
 21
0.1136714286513832
 72
     1
 10
1.217170061786517
 20
0.1136714286513832
 11
1.211479735765737
 21
0.1136714286513832
 72
     1
 10
1.211479735765737
 20
0.1136714286513832
 11
1.20756180637438
 21
0.1136714286513832
 72
     1
 10
1.207561806374379
 20
0.1136714286513832
 11
1.2056028416787
 21
0.1136714286513832
 72
     1
 10
1.205602841678699
 20
0.1136714286513832
 11
1.205602841678699
 21
0.1163766656120825
 72
     1
 10
1.205602841678699
 20
0.1163766656120823
 11
1.205602841678699
 21
0.1209475832353323
 72
     1
 10
1.205602841678699
 20
0.1209475832353325
 11
1.205602841678699
 21
0.1267311932892411
 72
     1
 10
1.205602841678699
 20
0.1267311932892408
 11
1.205602841678699
 21
0.1330745075419143
 72
     1
 10
1.205602841678699
 20
0.1330745075419144
 11
1.205602841678699
 21
0.1395111058277156
 72
     1
 10
1.205602841678699
 20
0.1395111058277158
 11
1.205602841678699
 21
0.1452947158816239
 72
     1
 10
1.205602841678699
 20
0.145294715881624
 11
1.205602841678699
 21
0.1498656335048746
 72
     1
 10
1.205602841678699
 20
0.1498656335048745
 11
1.205602841678699
 21
0.1525708704655738
 97
        0
 75
     0
 76
     1
 98
        1
 10
-0.3743130907707726
 20
-0.2500502867693841
1001
ACAD
1010
0.0
1020
0.0
1030
0.0
  0
HATCH
  5
2B51
330
2B4B
100
AcDbEntity
  8
Kawneer Logo-English
100
AcDbHatch
 10
0.0
 20
0.0
 30
0.0
210
0.0
220
0.0
230
1.0
  2
SOLID
 70
     1
 71
     0
 91
        1
 92
        1
 93
       87
 72
     1
 10
1.049352086190046
 20
0.1525708704655737
 11
1.051217766852597
 21
0.1525708704655737
 72
     1
 10
1.051217766852596
 20
0.1525708704655737
 11
1.054949128177699
 21
0.1525708704655737
 72
     1
 10
1.0549491281777
 20
0.1525708704655737
 11
1.060173034032843
 21
0.1525708704655737
 72
     1
 10
1.060173034032843
 20
0.1525708704655737
 11
1.0667962003849
 21
0.1525708704655737
 72
     1
 10
1.0667962003849
 20
0.1525708704655737
 11
1.074352207068231
 21
0.1525708704655737
 72
     1
 10
1.074352207068232
 20
0.1525708704655737
 11
1.082747770049711
 21
0.1525708704655737
 72
     1
 10
1.082747770049711
 20
0.1525708704655737
 11
1.0915164691637
 21
0.1525708704655737
 72
     1
 10
1.091516469163701
 20
0.1525708704655737
 11
1.100565020377075
 21
0.1525708704655737
 72
     1
 10
1.100565020377073
 20
0.1525708704655737
 11
1.109520287557319
 21
0.1525708704655737
 72
     1
 10
1.10952028755732
 20
0.1525708704655737
 11
1.118195702638183
 21
0.1525708704655737
 72
     1
 10
1.118195702638182
 20
0.1525708704655737
 11
1.126218129487151
 21
0.1525708704655737
 72
     1
 10
1.126218129487152
 20
0.1525708704655737
 11
1.133401000037974
 21
0.1525708704655737
 72
     1
 10
1.133401000037974
 20
0.1525708704655737
 11
1.139557746224391
 21
0.1525708704655737
 72
     1
 10
1.139557746224392
 20
0.1525708704655737
 11
1.14422194788077
 21
0.1525708704655737
 72
     1
 10
1.144221947880769
 20
0.1525708704655737
 11
1.147207036940851
 21
0.1525708704655737
 72
     1
 10
1.147207036940852
 20
0.1525708704655737
 11
1.148233161305255
 21
0.1525708704655737
 72
     1
 10
1.148233161305255
 20
0.1525708704655737
 11
1.148233161305255
 21
0.1730000737205081
 72
     1
 10
1.148233161305255
 20
0.1730000737205078
 11
1.147207036940852
 21
0.1730000737205078
 72
     1
 10
1.147207036940852
 20
0.1730000737205078
 11
1.14422194788077
 21
0.1730000737205078
 72
     1
 10
1.144221947880769
 20
0.1730000737205078
 11
1.139557746224391
 21
0.1730000737205078
 72
     1
 10
1.139557746224392
 20
0.1730000737205078
 11
1.133494284071101
 21
0.1730000737205078
 72
     1
 10
1.133494284071101
 20
0.1730000737205078
 11
1.126218129487152
 21
0.1730000737205078
 72
     1
 10
1.126218129487152
 20
0.1730000737205078
 11
1.118195702638183
 21
0.1730000737205078
 72
     1
 10
1.118195702638182
 20
0.1730000737205078
 11
1.10952028755732
 21
0.1730000737205078
 72
     1
 10
1.10952028755732
 20
0.1730000737205078
 11
1.100565020377074
 21
0.1730000737205078
 72
     1
 10
1.100565020377073
 20
0.1730000737205078
 11
1.0915164691637
 21
0.1730000737205078
 72
     1
 10
1.091516469163701
 20
0.1730000737205078
 11
1.082747770049712
 21
0.1730000737205078
 72
     1
 10
1.082747770049711
 20
0.1730000737205078
 11
1.074352207068231
 21
0.1730000737205078
 72
     1
 10
1.074352207068232
 20
0.1730000737205078
 11
1.0667962003849
 21
0.1730000737205078
 72
     1
 10
1.0667962003849
 20
0.1730000737205078
 11
1.060173034032843
 21
0.1730000737205078
 72
     1
 10
1.060173034032843
 20
0.1730000737205078
 11
1.054949128177701
 21
0.1730000737205078
 72
     1
 10
1.0549491281777
 20
0.1730000737205078
 11
1.051217766852597
 21
0.1730000737205078
 72
     1
 10
1.051217766852596
 20
0.1730000737205078
 11
1.049352086190045
 21
0.1730000737205078
 72
     1
 10
1.049352086190046
 20
0.1730000737205078
 11
1.049352086190046
 21
0.1754254585818243
 72
     1
 10
1.049352086190046
 20
0.1754254585818245
 11
1.049352086190046
 21
0.1794366720063095
 72
     1
 10
1.049352086190046
 20
0.1794366720063094
 11
1.049352086190046
 21
0.1843807257620694
 72
     1
 10
1.049352086190046
 20
0.1843807257620694
 11
1.049352086190046
 21
0.1898844837165951
 72
     1
 10
1.049352086190046
 20
0.1898844837165951
 11
1.049352086190046
 21
0.1952949576379935
 72
     1
 10
1.049352086190046
 20
0.1952949576379937
 11
1.049352086190046
 21
0.2003322954268815
 72
     1
 10
1.049352086190046
 20
0.2003322954268814
 11
1.049352086190046
 21
0.2042502248182386
 72
     1
 10
1.049352086190046
 20
0.2042502248182386
 11
1.049352086190046
 21
0.206675609679555
 72
     1
 10
1.049352086190046
 20
0.206675609679555
 11
1.051217766852597
 21
0.206675609679555
 72
     1
 10
1.051217766852596
 20
0.206675609679555
 11
1.055042412210825
 21
0.206675609679555
 72
     1
 10
1.055042412210827
 20
0.206675609679555
 11
1.060452886132226
 21
0.206675609679555
 72
     1
 10
1.060452886132225
 20
0.206675609679555
 11
1.067169336517409
 21
0.206675609679555
 72
     1
 10
1.06716933651741
 20
0.206675609679555
 11
1.075005195300124
 21
0.206675609679555
 72
     1
 10
1.075005195300123
 20
0.206675609679555
 11
1.083494042314731
 21
0.206675609679555
 72
     1
 10
1.083494042314732
 20
0.206675609679555
 11
1.092542593528105
 21
0.206675609679555
 72
     1
 10
1.092542593528106
 20
0.206675609679555
 11
1.10187099684086
 21
0.206675609679555
 72
     1
 10
1.101870996840861
 20
0.206675609679555
 11
1.111106116120489
 21
0.206675609679555
 72
     1
 10
1.111106116120488
 20
0.206675609679555
 11
1.119968099267605
 21
0.206675609679555
 72
     1
 10
1.119968099267605
 20
0.206675609679555
 11
1.128270378215957
 21
0.206675609679555
 72
     1
 10
1.128270378215957
 20
0.206675609679555
 11
1.135639816833034
 21
0.206675609679555
 72
     1
 10
1.135639816833034
 20
0.206675609679555
 11
1.14188984705258
 21
0.206675609679555
 72
     1
 10
1.141889847052581
 20
0.206675609679555
 11
1.146647332742086
 21
0.206675609679555
 72
     1
 10
1.146647332742086
 20
0.206675609679555
 11
1.149725705835295
 21
0.206675609679555
 72
     1
 10
1.149725705835296
 20
0.206675609679555
 11
1.150845114232827
 21
0.206675609679555
 72
     1
 10
1.150845114232826
 20
0.206675609679555
 11
1.150845114232826
 21
0.2277578011663822
 72
     1
 10
1.150845114232826
 20
0.2277578011663825
 11
1.148326445338383
 21
0.2277578011663825
 72
     1
 10
1.148326445338383
 20
0.2277578011663825
 11
1.025937793875031
 21
0.2277578011663825
 72
     1
 10
1.025937793875032
 20
0.2277578011663825
 11
1.025937793875032
 21
0.0926825211976832
 72
     1
 10
1.025937793875032
 20
0.0926825211976832
 11
1.155602599922332
 21
0.0926825211976832
 72
     1
 10
1.155602599922332
 20
0.0926825211976832
 11
1.155602599922332
 21
0.113671428651383
 72
     1
 10
1.155602599922332
 20
0.1136714286513832
 11
1.154483191524801
 21
0.1136714286513832
 72
     1
 10
1.154483191524799
 20
0.1136714286513832
 11
1.151218250365336
 21
0.1136714286513832
 72
     1
 10
1.151218250365338
 20
0.1136714286513832
 11
1.146180912576449
 21
0.1136714286513832
 72
     1
 10
1.146180912576449
 20
0.1136714286513832
 11
1.13965103025752
 21
0.1136714286513832
 72
     1
 10
1.13965103025752
 20
0.1136714286513832
 11
1.131908455507932
 21
0.1136714286513832
 72
     1
 10
1.131908455507931
 20
0.1136714286513832
 11
1.12323304042707
 21
0.1136714286513832
 72
     1
 10
1.123233040427071
 20
0.1136714286513832
 11
1.113904637114314
 21
0.1136714286513832
 72
     1
 10
1.113904637114314
 20
0.1136714286513832
 11
1.104296381702177
 21
0.1136714286513832
 72
     1
 10
1.104296381702177
 20
0.1136714286513832
 11
1.094501558223783
 21
0.1136714286513832
 72
     1
 10
1.094501558223784
 20
0.1136714286513832
 11
1.085079870877901
 21
0.1136714286513832
 72
     1
 10
1.085079870877899
 20
0.1136714286513832
 11
1.076124603697654
 21
0.1136714286513832
 72
     1
 10
1.076124603697655
 20
0.1136714286513832
 11
1.067915608782429
 21
0.1136714286513832
 72
     1
 10
1.067915608782429
 20
0.1136714286513832
 11
1.060919306297863
 21
0.1136714286513832
 72
     1
 10
1.060919306297863
 20
0.1136714286513832
 11
1.055228980277083
 21
0.1136714286513832
 72
     1
 10
1.055228980277082
 20
0.1136714286513832
 11
1.051311050885725
 21
0.1136714286513832
 72
     1
 10
1.051311050885726
 20
0.1136714286513832
 11
1.049352086190046
 21
0.1136714286513832
 72
     1
 10
1.049352086190046
 20
0.1136714286513832
 11
1.049352086190046
 21
0.1163766656120825
 72
     1
 10
1.049352086190046
 20
0.1163766656120823
 11
1.049352086190046
 21
0.1209475832353323
 72
     1
 10
1.049352086190046
 20
0.1209475832353325
 11
1.049352086190046
 21
0.1267311932892411
 72
     1
 10
1.049352086190046
 20
0.1267311932892408
 11
1.049352086190046
 21
0.1330745075419143
 72
     1
 10
1.049352086190046
 20
0.1330745075419144
 11
1.049352086190046
 21
0.1395111058277156
 72
     1
 10
1.049352086190046
 20
0.1395111058277158
 11
1.049352086190046
 21
0.1452947158816239
 72
     1
 10
1.049352086190046
 20
0.145294715881624
 11
1.049352086190046
 21
0.1498656335048746
 72
     1
 10
1.049352086190046
 20
0.1498656335048745
 11
1.049352086190046
 21
0.1525708704655738
 97
        0
 75
     0
 76
     1
 98
        1
 10
-0.3743130907707726
 20
-0.2500502867693841
1001
ACAD
1010
0.0
1020
0.0
1030
0.0
  0
HATCH
  5
2B52
330
2B4B
100
AcDbEntity
  8
Kawneer Logo-English
100
AcDbHatch
 10
0.0
 20
0.0
 30
0.0
210
0.0
220
0.0
230
1.0
  2
SOLID
 70
     1
 71
     0
 91
        1
 92
        1
 93
       42
 72
     1
 10
0.9725793269260698
 20
0.2277578011663825
 11
0.9725793269260698
 21
0.1354998924032311
 72
     1
 10
0.9725793269260698
 20
0.1354998924032311
 11
0.9729524630585808
 21
0.1264513411898582
 72
     1
 10
0.9729524630585796
 20
0.1264513411898583
 11
0.9729524630585796
 21
0.1255185008585825
 72
     1
 10
0.9729524630585796
 20
0.1255185008585824
 11
0.9731390311248343
 21
0.1238393882622866
 72
     1
 10
0.9731390311248349
 20
0.1238393882622866
 11
0.9717397706279211
 21
0.1254252168254551
 72
     1
 10
0.97173977062792
 20
0.1254252168254551
 11
0.9710867823960281
 21
0.1262647731236031
 72
     1
 10
0.9710867823960294
 20
0.1262647731236031
 11
0.9641837639445897
 21
0.1339140638400625
 72
     1
 10
0.9641837639445899
 20
0.1339140638400624
 11
0.8755639324734129
 21
0.2277578011663823
 72
     1
 10
0.8755639324734115
 20
0.2277578011663825
 11
0.8529891964565429
 21
0.2277578011663825
 72
     1
 10
0.8529891964565434
 20
0.2277578011663825
 11
0.8529891964565434
 21
0.0926825211976832
 72
     1
 10
0.8529891964565434
 20
0.0926825211976832
 11
0.8756572165065401
 21
0.0926825211976832
 72
     1
 10
0.875657216506541
 20
0.0926825211976832
 11
0.875657216506541
 21
0.1927762887435495
 72
     1
 10
0.875657216506541
 20
0.1927762887435495
 11
0.875657216506541
 21
0.1931494248760597
 72
     1
 10
0.875657216506541
 20
0.1931494248760596
 11
0.8755639324734129
 21
0.193988981174208
 72
     1
 10
0.8755639324734115
 20
0.1939889811742079
 11
0.8754706484402849
 21
0.1952949576379935
 72
     1
 10
0.8754706484402859
 20
0.1952949576379937
 11
0.8753773644071577
 21
0.1967875021680344
 72
     1
 10
0.875377364407158
 20
0.1967875021680343
 11
0.8755639324734126
 21
0.1965076500686515
 72
     1
 10
0.8755639324734115
 20
0.1965076500686517
 11
0.8756572165065396
 21
0.1963210820023967
 72
     1
 10
0.875657216506541
 20
0.1963210820023967
 11
0.8764967728046894
 21
0.1954815257042487
 72
     1
 10
0.8764967728046887
 20
0.1954815257042488
 11
0.8781758854009835
 21
0.1936158450416976
 72
     1
 10
0.8781758854009842
 20
0.1936158450416973
 11
0.8797617139641527
 21
0.1917501643791464
 72
     1
 10
0.879761713964152
 20
0.1917501643791466
 11
0.8805079862291723
 21
0.1909106080809982
 72
     1
 10
0.8805079862291727
 20
0.190910608080998
 11
0.8816273946267036
 21
0.1897911996834678
 72
     1
 10
0.8816273946267028
 20
0.1897911996834681
 11
0.884519199653657
 21
0.1867128265902584
 72
     1
 10
0.8845191996536581
 20
0.1867128265902582
 11
0.8891834013100353
 21
0.1818620568676254
 72
     1
 10
0.889183401310035
 20
0.1818620568676252
 11
0.8951535794301982
 21
0.1756120266480794
 72
     1
 10
0.8951535794301985
 20
0.1756120266480794
 11
0.9021498819147662
 21
0.1681493039978751
 72
     1
 10
0.9021498819147669
 20
0.1681493039978752
 11
0.9099857406974814
 21
0.1598470250495227
 72
     1
 10
0.9099857406974813
 20
0.1598470250495225
 11
0.9183813036789613
 21
0.1509850419024051
 72
     1
 10
0.9183813036789612
 20
0.1509850419024052
 11
0.9271500027929521
 21
0.1418432066559046
 72
     1
 10
0.9271500027929509
 20
0.1418432066559046
 11
0.9358254178738118
 21
0.1326080873762767
 72
     1
 10
0.9358254178738132
 20
0.1326080873762767
 11
0.9442209808552931
 21
0.1237461042291589
 72
     1
 10
0.9442209808552931
 20
0.1237461042291589
 11
0.9520568396380092
 21
0.1154438252808068
 72
     1
 10
0.9520568396380092
 20
0.1154438252808068
 11
0.9590531421225751
 21
0.1079811026306025
 72
     1
 10
0.959053142122574
 20
0.1079811026306024
 11
0.9650233202427372
 21
0.101731072411056
 72
     1
 10
0.9650233202427376
 20
0.101731072411056
 11
0.9695942378659868
 21
0.0968803026884232
 72
     1
 10
0.9695942378659871
 20
0.096880302688423
 11
0.9725793269260696
 21
0.0938019295952138
 72
     1
 10
0.9725793269260698
 20
0.093801929595214
 11
0.9736054512904727
 21
0.0926825211976834
 72
     1
 10
0.9736054512904726
 20
0.0926825211976832
 11
0.9952473469760661
 21
0.0926825211976832
 72
     1
 10
0.9952473469760651
 20
0.0926825211976832
 11
0.9952473469760651
 21
0.2277578011663825
 72
     1
 10
0.9952473469760651
 20
0.2277578011663825
 11
0.9927286780816201
 21
0.2277578011663825
 72
     1
 10
0.9927286780816203
 20
0.2277578011663825
 11
0.9725793269260686
 21
0.2277578011663825
 97
        0
 75
     0
 76
     1
 98
        1
 10
-0.3743130907707726
 20
-0.2500502867693841
1001
ACAD
1010
0.0
1020
0.0
1030
0.0
  0
HATCH
  5
2B53
330
2B4B
100
AcDbEntity
  8
Kawneer Logo-English
100
AcDbHatch
 10
0.0
 20
0.0
 30
0.0
210
0.0
220
0.0
230
1.0
  2
SOLID
 70
     1
 71
     0
 91
        2
 92
       16
 93
       32
 72
     1
 10
0.5269615006757409
 20
0.144641727649731
 11
0.5290137494045469
 21
0.148652941074216
 72
     1
 10
0.5290137494045464
 20
0.1486529410742159
 11
0.5322786905640116
 21
0.1551828233931449
 72
     1
 10
0.532278690564012
 20
0.1551828233931452
 11
0.5364764720547521
 21
0.1633918183083696
 72
     1
 10
0.5364764720547526
 20
0.1633918183083696
 11
0.5409541056448736
 21
0.1722538014554874
 72
     1
 10
0.5409541056448726
 20
0.1722538014554873
 11
0.545338455201869
 21
0.1808359325032223
 72
     1
 10
0.5453384552018701
 20
0.1808359325032223
 11
0.5490698165269726
 21
0.1882053711202994
 72
     1
 10
0.549069816526973
 20
0.1882053711202996
 11
0.5515884854214162
 21
0.1932427089091875
 72
     1
 10
0.5515884854214148
 20
0.1932427089091872
 11
0.5526146097858177
 21
0.1952016736048658
 72
     1
 10
0.5526146097858194
 20
0.1952016736048658
 11
0.552801177852074
 21
0.195761377803631
 72
     1
 10
0.5528011778520723
 20
0.1957613778036309
 11
0.5533608820508379
 21
0.1970673542674166
 72
     1
 10
0.5533608820508378
 20
0.1970673542674169
 11
0.5542004383489863
 21
0.1990263189630955
 72
     1
 10
0.5542004383489872
 20
0.1990263189630952
 11
0.5550399946471356
 21
0.2012651357581567
 72
     1
 10
0.5550399946471352
 20
0.2012651357581567
 11
0.5555064148127727
 21
0.2001457273606265
 72
     1
 10
0.5555064148127729
 20
0.2001457273606264
 11
0.5560661190115385
 21
0.198933034929968
 72
     1
 10
0.5560661190115379
 20
0.198933034929968
 11
0.5567191072434298
 21
0.197533774433055
 72
     1
 10
0.5567191072434304
 20
0.197533774433055
 11
0.5574653795084506
 21
0.1959479458698865
 72
     1
 10
0.557465379508451
 20
0.1959479458698865
 11
0.5583049358065995
 21
0.1942688332735902
 72
     1
 10
0.5583049358065986
 20
0.1942688332735903
 11
0.5606370366347874
 21
0.1896046316172126
 72
     1
 10
0.5606370366347871
 20
0.1896046316172126
 11
0.5639952618273804
 21
0.1828881812320289
 72
     1
 10
0.5639952618273814
 20
0.1828881812320287
 11
0.5680064752518651
 21
0.1748657543830587
 72
     1
 10
0.5680064752518637
 20
0.1748657543830589
 11
0.57239082480886
 21
0.1661903393021966
 72
     1
 10
0.5723908248088612
 20
0.1661903393021967
 11
0.5765886062996012
 21
0.1577947763207168
 72
     1
 10
0.5765886062996
 20
0.1577947763207165
 11
0.5803199676247008
 21
0.1503320536705122
 72
     1
 10
0.5803199676247015
 20
0.1503320536705122
 11
0.5831184886185295
 21
0.144641727649731
 72
     1
 10
0.5831184886185295
 20
0.144641727649731
 11
0.5791072751940441
 21
0.144641727649731
 72
     1
 10
0.5791072751940436
 20
0.144641727649731
 11
0.5724841088419869
 21
0.144641727649731
 72
     1
 10
0.5724841088419872
 20
0.144641727649731
 11
0.5641818298936356
 21
0.144641727649731
 72
     1
 10
0.5641818298936352
 20
0.144641727649731
 11
0.5550399946471351
 21
0.144641727649731
 72
     1
 10
0.5550399946471352
 20
0.144641727649731
 11
0.5458981594006351
 21
0.144641727649731
 72
     1
 10
0.5458981594006352
 20
0.144641727649731
 11
0.5375958804522815
 21
0.144641727649731
 72
     1
 10
0.5375958804522814
 20
0.144641727649731
 11
0.5310659981333528
 21
0.144641727649731
 72
     1
 10
0.5310659981333524
 20
0.144641727649731
 11
0.5269615006757405
 21
0.144641727649731
 97
        0
 92
        1
 93
      141
 72
     1
 10
0.5656743744236757
 20
0.2277578011663825
 11
0.544405614870593
 21
0.2277578011663825
 72
     1
 10
0.544405614870593
 20
0.2277578011663825
 11
0.4748157261574382
 21
0.0934287934627039
 72
     1
 10
0.4748157261574378
 20
0.0934287934627039
 11
0.4729500454948865
 21
0.0955743262246376
 72
     1
 10
0.4729500454948874
 20
0.0955743262246376
 11
0.4699649564348049
 21
0.0991191194834847
 72
     1
 10
0.4699649564348043
 20
0.0991191194834847
 11
0.4661403110765752
 21
0.1036900371067346
 72
     1
 10
0.4661403110765754
 20
0.1036900371067347
 11
0.4615693934533244
 21
0.1091005110281331
 72
     1
 10
0.461569393453325
 20
0.109100511028133
 11
0.456345487598182
 21
0.1152572572145517
 72
     1
 10
0.4563454875981812
 20
0.1152572572145516
 11
0.4506551615774008
 21
0.1219737075997353
 72
     1
 10
0.4506551615774015
 20
0.1219737075997354
 11
0.4447782674903648
 21
0.1290632941174296
 72
     1
 10
0.4447782674903636
 20
0.1290632941174296
 11
0.4387148053370722
 21
0.1362461646682511
 72
     1
 10
0.4387148053370727
 20
0.1362461646682512
 11
0.4326513431837832
 21
0.1433357511859454
 72
     1
 10
0.4326513431837844
 20
0.1433357511859453
 11
0.4268677331298759
 21
0.1502387696373844
 72
     1
 10
0.4268677331298756
 20
0.1502387696373844
 11
0.4214572592084763
 21
0.1566753679231857
 72
     1
 10
0.4214572592084754
 20
0.1566753679231858
 11
0.4165132054527153
 21
0.1625522620102216
 72
     1
 10
0.4165132054527163
 20
0.1625522620102216
 11
0.4123154239619763
 21
0.1674963157659821
 72
     1
 10
0.4123154239619753
 20
0.1674963157659822
 11
0.4088639147362555
 21
0.1715075291904667
 72
     1
 10
0.4088639147362568
 20
0.1715075291904669
 11
0.4065318139080681
 21
0.1743993342174211
 72
     1
 10
0.4065318139080665
 20
0.1743993342174211
 11
0.405319121477409
 21
0.1757985947143345
 72
     1
 10
0.4053191214774104
 20
0.1757985947143345
 11
0.4067183819743243
 21
0.1769180031118651
 72
     1
 10
0.4067183819743235
 20
0.1769180031118651
 11
0.4094236189350213
 21
0.1788769678075437
 72
     1
 10
0.4094236189350218
 20
0.1788769678075437
 11
0.4132482642932526
 21
0.1816754888013702
 72
     1
 10
0.4132482642932525
 20
0.1816754888013703
 11
0.4179124659496298
 21
0.1852202820602174
 72
     1
 10
0.417912465949629
 20
0.1852202820602174
 11
0.4232296558379
 21
0.189138211451575
 72
     1
 10
0.4232296558379001
 20
0.1891382114515751
 11
0.4291065499249351
 21
0.1935225610085696
 72
     1
 10
0.4291065499249367
 20
0.1935225610085698
 11
0.4352632961113562
 21
0.1981867626649482
 72
     1
 10
0.4352632961113554
 20
0.1981867626649479
 11
0.4416066103640296
 21
0.2028509643213252
 72
     1
 10
0.4416066103640293
 20
0.2028509643213252
 11
0.4479499246167016
 21
0.2076084500108307
 72
     1
 10
0.4479499246167018
 20
0.2076084500108307
 11
0.4540133867699932
 21
0.2120860836009535
 72
     1
 10
0.4540133867699927
 20
0.2120860836009535
 11
0.4596104287576467
 21
0.2162838650916932
 72
     1
 10
0.4596104287576468
 20
0.216283865091693
 11
0.4646477665465351
 21
0.2200152264167952
 72
     1
 10
0.464647766546535
 20
0.2200152264167951
 11
0.4689388320704013
 21
0.223186883543132
 72
     1
 10
0.4689388320704016
 20
0.2231868835431323
 11
0.4721104891967386
 21
0.2256122684044488
 72
     1
 10
0.4721104891967376
 20
0.2256122684044488
 11
0.4742560219586717
 21
0.2271980969676172
 72
     1
 10
0.4742560219586727
 20
0.2271980969676173
 11
0.475002294223693
 21
0.2277578011663825
 72
     1
 10
0.4750022942236929
 20
0.2277578011663825
 11
0.4674462875403612
 21
0.2277578011663825
 72
     1
 10
0.4674462875403611
 20
0.2277578011663825
 11
0.4395543616352215
 21
0.2277578011663825
 72
     1
 10
0.439554361635222
 20
0.2277578011663825
 11
0.4386215213039473
 21
0.2270115289013622
 72
     1
 10
0.4386215213039466
 20
0.2270115289013622
 11
0.4359162843432469
 21
0.2250525642056836
 72
     1
 10
0.4359162843432465
 20
0.2250525642056836
 11
0.4318117868856346
 21
0.2220674751456017
 72
     1
 10
0.4318117868856351
 20
0.2220674751456017
 11
0.4264013129642376
 21
0.2180562617211167
 72
     1
 10
0.4264013129642379
 20
0.2180562617211168
 11
0.4200579987115638
 21
0.2132987760316117
 72
     1
 10
0.4200579987115641
 20
0.2132987760316114
 11
0.4128751281607416
 21
0.2079815861433408
 72
     1
 10
0.4128751281607408
 20
0.2079815861433408
 11
0.4051325534111546
 21
0.20229126012256
 72
     1
 10
0.4051325534111552
 20
0.20229126012256
 11
0.397016842529058
 21
0.1963210820023964
 72
     1
 10
0.3970168425290583
 20
0.1963210820023967
 11
0.3889011316469611
 21
0.1903509038822331
 72
     1
 10
0.3889011316469611
 20
0.190350903882233
 11
0.3808787047979902
 21
0.1844740097951972
 72
     1
 10
0.3808787047979898
 20
0.1844740097951974
 11
0.3733226981146581
 21
0.1787836837744166
 72
     1
 10
0.373322698114658
 20
0.1787836837744166
 11
0.3663263956300919
 21
0.173653061952401
 72
     1
 10
0.3663263956300931
 20
0.173653061952401
 11
0.3601696494436735
 21
0.169082144329151
 72
     1
 10
0.3601696494436726
 20
0.1690821443291508
 11
0.3550390276216579
 21
0.1653507830040483
 72
     1
 10
0.3550390276216584
 20
0.1653507830040482
 11
0.3513076662965558
 21
0.1625522620102218
 72
     1
 10
0.3513076662965551
 20
0.1625522620102216
 11
0.3490688495014928
 21
0.1609664334470531
 72
     1
 10
0.3490688495014926
 20
0.1609664334470531
 11
0.3490688495014926
 21
0.1631119662089868
 72
     1
 10
0.3490688495014926
 20
0.1631119662089868
 11
0.3490688495014926
 21
0.1662836233353237
 72
     1
 10
0.3490688495014926
 20
0.1662836233353238
 11
0.3490688495014926
 21
0.1702948367598088
 72
     1
 10
0.3490688495014926
 20
0.1702948367598088
 11
0.3490688495014926
 21
0.1749590384161865
 72
     1
 10
0.3490688495014926
 20
0.1749590384161865
 11
0.3490688495014926
 21
0.1801829442713294
 72
     1
 10
0.3490688495014926
 20
0.1801829442713296
 11
0.3490688495014926
 21
0.185779986258983
 72
     1
 10
0.3490688495014926
 20
0.1857799862589829
 11
0.3490688495014926
 21
0.1916568803460187
 72
     1
 10
0.3490688495014926
 20
0.1916568803460186
 11
0.3490688495014926
 21
0.1975337744330549
 72
     1
 10
0.3490688495014926
 20
0.197533774433055
 11
0.3490688495014926
 21
0.2033173844869632
 72
     1
 10
0.3490688495014926
 20
0.2033173844869631
 11
0.3490688495014926
 21
0.2088211424414888
 72
     1
 10
0.3490688495014926
 20
0.2088211424414888
 11
0.3490688495014926
 21
0.2139517642635044
 72
     1
 10
0.3490688495014926
 20
0.2139517642635044
 11
0.3490688495014926
 21
0.2185226818867544
 72
     1
 10
0.3490688495014926
 20
0.2185226818867545
 11
0.3490688495014926
 21
0.2222540432118567
 72
     1
 10
0.3490688495014926
 20
0.2222540432118567
 11
0.3490688495014926
 21
0.2252391322719387
 72
     1
 10
0.3490688495014926
 20
0.2252391322719387
 11
0.3490688495014926
 21
0.2271048129344895
 72
     1
 10
0.3490688495014926
 20
0.2271048129344895
 11
0.3490688495014926
 21
0.2277578011663825
 72
     1
 10
0.3490688495014926
 20
0.2277578011663825
 11
0.3258411252527322
 21
0.2277578011663825
 72
     1
 10
0.3258411252527336
 20
0.2277578011663825
 11
0.3258411252527336
 21
0.0926825211976832
 72
     1
 10
0.3258411252527336
 20
0.0926825211976832
 11
0.3486957133689848
 21
0.0926825211976832
 72
     1
 10
0.3486957133689845
 20
0.0926825211976832
 11
0.3486957133689845
 21
0.0943616337939795
 72
     1
 10
0.3486957133689845
 20
0.0943616337939795
 11
0.3486957133689845
 21
0.0988392673841017
 72
     1
 10
0.3486957133689845
 20
0.0988392673841017
 11
0.3486957133689845
 21
0.1051825816367752
 72
     1
 10
0.3486957133689845
 20
0.1051825816367753
 11
0.3486957133689845
 21
0.1125520202538523
 72
     1
 10
0.3486957133689845
 20
0.1125520202538524
 11
0.3486957133689845
 21
0.1200147429040567
 72
     1
 10
0.3486957133689845
 20
0.1200147429040567
 11
0.3486957133689845
 21
0.1267311932892408
 72
     1
 10
0.3486957133689845
 20
0.1267311932892408
 11
0.3486957133689845
 21
0.1317685310781287
 72
     1
 10
0.3486957133689845
 20
0.1317685310781289
 11
0.3486957133689845
 21
0.1342871999725727
 72
     1
 10
0.3486957133689845
 20
0.1342871999725725
 11
0.3507479620977905
 21
0.1356864604694859
 72
     1
 10
0.35074796209779
 20
0.1356864604694859
 11
0.3548524595554018
 21
0.1387648335626952
 72
     1
 10
0.3548524595554015
 20
0.1387648335626952
 11
0.3605427855761835
 21
0.1428693310203079
 72
     1
 10
0.3605427855761842
 20
0.1428693310203079
 11
0.3668860998288565
 21
0.1476268167098129
 72
     1
 10
0.3668860998288568
 20
0.1476268167098129
 11
0.373322698114659
 21
0.1522910183661906
 72
     1
 10
0.373322698114658
 20
0.1522910183661908
 11
0.3791995922016947
 21
0.1565820838900582
 72
     1
 10
0.3791995922016946
 20
0.1565820838900582
 11
0.3836772257918156
 21
0.1599403090826502
 72
     1
 10
0.3836772257918159
 20
0.1599403090826503
 11
0.386195894686261
 21
0.1618059897452011
 72
     1
 10
0.3861958946862609
 20
0.1618059897452011
 11
0.3873153030837921
 21
0.1604067292482882
 72
     1
 10
0.3873153030837915
 20
0.1604067292482878
 11
0.3894608358457238
 21
0.1577947763207163
 72
     1
 10
0.3894608358457248
 20
0.1577947763207165
 11
0.3925392089389353
 21
0.1541566990287417
 72
     1
 10
0.3925392089389348
 20
0.1541566990287417
 11
0.396457138330292
 21
0.149492497372364
 72
     1
 10
0.3964571383302933
 20
0.149492497372364
 11
0.4009347719204161
 21
0.1442685915172211
 72
     1
 10
0.4009347719204146
 20
0.1442685915172209
 11
0.4057855416430466
 21
0.138391697430185
 72
     1
 10
0.4057855416430463
 20
0.1383916974301853
 11
0.4109161634650628
 21
0.1322349512437666
 72
     1
 10
0.410916163465064
 20
0.1322349512437666
 11
0.4162333533533335
 21
0.1259849210242201
 72
     1
 10
0.4162333533533334
 20
0.1259849210242201
 11
0.4215505432416044
 21
0.1196416067715466
 72
     1
 10
0.4215505432416045
 20
0.1196416067715466
 11
0.4265878810304927
 21
0.113671428651383
 72
     1
 10
0.4265878810304931
 20
0.1136714286513832
 11
0.4312520826868704
 21
0.1079811026306024
 72
     1
 10
0.4312520826868696
 20
0.1079811026306024
 11
0.4355431482107378
 21
0.1029437648417141
 72
     1
 10
0.435543148210738
 20
0.1029437648417139
 11
0.4390879414695842
 21
0.0987459833509739
 72
     1
 10
0.4390879414695843
 20
0.0987459833509741
 11
0.4417931784302841
 21
0.0954810421915098
 72
     1
 10
0.4417931784302845
 20
0.0954810421915096
 11
0.4435655750597076
 21
0.0934287934627037
 72
     1
 10
0.4435655750597074
 20
0.0934287934627039
 11
0.4442185632915993
 21
0.0926825211976832
 72
     1
 10
0.4442185632915985
 20
0.0926825211976832
 11
0.4743493059918004
 21
0.0926825211976832
 72
     1
 10
0.4743493059918001
 20
0.0926825211976832
 11
0.4753754303562029
 21
0.0926825211976832
 72
     1
 10
0.4753754303562033
 20
0.0926825211976832
 11
0.5008419714000258
 21
0.0926825211976832
 72
     1
 10
0.5008419714000265
 20
0.0926825211976832
 11
0.5014949596319184
 21
0.0939884976614689
 72
     1
 10
0.501494959631919
 20
0.0939884976614688
 11
0.5031740722282155
 21
0.0973467228540609
 72
     1
 10
0.503174072228215
 20
0.0973467228540612
 11
0.5055061730564038
 21
0.1021042085435666
 72
     1
 10
0.505506173056403
 20
0.1021042085435665
 11
0.5083046940502291
 21
0.1077012505312196
 72
     1
 10
0.5083046940502292
 20
0.1077012505312194
 11
0.5111032150440553
 21
0.1134848605851279
 72
     1
 10
0.5111032150440549
 20
0.1134848605851281
 11
0.5137151679716264
 21
0.1186154824071433
 72
     1
 10
0.5137151679716277
 20
0.1186154824071433
 11
0.5156741326673071
 21
0.1226266958316283
 72
     1
 10
0.5156741326673076
 20
0.122626695831628
 11
0.5167002570317104
 21
0.1247722285935621
 72
     1
 10
0.5167002570317103
 20
0.1247722285935622
 11
0.5180062334954961
 21
0.1247722285935622
 72
     1
 10
0.5180062334954961
 20
0.1247722285935622
 11
0.5207114704561957
 21
0.1247722285935622
 72
     1
 10
0.5207114704561944
 20
0.1247722285935622
 11
0.5246293998475517
 21
0.1247722285935622
 72
     1
 10
0.5246293998475525
 20
0.1247722285935622
 11
0.5295734536033125
 21
0.1247722285935622
 72
     1
 10
0.5295734536033115
 20
0.1247722285935622
 11
0.5352637796240919
 21
0.1247722285935622
 72
     1
 10
0.5352637796240929
 20
0.1247722285935622
 11
0.5415138098436386
 21
0.1247722285935622
 72
     1
 10
0.5415138098436394
 20
0.1247722285935622
 11
0.5482302602288245
 21
0.1247722285935622
 72
     1
 10
0.5482302602288236
 20
0.1247722285935622
 11
0.5551332786802616
 21
0.1247722285935622
 72
     1
 10
0.5551332786802608
 20
0.1247722285935622
 11
0.5620362971317004
 21
0.1247722285935622
 72
     1
 10
0.5620362971317015
 20
0.1247722285935622
 11
0.5687527475168847
 21
0.1247722285935622
 72
     1
 10
0.5687527475168839
 20
0.1247722285935622
 11
0.5750027777364317
 21
0.1247722285935622
 72
     1
 10
0.5750027777364322
 20
0.1247722285935622
 11
0.5806931037572126
 21
0.1247722285935622
 72
     1
 10
0.5806931037572119
 20
0.1247722285935622
 11
0.585637157512972
 21
0.1247722285935622
 72
     1
 10
0.5856371575129727
 20
0.1247722285935622
 11
0.5895550869043299
 21
0.1247722285935622
 72
     1
 10
0.5895550869043289
 20
0.1247722285935622
 11
0.5922603238650286
 21
0.1247722285935622
 72
     1
 10
0.5922603238650291
 20
0.1247722285935622
 11
0.5935663003288148
 21
0.1247722285935622
 72
     1
 10
0.5935663003288148
 20
0.1247722285935622
 11
0.5945924246932176
 21
0.1226266958316281
 72
     1
 10
0.5945924246932175
 20
0.122626695831628
 11
0.5965513893888953
 21
0.1186154824071431
 72
     1
 10
0.5965513893888957
 20
0.1186154824071433
 11
0.5991633423164672
 21
0.1134848605851281
 72
     1
 10
0.5991633423164667
 20
0.1134848605851281
 11
0.6019618633102946
 21
0.1077012505312196
 72
     1
 10
0.6019618633102959
 20
0.1077012505312194
 11
0.604760384304122
 21
0.1021042085435664
 72
     1
 10
0.6047603843041221
 20
0.1021042085435665
 11
0.6070924851323109
 21
0.0973467228540611
 72
     1
 10
0.6070924851323101
 20
0.0973467228540612
 11
0.6087715977286067
 21
0.0939884976614691
 72
     1
 10
0.6087715977286062
 20
0.0939884976614688
 11
0.609424585960498
 21
0.0926825211976832
 72
     1
 10
0.6094245859604986
 20
0.0926825211976832
 11
0.6363836715343633
 21
0.0926825211976832
 72
     1
 10
0.6363836715343641
 20
0.0926825211976832
 11
0.5671669189537184
 21
0.2277578011663825
 72
     1
 10
0.5671669189537179
 20
0.2277578011663825
 11
0.5656743744236758
 21
0.2277578011663825
 97
        0
 75
     0
 76
     1
 98
        1
 10
-0.3743130907707726
 20
-0.2500502867693841
1001
ACAD
1010
0.0
1020
0.0
1030
0.0
  0
HATCH
  5
2B54
330
2B4B
100
AcDbEntity
  8
Kawneer Logo-English
100
AcDbHatch
 10
0.0
 20
0.0
 30
0.0
210
0.0
220
0.0
230
1.0
  2
SOLID
 70
     1
 71
     0
 91
        1
 92
        1
 93
       69
 72
     1
 10
0.8092389849197205
 20
0.2277578011663825
 11
0.778921674153266
 21
0.1309289747799811
 72
     1
 10
0.778921674153267
 20
0.1309289747799809
 11
0.7781754018882468
 21
0.1287834420180468
 72
     1
 10
0.7781754018882468
 20
0.1287834420180467
 11
0.7776156976894812
 21
0.1270110453886236
 72
     1
 10
0.7776156976894813
 20
0.1270110453886237
 11
0.7771492775238438
 21
0.1253319327923275
 72
     1
 10
0.7771492775238436
 20
0.1253319327923274
 11
0.7766828573582045
 21
0.1238393882622867
 72
     1
 10
0.7766828573582046
 20
0.1238393882622866
 11
0.7764030052588217
 21
0.1248655126266895
 72
     1
 10
0.776403005258822
 20
0.1248655126266896
 11
0.7761231531594392
 21
0.1259849210242202
 72
     1
 10
0.7761231531594391
 20
0.1259849210242201
 11
0.7759365850931844
 21
0.1268244773223681
 72
     1
 10
0.7759365850931843
 20
0.1268244773223682
 11
0.7758433010600562
 21
0.1271976134548783
 72
     1
 10
0.7758433010600552
 20
0.1271976134548783
 11
0.7755634489606744
 21
0.1280371697530267
 72
     1
 10
0.775563448960674
 20
0.1280371697530267
 11
0.7750970287950349
 21
0.1291565781505569
 72
     1
 10
0.7750970287950363
 20
0.1291565781505568
 11
0.773977620397507
 21
0.1323282352768938
 72
     1
 10
0.7739776203975062
 20
0.1323282352768939
 11
0.7721119397349549
 21
0.1372722890326544
 72
     1
 10
0.7721119397349554
 20
0.1372722890326546
 11
0.7697798389067666
 21
0.1436156032853281
 72
     1
 10
0.769779838906767
 20
0.1436156032853281
 11
0.7670746019460673
 21
0.1511716099686602
 72
     1
 10
0.7670746019460668
 20
0.15117160996866
 11
0.7639962288528581
 21
0.1595671729501399
 72
     1
 10
0.7639962288528582
 20
0.15956717295014
 11
0.7606380036602665
 21
0.1686157241635125
 72
     1
 10
0.7606380036602652
 20
0.1686157241635125
 11
0.7572797784676718
 21
0.1778508434431408
 72
     1
 10
0.7572797784676726
 20
0.1778508434431408
 11
0.753921553275081
 21
0.187179246755896
 72
     1
 10
0.7539215532750814
 20
0.1871792467558961
 11
0.7505633280824898
 21
0.1962277979692689
 72
     1
 10
0.7505633280824902
 20
0.1962277979692689
 11
0.7474849549892814
 21
0.2046233609507488
 72
     1
 10
0.7474849549892797
 20
0.2046233609507488
 11
0.74477971802858
 21
0.2121793676340809
 72
     1
 10
0.7447797180285814
 20
0.2121793676340809
 11
0.7424476172003926
 21
0.2185226818867544
 72
     1
 10
0.7424476172003929
 20
0.2185226818867545
 11
0.7405819365378416
 21
0.2234667356425151
 72
     1
 10
0.7405819365378408
 20
0.2234667356425151
 11
0.7394625281403098
 21
0.2266383927688516
 72
     1
 10
0.7394625281403103
 20
0.2266383927688516
 11
0.7390893920078009
 21
0.2277578011663822
 72
     1
 10
0.7390893920078004
 20
0.2277578011663825
 11
0.7191266089185034
 21
0.2277578011663825
 72
     1
 10
0.7191266089185029
 20
0.2277578011663825
 11
0.6843316645619254
 21
0.1336342117406798
 72
     1
 10
0.6843316645619267
 20
0.1336342117406795
 11
0.6832122561643957
 21
0.130649122680598
 72
     1
 10
0.6832122561643961
 20
0.1306491226805981
 11
0.6823726998662476
 21
0.1282237378192816
 72
     1
 10
0.6823726998662468
 20
0.1282237378192818
 11
0.6817197116343549
 21
0.1260782050573481
 72
     1
 10
0.6817197116343552
 20
0.1260782050573481
 11
0.6811600074355896
 21
0.1241192403616695
 72
     1
 10
0.6811600074355884
 20
0.1241192403616695
 11
0.6808801553362055
 21
0.1250520806929446
 72
     1
 10
0.6808801553362059
 20
0.1250520806929445
 11
0.6805070192036949
 21
0.1261714890904751
 72
     1
 10
0.680507019203696
 20
0.1261714890904752
 11
0.6802271671043131
 21
0.1272908974880058
 72
     1
 10
0.680227167104313
 20
0.1272908974880061
 11
0.6798540309718037
 21
0.1286901579849195
 72
     1
 10
0.6798540309718031
 20
0.1286901579849194
 11
0.6794808948392922
 21
0.12980956638245
 72
     1
 10
0.6794808948392932
 20
0.1298095663824503
 11
0.6784547704748904
 21
0.1328879394756595
 72
     1
 10
0.67845477047489
 20
0.1328879394756595
 11
0.6769622259448497
 21
0.1378319932314196
 72
     1
 10
0.6769622259448496
 20
0.1378319932314196
 11
0.6750032612491701
 21
0.1441753074840938
 72
     1
 10
0.6750032612491697
 20
0.1441753074840937
 11
0.6725778763878547
 21
0.1516380301342981
 72
     1
 10
0.6725778763878556
 20
0.1516380301342981
 11
0.6699659234602841
 21
0.160033593115778
 72
     1
 10
0.6699659234602829
 20
0.160033593115778
 11
0.6671674024664549
 21
0.168988860296023
 72
     1
 10
0.6671674024664554
 20
0.168988860296023
 11
0.6642755974395012
 21
0.1782239795756509
 72
     1
 10
0.6642755974395019
 20
0.178223979575651
 11
0.6613837924125477
 21
0.1874590988552789
 72
     1
 10
0.6613837924125466
 20
0.1874590988552789
 11
0.6585852714187205
 21
0.1964143660355239
 72
     1
 10
0.6585852714187204
 20
0.1964143660355237
 11
0.6559733184911489
 21
0.2047166449838762
 72
     1
 10
0.6559733184911494
 20
0.2047166449838765
 11
0.6536412176629606
 21
0.2122726516672082
 72
     1
 10
0.6536412176629614
 20
0.2122726516672082
 11
0.6515889689341538
 21
0.2186159659198823
 72
     1
 10
0.6515889689341537
 20
0.2186159659198821
 11
0.6500964244041133
 21
0.2234667356425149
 72
     1
 10
0.6500964244041132
 20
0.2234667356425151
 11
0.6490703000397104
 21
0.2266383927688516
 72
     1
 10
0.6490703000397105
 20
0.2266383927688516
 11
0.6487904479403276
 21
0.2277578011663822
 72
     1
 10
0.648790447940328
 20
0.2277578011663825
 11
0.6237903270621445
 21
0.2277578011663825
 72
     1
 10
0.6237903270621437
 20
0.2277578011663825
 11
0.6676338226320932
 21
0.0926825211976832
 72
     1
 10
0.6676338226320926
 20
0.0926825211976832
 11
0.6922608073777669
 21
0.0926825211976832
 72
     1
 10
0.6922608073777666
 20
0.0926825211976832
 11
0.726029627369941
 21
0.1855001341596003
 72
     1
 10
0.7260296273699423
 20
0.1855001341596003
 11
0.7269624677012189
 21
0.1882986551534267
 72
     1
 10
0.7269624677012177
 20
0.1882986551534266
 11
0.7278020239993661
 21
0.1906307559816158
 72
     1
 10
0.727802023999367
 20
0.1906307559816159
 11
0.7284550122312589
 21
0.1927762887435496
 72
     1
 10
0.7284550122312581
 20
0.1927762887435495
 11
0.7290147164300237
 21
0.1947352534392281
 72
     1
 10
0.7290147164300232
 20
0.1947352534392282
 11
0.7298542727281716
 21
0.192216584544784
 72
     1
 10
0.729854272728173
 20
0.1922165845447839
 11
0.7306938290263214
 21
0.1894180635509575
 72
     1
 10
0.7306938290263206
 20
0.1894180635509575
 11
0.7318132374238499
 21
0.1863396904577483
 72
     1
 10
0.7318132374238511
 20
0.1863396904577481
 11
0.7331192138876387
 21
0.1827016131657736
 72
     1
 10
0.7331192138876382
 20
0.1827016131657737
 11
0.7654887733828987
 21
0.0926825211976834
 72
     1
 10
0.7654887733828986
 20
0.0926825211976832
 11
0.7895560539298075
 21
0.0926825211976832
 72
     1
 10
0.7895560539298075
 20
0.0926825211976832
 11
0.8341458217647785
 21
0.2277578011663825
 72
     1
 10
0.8341458217647783
 20
0.2277578011663825
 11
0.830601028505932
 21
0.2277578011663825
 72
     1
 10
0.8306010285059324
 20
0.2277578011663825
 11
0.8092389849197216
 21
0.2277578011663825
 97
        0
 75
     0
 76
     1
 98
        1
 10
-0.3743130907707726
 20
-0.2500502867693841
1001
ACAD
1010
0.0
1020
0.0
1030
0.0
  0
ENDBLK
  5
2B58
330
2B4B
100
AcDbEntity
  8
0
100
AcDbBlockEnd
  0
ENDSEC
  0
SECTION
  2
ENTITIES
  0
TEXT
  5
19A
330
17
100
AcDbEntity
  8
KCADSLABEL
100
AcDbText
 10
-5.288113490122753
 20
2.649124150356755
 30
0.0
 40
0.125
  1
822001
 72
     1
 11
-4.996759465566136
 21
2.612118693115434
 31
0.0
100
AcDbText
 73
     1
  0
LWPOLYLINE
  5
C81
330
17
100
AcDbEntity
  8
0
100
AcDbPolyline
 90
       41
 70
     1
 43
0.0
 10
-6.03178018796253
 20
10.20163484068632
 42
-0.1040635034746242
 10
-6.029151778645022
 20
10.2141269518828
 10
-5.971692332406907
 20
10.34462658191896
 42
0.5416234831226134
 10
-6.000063923089401
 20
10.38811869311543
 10
-6.041584330358172
 20
10.38811869311543
 42
0.2973336368416811
 10
-6.069955921040666
 20
10.36961080431191
 10
-6.173097779079181
 20
10.13535908076604
 42
-0.9999999999999998
 10
-6.190462596845875
 20
10.03687830546483
 10
-6.205584330358171
 20
9.951118693115439
 10
-6.175584330358168
 20
9.886118693115438
 10
-6.155584330358168
 20
9.886118693115438
 10
-6.15558433035817
 20
9.951118693115436
 10
-5.293084330358167
 20
9.951118693115436
 10
-5.278084330358167
 20
9.936118693115439
 10
-5.263084330358166
 20
9.951118693115436
 10
-4.731084330358166
 20
9.951118693115436
 10
-4.716084330358166
 20
9.936118693115435
 10
-4.701084330358165
 20
9.951118693115436
 10
-3.83858433035817
 20
9.951118693115436
 10
-3.838584330358171
 20
9.886118693115435
 10
-3.818584330358172
 20
9.886118693115435
 10
-3.788584330358169
 20
9.951118693115436
 10
-3.803706063870463
 20
10.03687830546482
 42
-1.0
 10
-3.821070881637157
 20
10.13535908076604
 10
-3.924212739675673
 20
10.36961080431191
 42
0.2973336368416808
 10
-3.952584330358166
 20
10.38811869311543
 10
-3.994104737626938
 20
10.38811869311543
 42
0.5416234831226136
 10
-4.022476328309431
 20
10.34462658191896
 10
-3.965016882071316
 20
10.21412695188279
 42
-0.1040635034746244
 10
-3.962388472753809
 20
10.20163484068632
 10
-3.962388472753809
 20
10.08211869311543
 42
-0.4142135623730951
 10
-3.993388472753809
 20
10.05111869311543
 10
-4.74708433035817
 20
10.05111869311543
 10
-4.74708433035817
 20
10.07611869311543
 10
-4.982084330358169
 20
10.07611869311543
 10
-4.99708433035817
 20
10.06111869311543
 10
-5.01208433035817
 20
10.07611869311543
 10
-5.24708433035817
 20
10.07611869311543
 10
-5.24708433035817
 20
10.05111869311543
 10
-6.000780187962529
 20
10.05111869311543
 42
-0.4142135623730951
 10
-6.03178018796253
 20
10.08211869311543
  0
LWPOLYLINE
  5
C82
330
17
100
AcDbEntity
  8
0
100
AcDbPolyline
 90
       12
 70
     1
 43
0.0
 10
-6.21773857250952
 20
9.961737000320436
 10
-6.203079389920296
 20
10.04487335602917
 42
1.33239341188041
 10
-6.192024190312948
 20
10.13058034337506
 10
-6.192024190312948
 20
10.63911869311544
 10
-3.802144470403382
 20
10.63911869311544
 10
-3.802144470403381
 20
10.13058034337506
 42
1.33239341188041
 10
-3.791089270796033
 20
10.04487335602917
 10
-3.77643008820681
 20
9.961737000320436
 42
0.8617744796823018
 10
-3.747084330358164
 20
9.9661187426947
 10
-3.747084330358164
 20
10.70111869311543
 10
-6.247084330358164
 20
10.70111869311543
 10
-6.247084330358164
 20
9.9661187426947
 42
0.861774479682302
  0
LINE
  5
C9A
330
17
100
AcDbEntity
  8
0
100
AcDbLine
 10
-4.246759464952981
 20
9.701618693115431
 30
0.0
 11
-3.664811916998646
 21
9.701618693115431
 31
0.0
  0
LINE
  5
C9B
330
17
100
AcDbEntity
  8
0
100
AcDbLine
 10
-6.32935674371769
 20
9.701618693115431
 30
0.0
 11
-5.746759464952981
 21
9.701618693115431
 31
0.0
  0
LWPOLYLINE
  5
D38
330
17
100
AcDbEntity
  8
0
100
AcDbPolyline
 90
        8
 70
     1
 43
0.0
 10
-6.146759465566137
 20
2.492118693115434
 42
0.4142135623730973
 10
-6.116759465566137
 20
2.462118693115433
 10
-3.876759465566135
 20
2.462118693115432
 42
0.414213562373093
 10
-3.846759465566135
 20
2.492118693115433
 10
-3.846759465566138
 20
7.481618693115439
 42
0.4142135623730951
 10
-3.876759465566138
 20
7.51161869311544
 10
-6.116759465566136
 20
7.511618693115439
 42
0.4142135623730908
 10
-6.146759465566136
 20
7.481618693115438
  0
LWPOLYLINE
  5
D39
330
17
100
AcDbEntity
  8
0
100
AcDbPolyline
 90
       69
 70
     0
 43
0.0
 10
-4.746759464952981
 20
9.108118693115432
 10
-4.746759464952981
 20
9.764118693115435
 10
-4.871759465566135
 20
9.764118693115435
 42
0.4142135623731038
 10
-4.901759465566136
 20
9.734118693115433
 10
-4.901759465566136
 20
9.574118693115433
 10
-4.881759465566136
 20
9.574118693115437
 10
-4.901759465566136
 20
9.460693056723087
 10
-4.901759465566136
 20
9.109118693115432
 42
-0.9999999999999998
 10
-5.091759465566136
 20
9.109118693115432
 10
-5.091759465566136
 20
9.460693056723087
 10
-5.111759465566136
 20
9.574118693115437
 10
-5.091759465566136
 20
9.574118693115433
 10
-5.091759465566136
 20
9.734118693115433
 42
0.4142135623730993
 10
-5.121759465566136
 20
9.764118693115435
 10
-5.246759464952981
 20
9.764118693115435
 10
-5.246759464952959
 20
9.108136202787491
 42
0.3564136925077798
 10
-5.046759465566134
 20
8.863169718837113
 10
-5.046759465566137
 20
7.711618693115438
 42
-0.4142135623730964
 10
-5.146759465566137
 20
7.611618693115438
 10
-6.096759465566135
 20
7.611618693115437
 42
-0.4142135623730974
 10
-6.156759465566135
 20
7.671618693115437
 10
-6.156759465566135
 20
7.822118693115426
 42
-0.4142135623730996
 10
-6.126759465566135
 20
7.852118693115427
 10
-5.931612279308524
 20
7.852118693115427
 42
0.1989123673796635
 10
-5.88918587243733
 20
7.869692286244236
 10
-5.755546262130536
 20
8.003331896551037
 42
0.1989123673796573
 10
-5.746759465566133
 20
8.024545099986633
 10
-5.746759465566135
 20
8.112118693115437
 10
-5.904259465566136
 20
8.112118693115437
 42
0.4142135623730951
 10
-5.934259465566137
 20
8.082118693115436
 10
-5.934259465566137
 20
8.062118693115436
 10
-5.889259465566135
 20
8.062118693115436
 10
-5.889259465566142
 20
8.006943815444227
 42
-0.3704662542213866
 10
-6.104259465566135
 20
8.006943815444243
 10
-6.104259465566135
 20
8.062118693115436
 10
-6.059259465566134
 20
8.062118693115436
 10
-6.059259465566135
 20
8.082118693115438
 42
0.4142135623730777
 10
-6.089259465566135
 20
8.112118693115435
 10
-6.216759465566135
 20
8.112118693115434
 10
-6.216759465566135
 20
8.082118693115441
 10
-6.246759465566136
 20
8.082118693115441
 10
-6.246759465566137
 20
2.362118693115434
 10
-3.746759465566136
 20
2.362118693115432
 10
-3.746759465566138
 20
8.08211869311544
 10
-3.776759465566139
 20
8.082118693115441
 10
-3.776759465566139
 20
8.112118693115434
 10
-3.90425946556614
 20
8.112118693115437
 42
0.4142135623730777
 10
-3.93425946556614
 20
8.082118693115438
 10
-3.934259465566141
 20
8.062118693115436
 10
-3.889259465566139
 20
8.062118693115436
 10
-3.889259465566139
 20
8.006943815444243
 42
-0.3704662542213866
 10
-4.104259465566133
 20
8.006943815444227
 10
-4.104259465566139
 20
8.062118693115436
 10
-4.059259465566137
 20
8.062118693115436
 10
-4.059259465566137
 20
8.082118693115436
 42
0.4142135623730864
 10
-4.089259465566138
 20
8.112118693115437
 10
-4.246759465566139
 20
8.112118693115437
 10
-4.246759465566142
 20
8.024545099986633
 42
0.1989123673796581
 10
-4.237972669001738
 20
8.003331896551037
 10
-4.104333058694944
 20
7.869692286244236
 42
0.1989123673796633
 10
-4.06190665182375
 20
7.852118693115427
 10
-3.866759465566139
 20
7.852118693115427
 42
-0.4142135623730951
 10
-3.836759465566139
 20
7.822118693115426
 10
-3.836759465566139
 20
7.671618693115437
 42
-0.4142135623730992
 10
-3.896759465566138
 20
7.611618693115438
 10
-4.846759465566138
 20
7.611618693115438
 42
-0.4142135623730951
 10
-4.946759465566137
 20
7.711618693115438
 10
-4.946759465566136
 20
8.863169718837102
 42
0.3563939586926031
 10
-4.746759465566136
 20
9.108118693115432
  0
LINE
  5
D40
330
17
100
AcDbEntity
  8
0
100
AcDbLine
 10
-5.621759464952981
 20
8.701618693115436
 30
0.0
 11
-7.246759465566137
 21
8.701618693115436
 31
0.0
  0
LINE
  5
D41
330
17
100
AcDbEntity
  8
0
100
AcDbLine
 10
-5.621759464952981
 20
8.951618693115436
 30
0.0
 11
-5.621759464952981
 21
8.701618693115436
 31
0.0
  0
LINE
  5
D42
330
17
100
AcDbEntity
  8
0
100
AcDbLine
 10
-7.246759465566137
 20
8.951618693115436
 30
0.0
 11
-5.621759464952981
 21
8.951618693115436
 31
0.0
  0
LINE
  5
D43
330
17
100
AcDbEntity
  8
0
100
AcDbLine
 10
-5.671759464952979
 20
9.451618693115435
 30
0.0
 11
-5.671759464952979
 21
8.951618693115436
 31
0.0
  0
LINE
  5
D44
330
17
100
AcDbEntity
  8
0
100
AcDbLine
 10
-5.621759464952981
 20
9.451618693115435
 30
0.0
 11
-7.246759465566137
 21
9.451618693115435
 31
0.0
  0
LINE
  5
D45
330
17
100
AcDbEntity
  8
0
100
AcDbLine
 10
-5.621759464952981
 20
9.701618693115435
 30
0.0
 11
-5.621759464952981
 21
9.451618693115435
 31
0.0
  0
LINE
  5
D46
330
17
100
AcDbEntity
  8
0
100
AcDbLine
 10
-7.246759465566137
 20
9.701618693115431
 30
0.0
 11
-5.621759464952981
 21
9.701618693115435
 31
0.0
  0
LINE
  5
D47
330
17
100
AcDbEntity
  8
0
100
AcDbLine
 10
-2.747409195150201
 20
9.701618693115431
 30
0.0
 11
-4.371759464952981
 21
9.701618693115435
 31
0.0
  0
LINE
  5
D48
330
17
100
AcDbEntity
  8
0
100
AcDbLine
 10
-4.371759464952981
 20
9.451618693115435
 30
0.0
 11
-2.747409195150201
 21
9.451618693115435
 31
0.0
  0
LINE
  5
D49
330
17
100
AcDbEntity
  8
0
100
AcDbLine
 10
-2.747409195150201
 20
8.951618693115436
 30
0.0
 11
-4.371759464952981
 21
8.951618693115436
 31
0.0
  0
LINE
  5
D4A
330
17
100
AcDbEntity
  8
0
100
AcDbLine
 10
-4.371759464952981
 20
8.701618693115436
 30
0.0
 11
-2.747409195150201
 21
8.701618693115436
 31
0.0
  0
LINE
  5
D51
330
17
100
AcDbEntity
  8
0
100
AcDbLine
 10
-4.371759464952981
 20
9.701618693115435
 30
0.0
 11
-4.371759464952981
 21
9.451618693115435
 31
0.0
  0
LINE
  5
D52
330
17
100
AcDbEntity
  8
0
100
AcDbLine
 10
-4.321759464952984
 20
9.451618693115435
 30
0.0
 11
-4.321759464952984
 21
8.951618693115436
 31
0.0
  0
LINE
  5
D53
330
17
100
AcDbEntity
  8
0
100
AcDbLine
 10
-4.371759464952981
 20
8.951618693115436
 30
0.0
 11
-4.371759464952981
 21
8.701618693115436
 31
0.0
  0
LINE
  5
D54
330
17
100
AcDbEntity
  8
0
100
AcDbLine
 10
-3.946759464952984
 20
9.451618693115435
 30
0.0
 11
-3.946759464952984
 21
8.951618693115436
 31
0.0
  0
LINE
  5
D55
330
17
100
AcDbEntity
  8
0
100
AcDbLine
 10
-6.046759464952979
 20
9.451618693115435
 30
0.0
 11
-6.046759464952979
 21
8.951618693115436
 31
0.0
  0
LWPOLYLINE
  5
D5A
330
17
100
AcDbEntity
  8
0
100
AcDbPolyline
 90
        8
 70
     0
 43
0.0
 10
-5.776759465566136
 20
8.112118693115434
 42
0.4142135623730964
 10
-5.746759465566135
 20
8.142118693115435
 10
-5.746759465566137
 20
8.671618693115437
 42
0.4142135623730951
 10
-5.776759465566136
 20
8.701618693115438
 10
-6.216759465566136
 20
8.701618693115436
 42
0.4142135623730946
 10
-6.246759465566137
 20
8.671618693115437
 10
-6.246759465566136
 20
8.142118693115435
 42
0.4142135623730953
 10
-6.216759465566136
 20
8.112118693115435
 42
0.4142135623730953
  0
LWPOLYLINE
  5
D5B
330
17
100
AcDbEntity
  8
0
100
AcDbPolyline
 90
        8
 70
     0
 43
0.0
 10
-3.746759465566249
 20
8.576618693115435
 10
-3.746759465566137
 20
8.142118693115435
 10
-3.746759465566136
 20
8.671618693115437
 42
0.4142135623730946
 10
-3.776759465566136
 20
8.701618693115436
 10
-4.216759465566136
 20
8.701618693115438
 42
0.4142135623730951
 10
-4.246759465566137
 20
8.671618693115437
 10
-4.246759465566138
 20
8.142118693115435
 42
0.4142135623730966
 10
-4.216759465566138
 20
8.112118693115434
 42
0.4142135623730966
  0
LINE
  5
E7A
330
17
100
AcDbEntity
  8
0
  6
HIDDEN
100
AcDbLine
 10
2.753240534433864
 20
3.612118693115434
 30
0.0
 11
5.253240534433864
 21
3.612118693115434
 31
0.0
  0
LINE
  5
E7B
330
17
100
AcDbEntity
  8
0
  6
HIDDEN
100
AcDbLine
 10
2.853240534433865
 20
3.712118693115434
 30
0.0
 11
5.153240534433864
 21
3.712118693115434
 31
0.0
  0
LINE
  5
E7C
330
17
100
AcDbEntity
  8
0
  6
HIDDEN
100
AcDbLine
 10
2.753240534433865
 20
5.112118693115434
 30
0.0
 11
5.253240534433864
 21
5.112118693115434
 31
0.0
  0
LINE
  5
E7D
330
17
100
AcDbEntity
  8
0
  6
HIDDEN
100
AcDbLine
 10
2.853240534433865
 20
5.212118693115434
 30
0.0
 11
5.153240534433864
 21
5.212118693115434
 31
0.0
  0
LWPOLYLINE
  5
E80
330
17
100
AcDbEntity
  8
0
100
AcDbPolyline
 90
        8
 70
     0
 43
0.0
 10
4.783240534433863
 20
8.112118693115434
 42
-0.4142135623730966
 10
4.753240534433862
 20
8.142118693115435
 10
4.753240534433864
 20
8.671618693115437
 42
-0.4142135623730951
 10
4.783240534433863
 20
8.701618693115436
 10
5.223240534433864
 20
8.701618693115435
 42
-0.4142135623730946
 10
5.253240534433864
 20
8.671618693115437
 10
5.253240534433864
 20
8.142118693115435
 10
5.253240534433864
 20
8.671618693115437
  0
LWPOLYLINE
  5
E81
330
17
100
AcDbEntity
  8
0
100
AcDbPolyline
 90
        8
 70
     0
 43
0.0
 10
2.783240534433863
 20
8.112118693115435
 42
-0.4142135623730953
 10
2.753240534433864
 20
8.142118693115435
 10
2.753240534433864
 20
8.671618693115437
 42
-0.4142135623730946
 10
2.783240534433863
 20
8.701618693115436
 10
3.223240534433864
 20
8.701618693115438
 42
-0.4142135623730951
 10
3.253240534433864
 20
8.671618693115437
 10
3.253240534433865
 20
8.142118693115435
 42
-0.4142135623730964
 10
3.223240534433864
 20
8.112118693115434
  0
LINE
  5
E82
330
17
100
AcDbEntity
  8
0
100
AcDbLine
 10
4.628240535047019
 20
8.951618693115438
 30
0.0
 11
4.628240535047019
 21
8.701618693115438
 31
0.0
  0
LINE
  5
E83
330
17
100
AcDbEntity
  8
0
100
AcDbLine
 10
4.678240535047015
 20
9.451618693115438
 30
0.0
 11
4.678240535047015
 21
8.951618693115438
 31
0.0
  0
LINE
  5
E84
330
17
100
AcDbEntity
  8
0
100
AcDbLine
 10
4.628240535047018
 20
9.701618693115438
 30
0.0
 11
4.628240535047018
 21
9.451618693115438
 31
0.0
  0
LINE
  5
E8B
330
17
100
AcDbEntity
  8
0
100
AcDbLine
 10
4.628240535047019
 20
8.701618693115438
 30
0.0
 11
6.253240535660175
 21
8.701618693115438
 31
0.0
  0
LINE
  5
E8C
330
17
100
AcDbEntity
  8
0
100
AcDbLine
 10
6.253240535660175
 20
8.951618693115438
 30
0.0
 11
4.628240535047019
 21
8.951618693115438
 31
0.0
  0
LINE
  5
E8D
330
17
100
AcDbEntity
  8
0
100
AcDbLine
 10
4.628240535047019
 20
9.451618693115438
 30
0.0
 11
6.253240535660175
 21
9.451618693115438
 31
0.0
  0
LINE
  5
E8E
330
17
100
AcDbEntity
  8
0
100
AcDbLine
 10
6.253240535660175
 20
9.701618693115431
 30
0.0
 11
4.628240535047019
 21
9.701618693115438
 31
0.0
  0
LINE
  5
E8F
330
17
100
AcDbEntity
  8
0
100
AcDbLine
 10
1.753240534433862
 20
9.701618693115431
 30
0.0
 11
3.378240535047019
 21
9.701618693115438
 31
0.0
  0
LINE
  5
E90
330
17
100
AcDbEntity
  8
0
100
AcDbLine
 10
3.378240535047019
 20
9.701618693115438
 30
0.0
 11
3.378240535047019
 21
9.451618693115438
 31
0.0
  0
LINE
  5
E91
330
17
100
AcDbEntity
  8
0
100
AcDbLine
 10
3.378240535047019
 20
9.451618693115438
 30
0.0
 11
1.753240534433862
 21
9.451618693115438
 31
0.0
  0
LINE
  5
E92
330
17
100
AcDbEntity
  8
0
100
AcDbLine
 10
3.328240535047022
 20
9.451618693115438
 30
0.0
 11
3.328240535047022
 21
8.951618693115438
 31
0.0
  0
LINE
  5
E93
330
17
100
AcDbEntity
  8
0
100
AcDbLine
 10
1.753240534433862
 20
8.951618693115438
 30
0.0
 11
3.378240535047019
 21
8.951618693115438
 31
0.0
  0
LINE
  5
E94
330
17
100
AcDbEntity
  8
0
100
AcDbLine
 10
3.378240535047019
 20
8.951618693115438
 30
0.0
 11
3.378240535047019
 21
8.701618693115438
 31
0.0
  0
LINE
  5
E95
330
17
100
AcDbEntity
  8
0
100
AcDbLine
 10
3.378240535047019
 20
8.701618693115438
 30
0.0
 11
1.753240534433862
 21
8.701618693115438
 31
0.0
  0
LWPOLYLINE
  5
EA0
330
17
100
AcDbEntity
  8
0
100
AcDbPolyline
 90
       14
 70
     1
 43
0.0
 10
2.339240534433862
 20
6.189118693115436
 42
-0.4142135623730868
 10
2.308240534433862
 20
6.220118693115436
 10
2.308240534433862
 20
6.446618693115446
 10
2.253240534433864
 20
6.446618693115445
 10
2.253240534433864
 20
6.165368693115436
 42
0.4142135623730951
 10
2.284490534433864
 20
6.134118693115436
 10
2.722240534433863
 20
6.134118693115435
 42
0.4142135623730864
 10
2.753240534433864
 20
6.165118693115434
 10
2.753240534433864
 20
8.082118693115447
 10
2.778240534433864
 20
8.082118693115443
 10
2.778240534433864
 20
8.107118693115442
 10
2.698240534433864
 20
8.107118693115443
 10
2.698240534433864
 20
6.220118693115434
 42
-0.4142135623730951
 10
2.667240534433863
 20
6.189118693115434
  0
LWPOLYLINE
  5
EA1
330
17
100
AcDbEntity
  8
0
100
AcDbPolyline
 90
       14
 70
     1
 43
0.0
 10
5.667240534433863
 20
6.189118693115436
 42
0.4142135623730868
 10
5.698240534433864
 20
6.220118693115436
 10
5.698240534433864
 20
6.446618693115446
 10
5.753240534433862
 20
6.446618693115445
 10
5.753240534433862
 20
6.165368693115436
 42
-0.4142135623730951
 10
5.721990534433862
 20
6.134118693115436
 10
5.284240534433862
 20
6.134118693115435
 42
-0.4142135623730864
 10
5.253240534433862
 20
6.165118693115434
 10
5.253240534433862
 20
8.082118693115447
 10
5.228240534433862
 20
8.082118693115443
 10
5.228240534433862
 20
8.107118693115442
 10
5.308240534433862
 20
8.107118693115443
 10
5.308240534433862
 20
6.220118693115434
 42
0.4142135623730951
 10
5.339240534433862
 20
6.189118693115434
  0
LWPOLYLINE
  5
EA2
330
17
100
AcDbEntity
  8
0
100
AcDbPolyline
 90
       69
 70
     0
 43
0.0
 10
4.253240535047019
 20
9.108118693115432
 10
4.253240535047019
 20
9.764118693115435
 10
4.128240534433867
 20
9.764118693115435
 42
0.4142135623731038
 10
4.098240534433866
 20
9.734118693115437
 10
4.098240534433866
 20
9.574118693115433
 10
4.118240534433866
 20
9.574118693115437
 10
4.098240534433866
 20
9.460693056723087
 10
4.098240534433866
 20
9.109118693115433
 42
-0.9999999999999998
 10
3.908240534433865
 20
9.109118693115433
 10
3.908240534433865
 20
9.460693056723087
 10
3.888240534433865
 20
9.574118693115437
 10
3.908240534433865
 20
9.574118693115433
 10
3.908240534433865
 20
9.734118693115437
 42
0.4142135623730993
 10
3.878240534433865
 20
9.764118693115435
 10
3.753240535047019
 20
9.764118693115435
 10
3.753240535047043
 20
9.108136202787491
 42
0.3564136925077798
 10
3.953240534433867
 20
8.863169718837113
 10
3.953240534433865
 20
7.71161869311544
 42
-0.4142135623730964
 10
3.853240534433865
 20
7.611618693115438
 10
2.903240534433868
 20
7.611618693115438
 42
-0.4142135623730974
 10
2.843240534433867
 20
7.671618693115437
 10
2.843240534433867
 20
7.822118693115427
 42
-0.4142135623730996
 10
2.873240534433866
 20
7.852118693115428
 10
3.068387720691479
 20
7.852118693115428
 42
0.1989123673796635
 10
3.110814127562672
 20
7.869692286244237
 10
3.244453737869466
 20
8.003331896551038
 42
0.1989123673796573
 10
3.253240534433869
 20
8.024545099986635
 10
3.253240534433867
 20
8.112118693115437
 10
3.095740534433865
 20
8.112118693115437
 42
0.4142135623730951
 10
3.065740534433865
 20
8.082118693115436
 10
3.065740534433865
 20
8.062118693115436
 10
3.110740534433865
 20
8.062118693115436
 10
3.11074053443386
 20
8.006943815444227
 42
-0.3704662542213866
 10
2.895740534433867
 20
8.006943815444245
 10
2.895740534433867
 20
8.062118693115436
 10
2.940740534433869
 20
8.062118693115436
 10
2.940740534433867
 20
8.08211869311544
 42
0.4142135623730777
 10
2.910740534433868
 20
8.112118693115437
 10
2.783240534433867
 20
8.112118693115434
 10
2.783240534433867
 20
8.082118693115443
 10
2.753240534433865
 20
8.082118693115443
 10
2.753240534433865
 20
2.362118693115434
 10
5.253240534433865
 20
2.362118693115433
 10
5.253240534433864
 20
8.08211869311544
 10
5.223240534433863
 20
8.082118693115443
 10
5.223240534433863
 20
8.112118693115434
 10
5.095740534433861
 20
8.112118693115437
 42
0.4142135623730777
 10
5.065740534433862
 20
8.08211869311544
 10
5.06574053443386
 20
8.062118693115436
 10
5.110740534433862
 20
8.062118693115436
 10
5.110740534433862
 20
8.006943815444245
 42
-0.3704662542213866
 10
4.895740534433869
 20
8.006943815444227
 10
4.895740534433862
 20
8.062118693115436
 10
4.940740534433864
 20
8.062118693115436
 10
4.940740534433864
 20
8.082118693115436
 42
0.4142135623730864
 10
4.910740534433863
 20
8.112118693115437
 10
4.753240534433862
 20
8.112118693115437
 10
4.75324053443386
 20
8.024545099986635
 42
0.1989123673796581
 10
4.762027330998263
 20
8.003331896551038
 10
4.895666941305057
 20
7.869692286244237
 42
0.1989123673796633
 10
4.93809334817625
 20
7.852118693115428
 10
5.133240534433863
 20
7.852118693115428
 42
-0.4142135623730951
 10
5.163240534433862
 20
7.822118693115427
 10
5.163240534433862
 20
7.671618693115437
 42
-0.4142135623730992
 10
5.103240534433863
 20
7.611618693115438
 10
4.153240534433864
 20
7.611618693115438
 42
-0.4142135623730951
 10
4.053240534433864
 20
7.71161869311544
 10
4.053240534433864
 20
8.863169718837102
 42
0.3563939586926031
 10
4.253240534433865
 20
9.108118693115432
  0
LWPOLYLINE
  5
EA3
330
17
100
AcDbEntity
  8
0
100
AcDbPolyline
 90
        8
 70
     1
 43
0.0
 10
2.853240534433865
 20
2.492118693115434
 42
0.4142135623730973
 10
2.883240534433864
 20
2.462118693115434
 10
5.123240534433866
 20
2.462118693115432
 42
0.414213562373093
 10
5.153240534433866
 20
2.492118693115433
 10
5.153240534433864
 20
7.481618693115439
 42
0.4142135623730951
 10
5.123240534433863
 20
7.51161869311544
 10
2.883240534433866
 20
7.51161869311544
 42
0.4142135623730908
 10
2.853240534433865
 20
7.481618693115439
  0
LINE
  5
F26
330
17
100
AcDbEntity
  8
0
100
AcDbLine
 10
3.878240535047019
 20
9.951118693115436
 30
0.0
 11
3.753240535047019
 21
9.951118693115436
 31
0.0
  0
LINE
  5
F49
330
17
100
AcDbEntity
  8
0
100
AcDbLine
 10
2.941240535047018
 20
9.451618693115435
 30
0.0
 11
2.941240535047018
 21
8.951618693115435
 31
0.0
  0
LINE
  5
F4A
330
17
100
AcDbEntity
  8
0
100
AcDbLine
 10
5.065240535047021
 20
9.451618693115435
 30
0.0
 11
5.065240535047021
 21
8.951618693115438
 31
0.0
  0
LINE
  5
F4F
330
17
100
AcDbEntity
  8
0
100
AcDbLine
 10
3.753240535047019
 20
9.951118693115436
 30
0.0
 11
3.765740535047019
 21
9.951118693115436
 31
0.0
  0
LWPOLYLINE
  5
F50
330
17
100
AcDbEntity
  8
0
100
AcDbPolyline
 90
       41
 70
     1
 43
0.0
 10
2.968219812037473
 20
10.20163484068632
 42
-0.1040635034746242
 10
2.97084822135498
 20
10.2141269518828
 10
3.028307667593095
 20
10.34462658191896
 42
0.5416234831226134
 10
2.999936076910602
 20
10.38811869311543
 10
2.95841566964183
 20
10.38811869311543
 42
0.2973336368416811
 10
2.930044078959337
 20
10.36961080431191
 10
2.826902220920821
 20
10.13535908076604
 42
-0.9999999999999998
 10
2.809537403154127
 20
10.03687830546483
 10
2.794415669641832
 20
9.951118693115439
 10
2.824415669641835
 20
9.886118693115438
 10
2.844415669641835
 20
9.886118693115438
 10
2.844415669641833
 20
9.951118693115436
 10
3.706915669641835
 20
9.951118693115436
 10
3.721915669641836
 20
9.936118693115439
 10
3.736915669641836
 20
9.951118693115436
 10
4.268915669641836
 20
9.951118693115436
 10
4.283915669641837
 20
9.936118693115435
 10
4.298915669641838
 20
9.951118693115436
 10
5.161415669641831
 20
9.951118693115436
 10
5.161415669641829
 20
9.886118693115435
 10
5.181415669641829
 20
9.886118693115435
 10
5.211415669641832
 20
9.951118693115436
 10
5.196293936129539
 20
10.03687830546482
 42
-1.0
 10
5.178929118362844
 20
10.13535908076604
 10
5.075787260324329
 20
10.36961080431191
 42
0.2973336368416808
 10
5.047415669641836
 20
10.38811869311543
 10
5.005895262373064
 20
10.38811869311543
 42
0.5416234831226136
 10
4.977523671690571
 20
10.34462658191896
 10
5.034983117928685
 20
10.21412695188279
 42
-0.1040635034746244
 10
5.037611527246193
 20
10.20163484068632
 10
5.037611527246193
 20
10.08211869311543
 42
-0.4142135623730951
 10
5.006611527246192
 20
10.05111869311543
 10
4.252915669641833
 20
10.05111869311543
 10
4.252915669641833
 20
10.07611869311543
 10
4.017915669641833
 20
10.07611869311543
 10
4.002915669641833
 20
10.06111869311543
 10
3.987915669641832
 20
10.07611869311543
 10
3.752915669641833
 20
10.07611869311543
 10
3.752915669641833
 20
10.05111869311543
 10
2.999219812037473
 20
10.05111869311543
 42
-0.4142135623730951
 10
2.968219812037473
 20
10.08211869311543
  0
LWPOLYLINE
  5
F51
330
17
100
AcDbEntity
  8
0
100
AcDbPolyline
 90
       12
 70
     1
 43
0.0
 10
2.782261427490482
 20
9.961737000320436
 10
2.796920610079705
 20
10.04487335602917
 42
1.33239341188041
 10
2.807975809687054
 20
10.13058034337506
 10
2.807975809687054
 20
10.63911869311544
 10
5.197855529596619
 20
10.63911869311544
 10
5.197855529596621
 20
10.13058034337506
 42
1.33239341188041
 10
5.208910729203967
 20
10.04487335602917
 10
5.223569911793191
 20
9.961737000320436
 42
0.8617744796823018
 10
5.252915669641836
 20
9.9661187426947
 10
5.252915669641836
 20
10.70111869311543
 10
2.752915669641836
 20
10.70111869311543
 10
2.752915669641836
 20
9.9661187426947
 42
0.861774479682302
  0
LWPOLYLINE
  5
F72
330
17
100
AcDbEntity
  8
0
100
AcDbPolyline
 90
        2
 70
     0
 43
0.0
 10
-3.776759465566139
 20
8.112118693115434
 42
0.3804013464600456
 10
-3.746759465566137
 20
8.142118693115435
 42
0.3804013464600456
  0
LINE
  5
F73
330
17
100
AcDbEntity
  8
0
  6
HIDDEN
100
AcDbLine
 10
-6.146759465566137
 20
5.212118693115434
 30
0.0
 11
-3.846759465566139
 21
5.212118693115434
 31
0.0
  0
LINE
  5
F74
330
17
100
AcDbEntity
  8
0
  6
HIDDEN
100
AcDbLine
 10
-6.246759465566137
 20
5.112118693115434
 30
0.0
 11
-3.746759465566139
 21
5.112118693115434
 31
0.0
  0
LINE
  5
F75
330
17
100
AcDbEntity
  8
0
  6
HIDDEN
100
AcDbLine
 10
-6.146759465566137
 20
3.712118693115434
 30
0.0
 11
-3.846759465566139
 21
3.712118693115434
 31
0.0
  0
LINE
  5
F76
330
17
100
AcDbEntity
  8
0
  6
HIDDEN
100
AcDbLine
 10
-6.246759465566139
 20
3.612118693115434
 30
0.0
 11
-3.746759465566139
 21
3.612118693115434
 31
0.0
  0
ARC
  5
F78
330
17
100
AcDbEntity
  8
0
100
AcDbCircle
 10
5.193075425672473
 20
8.158665199373583
 30
0.0
 40
0.0623989357410913
100
AcDbArc
 50
304.3018707440246
 51
344.6227736720131
  0
TEXT
  5
F84
330
17
100
AcDbEntity
  8
KCADSLABEL
100
AcDbText
 10
-5.288113490122753
 20
3.899124150356755
 30
0.0
 40
0.125
  1
822002
 72
     1
 11
-4.996759465566136
 21
3.862118693115434
 31
0.0
100
AcDbText
 73
     1
  0
TEXT
  5
F87
330
17
100
AcDbEntity
  8
KCADSLABEL
100
AcDbText
 10
-5.288113490122753
 20
5.399124150356755
 30
0.0
 40
0.125
  1
822003
 72
     1
 11
-4.996759465566136
 21
5.362118693115434
 31
0.0
100
AcDbText
 73
     1
  0
TEXT
  5
F8D
330
17
100
AcDbEntity
  8
KCADSLABEL
100
AcDbText
 10
-5.288438354914786
 20
10.20906452981595
 30
0.0
 40
0.125
  1
216051
 72
     1
 11
-4.99708433035817
 21
10.27156452981595
 31
0.0
100
AcDbText
 73
     2
  0
TEXT
  5
F8E
330
17
100
AcDbEntity
  8
KCADSLABEL
100
AcDbText
 10
-5.288438354914786
 20
10.79730492814933
 30
0.0
 40
0.125
  1
216103
 72
     1
 11
-4.99708433035817
 21
10.85980492814933
 31
0.0
100
AcDbText
 73
     2
  0
TEXT
  5
F8F
330
17
100
AcDbEntity
  8
KCADSLABEL
100
AcDbText
 10
3.711561645085216
 20
10.79730492814933
 30
0.0
 40
0.125
  1
216103
 72
     1
 11
4.002915669641833
 21
10.85980492814933
 31
0.0
100
AcDbText
 73
     2
  0
TEXT
  5
F90
330
17
100
AcDbEntity
  8
KCADSLABEL
100
AcDbText
 10
3.711561645085216
 20
10.20906452981595
 30
0.0
 40
0.125
  1
216051
 72
     1
 11
4.002915669641833
 21
10.27156452981595
 31
0.0
100
AcDbText
 73
     2
  0
TEXT
  5
F91
330
17
100
AcDbEntity
  8
KCADSLABEL
100
AcDbText
 10
3.711886509877251
 20
5.399124150356756
 30
0.0
 40
0.125
  1
822003
 72
     1
 11
4.003240534433867
 21
5.362118693115435
 31
0.0
100
AcDbText
 73
     1
  0
TEXT
  5
F92
330
17
100
AcDbEntity
  8
KCADSLABEL
100
AcDbText
 10
3.711886509877251
 20
3.899124150356756
 30
0.0
 40
0.125
  1
822002
 72
     1
 11
4.003240534433867
 21
3.862118693115435
 31
0.0
100
AcDbText
 73
     1
  0
TEXT
  5
F93
330
17
100
AcDbEntity
  8
KCADSLABEL
100
AcDbText
 10
3.711886509877251
 20
2.649124150356755
 30
0.0
 40
0.125
  1
822001
 72
     1
 11
4.003240534433867
 21
2.612118693115434
 31
0.0
100
AcDbText
 73
     1
  0
TEXT
  5
F95
330
17
100
AcDbEntity
  8
KCADSLABEL
100
AcDbText
 10
1.849299278822547
 20
6.643407912973975
 30
0.0
 40
0.125
  1
822010
 72
     1
 11
2.140653303379163
 21
6.606402455732654
 31
0.0
100
AcDbText
 73
     1
  0
TEXT
  5
F96
330
17
100
AcDbEntity
  8
KCADSLABEL
100
AcDbText
 10
5.54720514326066
 20
6.643407912973975
 30
0.0
 40
0.125
  1
822010
 72
     1
 11
5.838559167817276
 21
6.606402455732654
 31
0.0
100
AcDbText
 73
     1
  0
LINE
  5
FB7
330
17
100
AcDbEntity
  8
0
100
AcDbLine
 10
-6.050779121354758
 20
9.951118693115439
 30
0.0
 11
-6.050779121354758
 21
9.701618693115438
 31
0.0
  0
LINE
  5
FB8
330
17
100
AcDbEntity
  8
0
100
AcDbLine
 10
-6.050779121354758
 20
9.701618693115438
 30
0.0
 11
-6.315328749283084
 21
9.701618693115438
 31
0.0
  0
LINE
  5
FB9
330
17
100
AcDbEntity
  8
0
100
AcDbLine
 10
-6.315328749283084
 20
9.701618693115438
 30
0.0
 11
-6.247084330358175
 21
9.951118693115434
 31
0.0
  0
LINE
  5
FC2
330
17
100
AcDbEntity
  8
0
100
AcDbLine
 10
-6.130779121354758
 20
9.951118693115439
 30
0.0
 11
-6.050779121354758
 21
9.951118693115439
 31
0.0
  0
LINE
  5
FC3
330
17
100
AcDbEntity
  8
0
100
AcDbLine
 10
-5.750779121354758
 20
9.951118693115439
 30
0.0
 11
-6.050779121354758
 21
9.951118693115439
 31
0.0
  0
LINE
  5
FC5
330
17
100
AcDbEntity
  8
0
100
AcDbLine
 10
-6.050779121354758
 20
9.701618693115438
 30
0.0
 11
-5.750779121354758
 21
9.701618693115438
 31
0.0
  0
LINE
  5
FC6
330
17
100
AcDbEntity
  8
0
100
AcDbLine
 10
-5.750779121354758
 20
9.701618693115438
 30
0.0
 11
-5.750779121354758
 21
9.951118693115439
 31
0.0
  0
LINE
  5
FC7
330
17
100
AcDbEntity
  8
0
100
AcDbLine
 10
-6.205584330358171
 20
9.951118693115434
 30
0.0
 11
-6.247084330358175
 21
9.951118693115434
 31
0.0
  0
LINE
  5
FC8
330
17
100
AcDbEntity
  8
0
100
AcDbLine
 10
-4.747084330358164
 20
9.764118693115438
 30
0.0
 11
-4.747084330358164
 21
9.951118693115436
 31
0.0
  0
LINE
  5
FC9
330
17
100
AcDbEntity
  8
0
100
AcDbLine
 10
-4.747084330358164
 20
9.951118693115436
 30
0.0
 11
-4.872084330358166
 21
9.951118693115436
 31
0.0
  0
LINE
  5
FCA
330
17
100
AcDbEntity
  8
0
100
AcDbLine
 10
-4.872084330358166
 20
9.951118693115436
 30
0.0
 11
-4.872084330358167
 21
9.857618693115437
 31
0.0
  0
LINE
  5
FCB
330
17
100
AcDbEntity
  8
0
100
AcDbLine
 10
-4.872084330358167
 20
9.857618693115437
 30
0.0
 11
-5.122084330358164
 21
9.857618693115441
 31
0.0
  0
LINE
  5
FCC
330
17
100
AcDbEntity
  8
0
100
AcDbLine
 10
-5.122084330358164
 20
9.857618693115441
 30
0.0
 11
-5.122084330358164
 21
9.951118693115436
 31
0.0
  0
LINE
  5
FCD
330
17
100
AcDbEntity
  8
0
100
AcDbLine
 10
-5.122084330358164
 20
9.951118693115436
 30
0.0
 11
-5.247084330358166
 21
9.951118693115436
 31
0.0
  0
LINE
  5
FCE
330
17
100
AcDbEntity
  8
0
100
AcDbLine
 10
-5.247084330358166
 20
9.951118693115436
 30
0.0
 11
-5.247084330358168
 21
9.764118693115442
 31
0.0
  0
LINE
  5
FCF
330
17
100
AcDbEntity
  8
0
100
AcDbLine
 10
-5.247084330358168
 20
9.764118693115442
 30
0.0
 11
-5.121759465566135
 21
9.764118693115438
 31
0.0
  0
LINE
  5
FDD
330
17
100
AcDbEntity
  8
0
100
AcDbLine
 10
-4.871759465566135
 20
9.764118693115438
 30
0.0
 11
-4.747084330358164
 21
9.764118693115438
 31
0.0
  0
LINE
  5
FDE
330
17
100
AcDbEntity
  8
0
100
AcDbLine
 10
-3.94338953936158
 20
9.951118693115436
 30
0.0
 11
-3.94338953936158
 21
9.701618693115438
 31
0.0
  0
LINE
  5
FDF
330
17
100
AcDbEntity
  8
0
100
AcDbLine
 10
-3.94338953936158
 20
9.701618693115438
 30
0.0
 11
-3.678839911433254
 21
9.701618693115438
 31
0.0
  0
LINE
  5
FE0
330
17
100
AcDbEntity
  8
0
100
AcDbLine
 10
-3.678839911433254
 20
9.701618693115438
 30
0.0
 11
-3.747084330358164
 21
9.951118693115436
 31
0.0
  0
LINE
  5
FE1
330
17
100
AcDbEntity
  8
0
100
AcDbLine
 10
-3.747084330358164
 20
9.951118693115436
 30
0.0
 11
-3.788584330358169
 21
9.951118693115436
 31
0.0
  0
LINE
  5
FE9
330
17
100
AcDbEntity
  8
0
100
AcDbLine
 10
-3.86338953936158
 20
9.951118693115436
 30
0.0
 11
-3.94338953936158
 21
9.951118693115436
 31
0.0
  0
LINE
  5
FEA
330
17
100
AcDbEntity
  8
0
100
AcDbLine
 10
-4.243389539361579
 20
9.951118693115436
 30
0.0
 11
-3.94338953936158
 21
9.951118693115436
 31
0.0
  0
LINE
  5
FEC
330
17
100
AcDbEntity
  8
0
100
AcDbLine
 10
-3.94338953936158
 20
9.701618693115438
 30
0.0
 11
-4.243389539361579
 21
9.701618693115438
 31
0.0
  0
LINE
  5
FED
330
17
100
AcDbEntity
  8
0
100
AcDbLine
 10
-4.243389539361579
 20
9.701618693115438
 30
0.0
 11
-4.243389539361579
 21
9.951118693115436
 31
0.0
  0
LINE
  5
FEE
330
17
100
AcDbEntity
  8
0
100
AcDbLine
 10
2.949220878645244
 20
9.951118693115439
 30
0.0
 11
2.949220878645244
 21
9.701618693115438
 31
0.0
  0
LINE
  5
FEF
330
17
100
AcDbEntity
  8
0
100
AcDbLine
 10
2.949220878645244
 20
9.701618693115438
 30
0.0
 11
2.684671250716917
 21
9.701618693115438
 31
0.0
  0
LINE
  5
FF0
330
17
100
AcDbEntity
  8
0
100
AcDbLine
 10
2.684671250716917
 20
9.701618693115438
 30
0.0
 11
2.752915669641829
 21
9.951118693115439
 31
0.0
  0
LINE
  5
FF1
330
17
100
AcDbEntity
  8
0
100
AcDbLine
 10
2.752915669641829
 20
9.951118693115439
 30
0.0
 11
2.794415669641832
 21
9.951118693115439
 31
0.0
  0
LINE
  5
FF9
330
17
100
AcDbEntity
  8
0
100
AcDbLine
 10
2.869220878645243
 20
9.951118693115439
 30
0.0
 11
2.949220878645244
 21
9.951118693115439
 31
0.0
  0
LINE
  5
FFA
330
17
100
AcDbEntity
  8
0
100
AcDbLine
 10
3.249220878645243
 20
9.951118693115439
 30
0.0
 11
2.949220878645244
 21
9.951118693115439
 31
0.0
  0
LINE
  5
FFC
330
17
100
AcDbEntity
  8
0
100
AcDbLine
 10
2.949220878645244
 20
9.701618693115438
 30
0.0
 11
3.249220878645243
 21
9.701618693115438
 31
0.0
  0
LINE
  5
FFD
330
17
100
AcDbEntity
  8
0
100
AcDbLine
 10
3.249220878645243
 20
9.701618693115438
 30
0.0
 11
3.249220878645243
 21
9.951118693115439
 31
0.0
  0
LINE
  5
FFE
330
17
100
AcDbEntity
  8
0
100
AcDbLine
 10
4.252915669641835
 20
9.764118693115431
 30
0.0
 11
4.252915669641835
 21
9.951118693115429
 31
0.0
  0
LINE
  5
FFF
330
17
100
AcDbEntity
  8
0
100
AcDbLine
 10
4.252915669641835
 20
9.951118693115429
 30
0.0
 11
4.127915669641833
 21
9.951118693115429
 31
0.0
  0
LINE
  5
1000
330
17
100
AcDbEntity
  8
0
100
AcDbLine
 10
4.127915669641833
 20
9.951118693115429
 30
0.0
 11
4.127915669641833
 21
9.85761869311543
 31
0.0
  0
LINE
  5
1001
330
17
100
AcDbEntity
  8
0
100
AcDbLine
 10
4.127915669641833
 20
9.85761869311543
 30
0.0
 11
3.877915669641836
 21
9.85761869311543
 31
0.0
  0
LINE
  5
1002
330
17
100
AcDbEntity
  8
0
100
AcDbLine
 10
3.877915669641836
 20
9.85761869311543
 30
0.0
 11
3.877915669641835
 21
9.951118693115429
 31
0.0
  0
LINE
  5
1003
330
17
100
AcDbEntity
  8
0
100
AcDbLine
 10
3.877915669641835
 20
9.951118693115429
 30
0.0
 11
3.752915669641833
 21
9.951118693115429
 31
0.0
  0
LINE
  5
1004
330
17
100
AcDbEntity
  8
0
100
AcDbLine
 10
3.752915669641833
 20
9.951118693115429
 30
0.0
 11
3.752915669641833
 21
9.764118693115435
 31
0.0
  0
LINE
  5
1018
330
17
100
AcDbEntity
  8
0
100
AcDbLine
 10
5.056610460638422
 20
9.951118693115436
 30
0.0
 11
5.056610460638422
 21
9.701618693115438
 31
0.0
  0
LINE
  5
1019
330
17
100
AcDbEntity
  8
0
100
AcDbLine
 10
5.056610460638422
 20
9.701618693115438
 30
0.0
 11
5.321160088566749
 21
9.701618693115438
 31
0.0
  0
LINE
  5
101A
330
17
100
AcDbEntity
  8
0
100
AcDbLine
 10
5.321160088566749
 20
9.701618693115438
 30
0.0
 11
5.252915669641836
 21
9.951118693115436
 31
0.0
  0
LINE
  5
101B
330
17
100
AcDbEntity
  8
0
100
AcDbLine
 10
5.252915669641836
 20
9.951118693115436
 30
0.0
 11
5.211415669641832
 21
9.951118693115436
 31
0.0
  0
LINE
  5
1023
330
17
100
AcDbEntity
  8
0
100
AcDbLine
 10
5.136610460638422
 20
9.951118693115436
 30
0.0
 11
5.056610460638422
 21
9.951118693115436
 31
0.0
  0
LINE
  5
1024
330
17
100
AcDbEntity
  8
0
100
AcDbLine
 10
4.756610460638423
 20
9.951118693115436
 30
0.0
 11
5.056610460638422
 21
9.951118693115436
 31
0.0
  0
LINE
  5
1026
330
17
100
AcDbEntity
  8
0
100
AcDbLine
 10
5.056610460638422
 20
9.701618693115438
 30
0.0
 11
4.756610460638423
 21
9.701618693115438
 31
0.0
  0
LINE
  5
1027
330
17
100
AcDbEntity
  8
0
100
AcDbLine
 10
4.756610460638423
 20
9.701618693115438
 30
0.0
 11
4.756610460638423
 21
9.951118693115436
 31
0.0
  0
LINE
  5
10D5
330
17
100
AcDbEntity
  8
0
100
AcDbLine
 10
-9.822498266376307
 20
-6.020862690213913
 30
0.0
 11
39.87180980926172
 21
-6.020862690213913
 31
0.0
  0
MTEXT
  5
1153
102
{ACAD_XDICTIONARY
360
1154
102
}
330
17
100
AcDbEntity
  8
TEXT
100
AcDbMText
 10
-8.82249818197787
 20
-4.020862690213913
 30
0.0
 40
0.375
 41
15.4571868900598
 71
     1
 72
     5
  1
ENGINEERING CHANGE:  97910-095 (MARCH 2017)\PFILE NAME:  KCDF021.DWG
 73
     1
 44
1.0
1001
ACAD
1000
ACAD_MTEXT_COLUMN_INFO_BEGIN
1070
    75
1070
     2
1070
    79
1070
     0
1070
    76
1070
     1
1070
    78
1070
     0
1070
    48
1040
15.4571868900598
1070
    49
1040
1.25
1070
    50
1070
     1
1040
0.0
1000
ACAD_MTEXT_COLUMN_INFO_END
1000
MTEXTBEGIN
1070
    73
1070
     1
1070
    44
1040
1.0
1070
    74
1070
     0
1000
MTEXTEND
  0
MTEXT
  5
1160
330
17
100
AcDbEntity
  8
KCADSLABEL
100
AcDbMText
 10
-0.4967594655661359
 20
1.40259739033106
 30
0.0
 40
0.375
 41
2.236369412395474
 71
     2
 72
     5
  1
RAFTER
 73
     1
 44
1.0
1001
ACAD
1000
MTEXTBEGIN
1070
    73
1070
     1
1070
    44
1040
1.0
1070
    74
1070
     0
1000
MTEXTEND
  0
MTEXT
  5
11C4
330
17
100
AcDbEntity
  8
TEXT
100
AcDbMText
 10
20.17750173362369
 20
-4.0208626902139
 30
0.0
 40
0.375
 41
5.519524215552523
 71
     2
 72
     5
  1
DETAIL SCALE: 1" = 1"
 73
     1
 44
1.0
1001
ACAD
1000
MTEXTBEGIN
1070
    73
1070
     1
1070
    44
1040
1.0
1070
    74
1070
     0
1000
MTEXTEND
  0
MTEXT
  5
11C5
330
17
100
AcDbEntity
  8
TEXT
100
AcDbMText
 10
20.17750173362369
 20
-2.961940305038821
 30
0.0
 40
0.5
 41
17.35659339253652
 71
     8
 72
     5
  1
2000 SKYLIGHT\PVERTICAL SLOPE DETAILS
 73
     1
 44
1.0
1001
ACAD
1000
MTEXTBEGIN
1070
    73
1070
     1
1070
    44
1040
1.0
1070
    74
1070
     0
1000
MTEXTEND
  0
MTEXT
  5
12E4
330
17
100
AcDbEntity
  8
KCADSLABEL
100
AcDbMText
 10
13.00291566964183
 20
1.40259739033106
 30
0.0
 40
0.375
 41
3.545386062268362
 71
     2
 72
     5
  1
TRANSITION
 73
     1
 44
1.0
1001
ACAD
1000
MTEXTBEGIN
1070
    73
1070
     1
1070
    44
1040
1.0
1070
    74
1070
     0
1000
MTEXTEND
  0
LINE
  5
138A
330
17
100
AcDbEntity
  8
0
100
AcDbLine
 10
22.87180577640217
 20
9.180026032358199
 30
0.0
 11
22.90774583065922
 21
9.2007760323582
 31
0.0
  0
LWPOLYLINE
  5
138B
330
17
100
AcDbEntity
  8
0
100
AcDbPolyline
 90
       34
 70
     1
 43
0.0
 10
22.13275956899604
 20
10.33874134476339
 10
22.11758007707173
 20
10.40503299600938
 10
22.06902996083773
 20
10.46289277145212
 42
0.363970234266201
 10
22.02978258310103
 20
10.46981314306915
 10
21.67157665567938
 20
10.26300285444694
 10
21.64657665567938
 20
10.27743661117668
 10
21.6056128925076
 20
10.25378617148243
 42
-0.8430389971007711
 10
21.53000811318445
 20
10.34473749056517
 10
21.47642096054445
 20
10.37567604756697
 42
0.5849358278678714
 10
21.43668159844827
 20
10.35212758697624
 10
21.44171453464839
 20
10.1302918969932
 10
21.23706171484245
 20
10.01213553638782
 10
21.22456171484245
 20
10.03378617148244
 10
21.02104574495311
 20
9.916286171482434
 10
21.01555536389634
 20
9.895795790425669
 10
20.99506498283957
 20
9.901286171482437
 10
20.79154901295023
 20
9.783786171482434
 10
20.80404901295023
 20
9.762135536387825
 10
20.15972611253461
 20
9.390135536387822
 42
-0.414213562373095
 10
20.11737932501729
 20
9.401482323905138
 10
20.01337932501729
 20
9.581615607892304
 42
0.4142135623730868
 10
19.97103253749997
 20
9.592962395409623
 10
19.94530564146854
 20
9.578108965060465
 42
0.2679491924311292
 10
19.92980564146854
 20
9.551262177543149
 10
19.92980564146854
 20
9.436369473974414
 10
19.97743703867669
 20
9.463869473974414
 10
20.01343703867669
 20
9.401515644901932
 10
19.95997541769486
 20
9.370649563636758
 10
20.02353065072095
 20
9.19603299600938
 10
20.07335115879664
 20
9.149741344763393
 10
20.09933192091017
 20
9.164741344763392
 10
20.06683192091017
 20
9.221032996009382
 10
22.0742788068825
 20
10.38003299600938
 10
22.1067788068825
 20
10.32374134476339
  0
LWPOLYLINE
  5
138C
330
17
100
AcDbEntity
  8
0
100
AcDbPolyline
 90
       24
 70
     1
 43
0.0
 10
22.87832501428864
 20
9.108734381112201
 10
22.86100450621295
 20
9.098734381112201
 10
22.82850450621295
 20
9.155026032358192
 10
22.39549180432073
 20
8.905026032358199
 10
22.36049180432072
 20
8.965647810623126
 10
22.14398545337461
 20
8.840647810623122
 10
22.17898545337462
 20
8.780026032358204
 10
21.90532142577873
 20
8.622026032358204
 10
21.87032142577873
 20
8.682647810623116
 10
21.63822661756451
 20
8.548647810623116
 10
21.6732266175645
 20
8.488026032358204
 10
21.39956258996862
 20
8.330026032358203
 10
21.36456258996863
 20
8.390647810623111
 10
21.14805623902252
 20
8.265647810623107
 10
21.18305623902251
 20
8.205026032358201
 10
20.7500435371303
 20
7.955026032358192
 10
20.7825435371303
 20
7.898734381112202
 10
20.76522302905461
 20
7.888734381112202
 10
20.70674226694108
 20
7.93002603235819
 10
20.67574226694108
 20
7.983719607392826
 10
20.72186146781792
 20
8.155838808269662
 10
22.66868657552529
 20
9.279838808269682
 10
22.84080577640217
 20
9.233719607392826
 10
22.87180577640217
 20
9.18002603235819
  0
LWPOLYLINE
  5
138D
330
17
100
AcDbEntity
  8
0
100
AcDbPolyline
 90
       12
 70
     0
 43
0.0
 10
23.5593371196889
 20
7.989836548478811
 10
23.42293811753083
 20
7.911086547865656
 42
0.4142135623730639
 10
23.41195735541729
 20
7.870105785752125
 10
23.42195735541729
 20
7.852785277676433
 10
23.46092849858759
 20
7.875285277676434
 10
23.48851593742319
 20
7.82750243196248
 42
-0.3704662542213858
 10
23.30232047560955
 20
7.720002431962472
 10
23.27473303677394
 20
7.767785277676436
 10
23.31370417994424
 20
7.790285277676437
 10
23.30370417994424
 20
7.807605785752125
 42
0.4142135623730832
 10
23.26272341783071
 20
7.818586547865658
 10
23.12632441806218
 20
7.739836548632096
  0
LWPOLYLINE
  5
138E
330
17
100
AcDbEntity
  8
0
100
AcDbPolyline
 90
        6
 70
     0
 43
0.0
 10
23.5593371196889
 20
7.989836548478811
 10
23.5593371196889
 20
8.108193353662686
 42
0.5773502691896213
 10
23.5368371196889
 20
8.121183734719453
 10
23.07681479935259
 20
7.855589724240049
 42
0.4142135616547307
 10
23.07132441827743
 20
7.835099343215143
 10
23.12632441806218
 20
7.739836548632096
  0
LINE
  5
138F
330
17
100
AcDbEntity
  8
0
100
AcDbLine
 10
22.73066246394041
 20
8.521083579316682
 30
0.0
 11
22.98066246394041
 21
8.088070877424462
 31
0.0
  0
LINE
  5
1390
330
17
100
AcDbEntity
  8
0
100
AcDbLine
 10
21.34853750946333
 20
7.723113364795624
 30
0.0
 11
21.59853750946334
 21
7.290100662903409
 31
0.0
  0
LWPOLYLINE
  5
1391
330
17
100
AcDbEntity
  8
0
100
AcDbPolyline
 90
        6
 70
     0
 43
0.0
 10
21.39427360597975
 20
6.739836546026177
 10
21.29177360597975
 20
6.799014948618113
 42
-0.5773502691896213
 10
21.29177360597974
 20
6.824995710731647
 10
21.75179592631605
 20
7.090589721211054
 42
-0.4142135616547307
 10
21.77228630735442
 20
7.085099340186149
 10
21.82728630760647
 20
6.989836545872895
  0
LWPOLYLINE
  5
1392
330
17
100
AcDbEntity
  8
0
100
AcDbPolyline
 90
        4
 70
     0
 43
0.0
 10
23.86315714415483
 20
9.463604822389106
 10
22.56236119375119
 20
8.712589930262792
 10
22.6873611937512
 20
8.496083579316684
 10
23.98815714415484
 20
9.247098471443001
  0
LWPOLYLINE
  5
1393
330
17
100
AcDbEntity
  8
0
100
AcDbPolyline
 90
        4
 70
     0
 43
0.0
 10
24.23815714415483
 20
8.81408576955078
 10
22.9373611937512
 20
8.063070877424463
 10
23.06236119375119
 20
7.846564526478355
 10
24.36315714415484
 20
8.59757941860467
  0
LWPOLYLINE
  5
1394
330
17
100
AcDbEntity
  8
0
100
AcDbPolyline
 90
        4
 70
     0
 43
0.0
 10
19.96604282924893
 20
7.213604823615398
 10
21.26683877965255
 20
7.964619715741733
 10
21.39183877965255
 20
7.748113364795624
 10
20.09104282924893
 20
6.997098472669293
  0
LWPOLYLINE
  5
1395
330
17
100
AcDbEntity
  8
0
100
AcDbPolyline
 90
        4
 70
     0
 43
0.0
 10
20.34104282924892
 20
6.564085770777073
 10
21.64183877965255
 20
7.315100662903409
 10
21.76683877965256
 20
7.098594311957301
 10
20.46604282924892
 20
6.347579419830963
  0
LWPOLYLINE
  5
1396
330
17
100
AcDbEntity
  8
0
 62
     4
100
AcDbPolyline
 90
        8
 70
     1
 43
0.0
 10
21.73069665761992
 20
6.397134735105892
 42
0.4142135623730974
 10
21.71971589550639
 20
6.356153972992358
 10
22.44346589550639
 20
5.102582201014388
 42
0.4142135623730951
 10
22.48444665761991
 20
5.091601438900854
 10
23.68683711862688
 20
5.785801895234262
 42
0.2679491924311188
 10
23.70183711862688
 20
5.811782657347795
 10
23.70183711862688
 20
7.483211686651761
 42
0.577350269189633
 10
23.65683711862688
 20
7.509192448765295
  0
LWPOLYLINE
  5
1397
330
17
100
AcDbEntity
  8
0
100
AcDbPolyline
 90
       71
 70
     1
 43
0.0
 10
23.42293811753083
 20
7.911086547865656
 42
0.414213562373069
 10
23.41195735541729
 20
7.870105785752125
 10
23.42195735541729
 20
7.852785277676435
 10
23.46092849858759
 20
7.875285277676436
 10
23.48851593742319
 20
7.827502431962484
 42
-0.3704662542213875
 10
23.30232047560955
 20
7.720002431962472
 10
23.27473303677394
 20
7.767785277676436
 10
23.31370417994424
 20
7.790285277676437
 10
23.30370417994424
 20
7.807605785752125
 42
0.4142135623730951
 10
23.26272341783071
 20
7.818586547865658
 10
23.12632441673466
 20
7.739836547865658
 10
23.13632441673466
 20
7.722516039789971
 42
0.4142135623730951
 10
23.17730517884819
 20
7.711535277676437
 10
23.19803892087223
 20
7.675623383059784
 42
0.1533065830697025
 10
23.2245141919973
 20
7.651305329865472
 42
0.2453282281231514
 10
23.46033076768076
 20
7.661320577976312
 10
23.57291407017275
 20
7.726320577976309
 42
-0.4142135623730951
 10
23.61389483228629
 20
7.715339815862778
 10
23.65389483228628
 20
7.646057783560026
 42
-0.4142135623730951
 10
23.64291407017274
 20
7.605077021446497
 10
22.58636307702472
 20
6.995077021139914
 42
-0.4142135623730951
 10
22.50440155279766
 20
7.017038545366981
 10
22.20615155279766
 20
7.533622698724389
 10
22.33605536336533
 20
7.608622698724389
 42
0.4142135623730951
 10
22.42756171431144
 20
7.950129049670499
 10
22.09956171431143
 20
8.518241714553104
 10
21.99130853830737
 20
8.45574171424653
 42
0.4142135623731124
 10
21.98032777619383
 20
8.414760952132995
 10
22.06032777619384
 20
8.276196887527484
 10
22.07764828426952
 20
8.286196887527486
 10
22.11704059439001
 20
8.177967404971296
 10
22.29282777619384
 20
7.873495074767719
 42
-0.9999999999999998
 10
22.12828294947479
 20
7.778495074767716
 10
21.95249576767096
 20
8.082967404971293
 10
21.8784624413991
 20
8.171196887527486
 10
21.89578294947479
 20
8.181196887527482
 10
21.81578294947479
 20
8.319760952132995
 42
0.4142135623730951
 10
21.77480218736126
 20
8.330741714246528
 10
21.66654901241921
 20
8.268241714553104
 10
22.41779901241922
 20
6.967038545366978
 42
-0.4142135623730927
 10
22.39583748819215
 20
6.885077021139913
 10
21.68569665761992
 20
6.47507702144649
 42
-0.4142135623731062
 10
21.64471589550639
 20
6.486057783560023
 10
21.60471589550639
 20
6.555339815862781
 42
-0.4142135623730821
 10
21.61569665761992
 20
6.596320577976314
 10
21.7282799601119
 20
6.661320577976322
 42
0.2453282281231869
 10
21.85486170724283
 20
6.860536099096266
 42
0.1533065830696677
 10
21.84703929096849
 20
6.895623383059811
 10
21.82630554894447
 20
6.93153527767644
 42
0.4142135623730951
 10
21.837286311058
 20
6.972516039789974
 10
21.827286311058
 20
6.989836547865664
 10
21.69088730996195
 20
6.911086547865661
 42
0.4142135623730951
 10
21.67990654784842
 20
6.870105785752128
 10
21.68990654784842
 20
6.852785277676439
 10
21.72887769101873
 20
6.875285277676439
 10
21.75646512985432
 20
6.82750243196247
 42
-0.3704662542213863
 10
21.57026966804067
 20
6.720002431962488
 10
21.54268222920507
 20
6.76778527767644
 10
21.58165337237537
 20
6.79028527767644
 10
21.57165337237537
 20
6.80760578575213
 42
0.414213562373069
 10
21.53067261026184
 20
6.818586547865661
 10
21.39427360916579
 20
6.739836547865658
 10
22.42552360916579
 20
4.953659152560257
 10
24.59058711862688
 20
6.203659152560256
 10
24.40308711862688
 20
6.52841867897942
 10
24.34939354359225
 20
6.497418678979421
 10
24.49189354359225
 20
6.250601438900854
 10
23.83683711862688
 20
5.872404435612707
 42
-0.5773502691896196
 10
23.79183711862688
 20
5.89838519772624
 10
23.79183711862688
 20
7.587134735105893
 10
23.55933711862688
 20
7.989836547865657
  0
LINE
  5
1398
330
17
100
AcDbEntity
  8
0
100
AcDbLine
 10
20.99693119552685
 20
7.520113364795619
 30
0.0
 11
21.24693119552686
 21
7.087100662903404
 31
0.0
  0
LINE
  5
1399
330
17
100
AcDbEntity
  8
0
100
AcDbLine
 10
23.08226877787689
 20
8.724083579316681
 30
0.0
 11
23.33226877787689
 21
8.291070877424461
 31
0.0
  0
LWPOLYLINE
  5
139A
330
17
100
AcDbEntity
  8
KCADSMISC
100
AcDbPolyline
 90
       18
 70
     1
 43
0.0
 10
22.85838399501032
 20
7.209863398283102
 10
22.73838399501033
 20
7.417709495191362
 42
0.4142135623730936
 10
22.56763081953727
 20
7.463462670664418
 10
22.32690155279765
 20
7.324477563710473
 10
22.24690155279764
 20
7.463041628315982
 42
-0.4142135623730974
 10
22.26520282298686
 20
7.531342898505203
 10
22.45830069251836
 20
7.642828005459151
 42
0.4142135623730982
 10
22.50405386799141
 20
7.813581180932203
 10
22.11405386799141
 20
8.489080995884068
 10
22.54706656988363
 20
8.739080995884068
 10
22.72206656988363
 20
8.435972104559512
 10
22.70010504565656
 20
8.354010580332447
 10
22.82760504565656
 20
8.133174102367418
 10
22.90956656988363
 20
8.111212578140351
 10
23.08456656988363
 20
7.808103686815794
 10
22.85073971086183
 20
7.673103686815801
 42
0.4142135623730948
 10
22.80498653538877
 20
7.502350511342749
 10
22.94498653538877
 20
7.259863398283103
 42
-1.000001032786453
  0
LWPOLYLINE
  5
139B
330
17
100
AcDbEntity
  8
0
100
AcDbPolyline
 90
       18
 70
     1
 43
0.0
 10
21.49709370531094
 20
10.54174691485052
 10
21.64302335982586
 20
10.62599944016747
 10
22.03788157197781
 20
10.52019750109655
 10
22.12178560839789
 20
10.42020456425977
 42
0.9163314191750597
 10
22.14626666124101
 20
10.43734637227998
 10
22.060016661241
 20
10.5867357544328
 10
21.63313372255836
 20
10.70111869311543
 10
19.7387031517799
 20
9.607368693115438
 10
19.98120315177991
 20
9.187346372279982
 42
0.9163314191750304
 10
20.00828891941376
 20
9.199976681943402
 10
19.94799663469816
 20
9.365628372766838
 10
19.98052879943785
 20
9.396950268657759
 42
0.8768552549698018
 10
19.94666506527243
 20
9.441069826333482
 10
19.92332493004482
 20
9.427594392976894
 10
19.83432493004482
 20
9.581746914850524
 10
21.46245268915956
 20
10.52174691485052
 10
21.56045779173173
 20
10.35199709779453
 42
2.805883701475922
 10
21.61959370531094
 20
10.32957069092334
  0
LINE
  5
139C
330
17
100
AcDbEntity
  8
KCADSMISC
100
AcDbLine
 10
22.54706656988363
 20
8.739080995884068
 30
0.0
 11
22.56763081953727
 21
7.463462670664418
 31
0.0
  0
LINE
  5
139D
330
17
100
AcDbEntity
  8
KCADSMISC
100
AcDbLine
 10
22.11581171431142
 20
8.490095888930122
 30
0.0
 11
23.08456656988363
 21
7.808103686815794
 31
0.0
  0
TEXT
  5
139E
330
17
100
AcDbEntity
  8
KCADSLABEL
100
AcDbText
 10
19.92925055289137
 20
10.31778290892082
 30
0.0
 40
0.125
  1
822031
 50
360.0
 72
     1
 11
20.220604577448
 21
10.2807774516795
 31
0.0
100
AcDbText
 73
     1
  0
TEXT
  5
139F
330
17
100
AcDbEntity
  8
KCADSLABEL
100
AcDbText
 10
21.44249413189704
 20
9.689297130665098
 30
0.0
 40
0.125
  1
822120
 50
360.0
 72
     1
 11
21.73384815645366
 21
9.652291673423777
 31
0.0
100
AcDbText
 73
     1
  0
TEXT
  5
13A0
330
17
100
AcDbEntity
  8
KCADSLABEL
100
AcDbText
 10
20.77938740567801
 20
8.704103186733783
 30
0.0
 40
0.125
  1
822034
 50
360.0
 72
     1
 11
21.07074143023463
 21
8.667097729492462
 31
0.0
100
AcDbText
 73
     1
  0
TEXT
  5
13A1
330
17
100
AcDbEntity
  8
KCADSLABEL
100
AcDbText
 10
22.37764468991448
 20
5.663590863540592
 30
0.0
 40
0.125
  1
822005
 50
360.0
 72
     1
 11
22.6689987144711
 21
5.626585406299271
 31
0.0
100
AcDbText
 73
     1
  0
LINE
  5
13A2
330
17
100
AcDbEntity
  8
0
100
AcDbLine
 10
20.84179710482341
 20
8.007999979364916
 30
0.0
 11
20.96398681780282
 21
7.789768054043181
 31
0.0
  0
LINE
  5
13A3
330
17
100
AcDbEntity
  8
0
100
AcDbLine
 10
21.22375486897904
 20
7.939745208316642
 30
0.0
 11
21.10162666474969
 21
8.158012645731783
 31
0.0
  0
LINE
  5
13A4
330
17
100
AcDbEntity
  8
0
100
AcDbLine
 10
20.7825435371303
 20
7.898734381112204
 30
0.0
 11
20.7752713928266
 21
7.911853676719294
 31
0.0
  0
LWPOLYLINE
  5
13A5
330
17
100
AcDbEntity
  8
0
100
AcDbPolyline
 90
        3
 70
     0
 43
0.0
 10
20.73491501351503
 20
7.657513386173866
 10
20.67100320861103
 20
7.911224581823722
 10
20.70630093965645
 20
7.930790433637943
  0
LINE
  5
13A6
330
17
100
AcDbEntity
  8
0
100
AcDbLine
 10
22.09956171378042
 20
8.518241714246526
 30
0.0
 11
22.00606171378042
 21
8.680188464754213
 31
0.0
  0
LINE
  5
13A7
330
17
100
AcDbEntity
  8
0
100
AcDbLine
 10
22.00606171378042
 20
8.680188464754213
 30
0.0
 11
21.89780853830737
 21
8.617688464754213
 31
0.0
  0
LINE
  5
13A8
330
17
100
AcDbEntity
  8
0
100
AcDbLine
 10
21.89780853830737
 20
8.617688464754213
 30
0.0
 11
21.94455853830737
 21
8.536715089500367
 31
0.0
  0
LINE
  5
13A9
330
17
100
AcDbEntity
  8
0
100
AcDbLine
 10
21.94455853830737
 20
8.536715089500367
 30
0.0
 11
21.72805218736126
 21
8.41171508950037
 31
0.0
  0
LINE
  5
13AA
330
17
100
AcDbEntity
  8
0
100
AcDbLine
 10
21.72805218736126
 20
8.41171508950037
 30
0.0
 11
21.68130218736126
 21
8.492688464754213
 31
0.0
  0
LINE
  5
13AB
330
17
100
AcDbEntity
  8
0
100
AcDbLine
 10
21.68130218736126
 20
8.492688464754213
 30
0.0
 11
21.5730490118882
 21
8.430188464754213
 31
0.0
  0
LINE
  5
13AC
330
17
100
AcDbEntity
  8
0
100
AcDbLine
 10
21.5730490118882
 20
8.430188464754213
 30
0.0
 11
21.6665490118882
 21
8.268241714246528
 31
0.0
  0
LINE
  5
13AD
330
17
100
AcDbEntity
  8
0
100
AcDbLine
 10
22.73774053276706
 20
9.102623427856487
 30
0.0
 11
22.86278515663461
 21
8.886039786104545
 31
0.0
  0
LINE
  5
13AE
330
17
100
AcDbEntity
  8
0
100
AcDbLine
 10
22.60297753549928
 20
8.736039786104546
 30
0.0
 11
22.47793291163173
 21
8.952623427856485
 31
0.0
  0
LINE
  5
13AF
330
17
100
AcDbEntity
  8
0
100
AcDbLine
 10
23.09189185498226
 20
9.018314600068707
 30
0.0
 11
22.90774583065923
 21
9.200776032358193
 31
0.0
  0
MTEXT
  5
13B2
330
17
100
AcDbEntity
  8
KCADSLABEL
100
AcDbMText
 10
22.00291566964184
 20
1.402597390331069
 30
0.0
 40
0.375
 41
2.236369412395474
 71
     2
 72
     5
  1
PURLIN
 73
     1
 44
1.0
1001
ACAD
1000
MTEXTBEGIN
1070
    73
1070
     1
1070
    44
1040
1.0
1070
    74
1070
     0
1000
MTEXTEND
  0
MTEXT
  5
18EC
330
17
100
AcDbEntity
  8
KCADSLABEL
100
AcDbMText
 10
13.002915646755
 20
13.39195988659223
 30
0.0
 40
0.375
 41
6.337684072104876
 71
     2
 72
     5
  1
JAMB/RAFTER
 73
     1
 44
1.0
1001
ACAD
1000
MTEXTBEGIN
1070
    73
1070
     1
1070
    44
1040
1.0
1070
    74
1070
     0
1000
MTEXTEND
  0
MTEXT
  5
18EE
330
17
100
AcDbEntity
  8
KCADSLABEL
100
AcDbMText
 10
-1.058729526140741
 20
13.39195988659223
 30
0.0
 40
0.375
 41
6.406001796350608
 71
     2
 72
     5
  1
HEAD
 73
     1
 44
1.0
1001
ACAD
1000
MTEXTBEGIN
1070
    73
1070
     1
1070
    44
1040
1.0
1070
    74
1070
     0
1000
MTEXTEND
  0
LINE
  5
1AFC
330
17
100
AcDbEntity
  8
0
100
AcDbLine
 10
-9.822498266376307
 20
-6.020862690213913
 30
0.0
 11
-9.822498266376307
 21
25.69048118937661
 31
0.0
  0
LWPOLYLINE
  5
2029
330
17
100
AcDbEntity
  8
0
100
AcDbPolyline
 90
       30
 70
     1
 43
0.0
 10
-7.318323241366911
 20
19.74114972603002
 42
-0.4142135623730864
 10
-7.360670028884229
 20
19.75249651354734
 10
-7.592170028884233
 20
20.15346627549953
 42
-0.4142135623730951
 10
-7.580823241366907
 20
20.19581306301685
 10
-7.25606371494775
 20
20.38331306301685
 10
-7.318563714947757
 20
20.4915662384899
 10
-7.4051662553262
 20
20.44156623848991
 10
-7.389666255326197
 20
20.41471945097259
 10
-7.649473876461527
 20
20.26471945097258
 10
-7.664973876461523
 20
20.2915662384899
 10
-7.751576416839967
 20
20.2415662384899
 10
-7.376576416839959
 20
19.59204718565158
 10
-7.326755908764269
 20
19.54575553440558
 10
-7.300775146650735
 20
19.56075553440559
 10
-7.333275146650741
 20
19.61704718565158
 10
-6.545192029206901
 20
20.07204718565159
 10
-6.517871521131219
 20
20.0647266775759
 10
-6.510551013055525
 20
20.09204718565159
 10
-6.077538311163316
 20
20.34204718565159
 10
-6.050217803087619
 20
20.3347266775759
 10
-6.042897295011933
 20
20.36204718565159
 10
-5.536272433798039
 20
20.6545471856516
 10
-5.586272433798036
 20
20.74114972603005
 10
-5.911031960217201
 20
20.55364972603003
 10
-5.923531960217204
 20
20.57530036112465
 10
-6.343554281052654
 20
20.33280036112464
 10
-6.34904466210942
 20
20.31230998006788
 10
-6.369535043166187
 20
20.31780036112464
 10
-6.789557364001638
 20
20.07530036112464
 10
-6.777057364001642
 20
20.05364972603003
  0
LWPOLYLINE
  5
202A
330
17
100
AcDbEntity
  8
0
100
AcDbPolyline
 90
        8
 70
     1
 43
0.0
 10
-5.639852788274644
 20
16.76460335430776
 42
0.4142135623730951
 10
-5.59887202616111
 20
16.75362259219423
 10
-4.39648156515414
 20
17.44782304852764
 42
0.267949192431121
 10
-4.381481565154139
 20
17.47380381064117
 10
-4.381481565154139
 20
19.14523283994514
 42
0.5773502691896326
 10
-4.426481565154141
 20
19.17121360205868
 10
-6.352622026161107
 20
18.05915588839927
 42
0.4142135623730974
 10
-6.36360278827464
 20
18.01817512628574
  0
LWPOLYLINE
  5
202B
330
17
100
AcDbEntity
  8
0
100
AcDbPolyline
 90
       41
 70
     1
 43
0.0
 10
-4.336481565154151
 20
19.32709817473988
 10
-4.440404613608272
 20
19.26709817473988
 10
-5.475304971661692
 20
18.66959817443329
 42
-0.4142135623730981
 10
-5.557266495888761
 20
18.69155969866036
 10
-5.855516495888757
 20
19.20814385201778
 10
-5.747263319884687
 20
19.27064385232435
 42
0.4142135623730948
 10
-5.655756968938582
 20
19.61215020327047
 10
-5.983756968407575
 20
20.18026286845964
 10
-6.118856931928952
 20
20.10226286815306
 10
-5.790856931928956
 20
19.53415020327047
 42
-1.0
 10
-5.953669707840425
 20
19.44015020327047
 10
-6.281669707840428
 20
20.00826286815306
 10
-6.416769671361812
 20
19.93026286784648
 10
-5.665519671361813
 20
18.62905969866035
 42
-0.414213562373094
 10
-5.68748119558888
 20
18.54709817443329
 10
-6.397622026161101
 20
18.13709817473987
 42
-0.4142135623731106
 10
-6.438602788274636
 20
18.1480789368534
 10
-6.473602788274639
 20
18.20870071511831
 42
-0.4142135623730942
 10
-6.462622026161099
 20
18.24968147723185
 10
-6.259106056537255
 20
18.36718147707856
 10
-6.206032372988516
 20
18.5652551606273
 10
-6.256032372988521
 20
18.65185770100575
 10
-6.392431373819071
 20
18.57310770115903
 42
0.4142135623730913
 10
-6.403412135932605
 20
18.5321269390455
 10
-6.393412135932599
 20
18.51480643096981
 10
-6.354440992762306
 20
18.53730643096981
 10
-6.326940992762295
 20
18.48967503376167
 42
-0.465116279069771
 10
-6.513136454575949
 20
18.38217503376167
 10
-6.540636454575952
 20
18.42980643096982
 10
-6.501665311405652
 20
18.45230643096981
 10
-6.511665311405657
 20
18.4696269390455
 42
0.4142135623730853
 10
-6.552646073519191
 20
18.48060770115903
 10
-6.689045074615243
 20
18.40185770115904
 10
-5.657795074615229
 20
16.61568030585363
 10
-3.492731565154151
 20
17.86568030585363
 10
-3.680231565154151
 20
18.1904398322728
 10
-3.73392514018878
 20
18.1594398322728
 10
-3.591425140188782
 20
17.91262259219423
 10
-4.246481565154148
 20
17.53442558890609
 42
-0.5773502691896253
 10
-4.29148156515415
 20
17.56040635101962
 10
-4.29148156515415
 20
19.24915588839927
  0
LINE
  5
202C
330
17
100
AcDbEntity
  8
0
100
AcDbLine
 10
-2.517264799029689
 20
20.87511549741142
 30
0.0
 11
-2.867970173976424
 21
22.09973357541253
 31
0.0
  0
LWPOLYLINE
  5
202D
330
17
100
AcDbEntity
  8
0
100
AcDbPolyline
 90
        8
 70
     1
 43
0.0
 10
-5.36705179618864
 20
18.73209817443329
 10
-5.385001796188639
 20
18.76318848642915
 10
-1.621231566216163
 20
20.93620224187171
 10
-1.621231566216163
 20
21.81257426198369
 10
-1.798008261512801
 20
21.98935095728032
 10
-1.772552417390084
 20
22.01480680140303
 10
-1.585231566216162
 20
21.82748595022912
 10
-1.585231566216162
 20
20.91553310223472
  0
LWPOLYLINE
  5
202E
330
17
100
AcDbEntity
  8
0
100
AcDbPolyline
 90
        6
 70
     0
 43
0.0
 10
-6.689045075677249
 20
18.40185770054588
 10
-6.791545075677255
 20
18.46103610313782
 42
-0.5773502691896213
 10
-6.791545075677255
 20
18.48701686525136
 10
-6.331522755340948
 20
18.75261087573076
 42
-0.4142135616547307
 10
-6.311032374302577
 20
18.74712049470585
 10
-6.256032374050526
 20
18.6518577003926
  0
LINE
  5
202F
330
17
100
AcDbEntity
  8
0
100
AcDbLine
 10
-6.318532372988521
 20
18.76011087647881
 30
0.0
 11
-7.617570478399706
 21
18.01011087663208
 31
0.0
  0
LINE
  5
2030
330
17
100
AcDbEntity
  8
0
100
AcDbLine
 10
-6.443532372988521
 20
18.97661722742492
 30
0.0
 11
-6.318532372988521
 21
18.76011087647881
 31
0.0
  0
LINE
  5
2031
330
17
100
AcDbEntity
  8
0
100
AcDbLine
 10
-7.742570478399706
 20
18.22661722757819
 30
0.0
 11
-6.443532372988521
 21
18.97661722742492
 31
0.0
  0
LINE
  5
2032
330
17
100
AcDbEntity
  8
0
100
AcDbLine
 10
-6.736833643177739
 20
19.38462992931714
 30
0.0
 11
-6.486833643177739
 21
18.95161722742492
 31
0.0
  0
LINE
  5
2033
330
17
100
AcDbEntity
  8
0
100
AcDbLine
 10
-6.693532372988521
 20
19.40962992931714
 30
0.0
 11
-7.992570478399713
 21
18.6596299294704
 31
0.0
  0
LINE
  5
2034
330
17
100
AcDbEntity
  8
0
100
AcDbLine
 10
-6.818532372988521
 20
19.62613628026324
 30
0.0
 11
-6.693532372988521
 21
19.40962992931714
 31
0.0
  0
LINE
  5
2035
330
17
100
AcDbEntity
  8
0
100
AcDbLine
 10
-8.117570478399713
 20
18.87613628041651
 30
0.0
 11
-6.818532372988521
 21
19.62613628026324
 31
0.0
  0
LINE
  5
2036
330
17
100
AcDbEntity
  8
0
100
AcDbLine
 10
-7.08324380469152
 20
19.18462992931714
 30
0.0
 11
-6.83324380469152
 21
18.75161722742492
 31
0.0
  0
LWPOLYLINE
  5
2037
330
17
100
AcDbEntity
  8
0
100
AcDbPolyline
 90
        4
 70
     0
 43
0.0
 10
-3.674436198919273
 20
22.68903498443906
 10
-8.008582767786073
 20
20.18671429619643
 10
-7.968082767786071
 20
20.11656623848989
 10
-3.674436198919273
 20
22.59550424083034
  0
LWPOLYLINE
  5
2038
330
17
100
AcDbEntity
  8
0
100
AcDbPolyline
 90
        2
 70
     0
 43
0.0
 10
-4.662970138138554
 20
19.63502621005153
 10
-5.011615568738776
 20
19.99581483882915
  0
LWPOLYLINE
  5
2039
330
17
100
AcDbEntity
  8
0
100
AcDbPolyline
 90
        3
 70
     0
 43
0.0
 10
-4.681764436500834
 20
19.73339941755058
 10
-5.005939347896195
 20
20.86537652793677
 42
0.9542989156251735
 10
-5.624323770772171
 20
20.719180776385
 42
0.8942563850215663
  0
LWPOLYLINE
  5
203A
330
17
100
AcDbEntity
  8
0
100
AcDbPolyline
 90
        3
 70
     0
 43
0.0
 10
-4.130082700705663
 20
19.95901410063752
 10
-4.12074168887112
 20
19.94934774463401
 42
-0.8728128859786965
 10
-4.510605141508513
 20
19.45410406142084
  0
LWPOLYLINE
  5
203B
330
17
100
AcDbEntity
  8
0
100
AcDbPolyline
 90
       13
 70
     0
 43
0.0
 10
-2.867970181497717
 20
22.09973360167607
 42
1.280387945423839
 10
-3.402462492081546
 20
21.79114435288667
 10
-2.517264814072305
 20
20.87511554993847
 42
-1.280387945423839
 10
-3.051757098150595
 20
20.56652625524014
 10
-3.402462473097337
 20
21.79114433324124
 42
1.280387945423839
 10
-3.936954783681166
 20
21.48255508445185
 10
-3.051757105671924
 20
20.56652628150364
 42
-1.280387945423839
 10
-3.586249389750214
 20
20.2579369868053
 10
-3.936954764696942
 20
21.48255506480641
 42
1.280387945423839
 10
-4.471447075280771
 20
21.17396581601701
 10
-3.586249397271537
 20
20.25793701306881
 42
-1.280387945423839
 10
-4.120741681349834
 20
19.94934771837047
 10
-4.127681397889688
 20
19.97358031626609
 42
1.280387945423839
  0
LWPOLYLINE
  5
203C
330
17
100
AcDbEntity
  8
0
100
AcDbPolyline
 90
        4
 70
     0
 43
0.0
 10
-4.12074168887112
 20
19.94934774463401
 10
-4.471447056296561
 20
21.17396579637158
 42
1.280387945423839
 10
-5.00593936688039
 20
20.86537654758219
 10
-4.12074168887112
 20
19.94934774463401
 42
-0.8728128859786965
  0
INSERT
  5
203E
330
17
100
AcDbEntity
  8
0
100
AcDbBlockReference
  2
*X0
 10
-8.58632047839972
 20
12.71798178828212
 30
0.0
  0
LWPOLYLINE
  5
203F
330
17
100
AcDbEntity
  8
KCADSMISC
100
AcDbPolyline
 90
        6
 70
     0
 43
0.0
 10
-5.112645197493684
 20
18.92043364200126
 10
-4.571219258324958
 20
19.23302605372657
 10
-5.969003792934529
 20
20.40470961896734
 10
-5.112203792934508
 20
18.92068848704232
 10
-5.428019258324994
 20
20.7170471856516
 10
-4.571219258324958
 20
19.23302605372657
  0
LWPOLYLINE
  5
2040
330
17
100
AcDbEntity
  8
0
100
AcDbPolyline
 90
       30
 70
     1
 43
0.0
 10
1.928126476662024
 20
19.65745941936788
 42
-0.4142135623730864
 10
1.885779689144706
 20
19.6688062068852
 10
1.654279689144702
 20
20.06977596883739
 42
-0.4142135623730951
 10
1.665626476662021
 20
20.11212275635471
 10
1.990386003081178
 20
20.29962275635471
 10
1.927886003081178
 20
20.40787593182776
 10
1.841283462702735
 20
20.35787593182776
 10
1.856783462702734
 20
20.33102914431045
 10
1.596975841567404
 20
20.18102914431044
 10
1.581475841567405
 20
20.20787593182776
 10
1.494873301188961
 20
20.15787593182776
 10
1.869873301188972
 20
19.50835687898943
 10
1.919693809264666
 20
19.46206522774344
 10
1.945674571378193
 20
19.47706522774344
 10
1.913174571378194
 20
19.53335687898944
 10
2.701257688822026
 20
19.98835687898944
 10
2.728578196897716
 20
19.98103637091375
 10
2.735898704973402
 20
20.00835687898945
 10
3.168911406865619
 20
20.25835687898945
 10
3.196231914941312
 20
20.25103637091376
 10
3.203552423017002
 20
20.27835687898944
 10
3.710177284230889
 20
20.57085687898946
 10
3.660177284230892
 20
20.6574594193679
 10
3.335417757811727
 20
20.46995941936789
 10
3.322917757811728
 20
20.49161005446251
 10
2.902895436976274
 20
20.2491100544625
 10
2.897405055919508
 20
20.22861967340574
 10
2.876914674862744
 20
20.2341100544625
 10
2.45689235402729
 20
19.9916100544625
 10
2.469392354027293
 20
19.96995941936788
  0
LWPOLYLINE
  5
2041
330
17
100
AcDbEntity
  8
0
100
AcDbPolyline
 90
        2
 70
     0
 43
0.0
 10
4.471600594341284
 20
20.54254720553428
 10
5.1628516308862
 20
19.78292086897743
 42
-0.8728128859786965
  0
LWPOLYLINE
  5
2042
330
17
100
AcDbEntity
  8
0
100
AcDbPolyline
 90
        4
 70
     0
 43
0.0
 10
5.178771013638632
 20
19.79215468164473
 10
4.775002661732367
 20
21.09027548970944
 42
1.280387945423839
 10
4.240510351148534
 20
20.78168624092004
 10
4.471600594341284
 20
20.54254720553428
 42
-0.8728128859786965
  0
LWPOLYLINE
  5
2043
330
17
100
AcDbEntity
  8
0
100
AcDbPolyline
 90
        4
 70
     0
 43
0.0
 10
5.749533338697391
 20
19.95567082842192
 10
5.309494953331983
 20
21.39886475814427
 42
1.280387945423839
 10
4.775002642748154
 20
21.09027550935487
 10
5.815290477279377
 20
19.98170751253628
 42
-0.1924729186234159
  0
LWPOLYLINE
  5
2044
330
17
100
AcDbEntity
  8
0
100
AcDbPolyline
 90
        8
 70
     0
 43
0.0
 10
6.378479536531214
 20
22.01604329501393
 42
1.280387945423839
 10
5.843987225947381
 20
21.70745404622453
 10
6.729184903956623
 20
20.79142524327633
 42
-1.280387945423839
 10
6.194692619878329
 20
20.48283594857799
 10
5.843987244931595
 20
21.7074540265791
 42
1.280387945423839
 10
5.309494934347766
 20
21.3988647777897
 10
6.194692612357004
 20
20.4828359748415
 42
-0.8563256783685615
 10
5.815290477279377
 20
19.98170751253628
  0
LWPOLYLINE
  5
2045
330
17
100
AcDbEntity
  8
0
100
AcDbPolyline
 90
        2
 70
     0
 43
0.0
 10
5.749533338697391
 20
19.95567082842192
 42
-0.7540132844746764
 10
5.1628516308862
 20
19.78292086897743
  0
LWPOLYLINE
  5
2046
330
17
100
AcDbEntity
  8
0
100
AcDbPolyline
 90
        2
 70
     0
 43
0.0
 10
5.178771013638632
 20
19.79215468164473
 42
-0.9485474296513663
 10
4.632322059743488
 20
19.46823618470629
  0
LINE
  5
2047
330
17
100
AcDbEntity
  8
0
100
AcDbLine
 10
6.729184918999239
 20
20.79142519074928
 30
0.0
 11
6.378479544052504
 21
22.01604326875039
 31
0.0
  0
LWPOLYLINE
  5
2048
330
17
100
AcDbEntity
  8
0
100
AcDbPolyline
 90
        8
 70
     1
 43
0.0
 10
3.879397921840292
 20
18.64840786777115
 10
3.861447921840293
 20
18.67949817976701
 10
7.625218151812765
 20
20.85251193520957
 10
7.625218151812765
 20
21.72888395532154
 10
7.448441456516126
 20
21.90566065061817
 10
7.473897300638844
 20
21.93111649474089
 10
7.661218151812766
 20
21.74379564356698
 10
7.661218151812766
 20
20.83184279557258
  0
LWPOLYLINE
  5
2049
330
17
100
AcDbEntity
  8
0
100
AcDbPolyline
 90
       12
 70
     0
 43
0.0
 10
2.557404642351675
 20
18.31816739388374
 10
2.693803644509744
 20
18.3969173944969
 42
-0.4142135623730639
 10
2.734784406623274
 20
18.38593663238337
 10
2.744784406623276
 20
18.36861612430768
 10
2.705813263452975
 20
18.34611612430768
 10
2.733400702288575
 20
18.29833327859373
 42
0.3704662542213858
 10
2.919596164102228
 20
18.40583327859371
 10
2.892008725266629
 20
18.45361612430768
 10
2.853037582096328
 20
18.43111612430768
 10
2.843037582096327
 20
18.44843663238337
 42
-0.4142135623730832
 10
2.854018344209864
 20
18.4894173944969
 10
2.990417343978398
 20
18.56816739373046
  0
LWPOLYLINE
  5
204A
330
17
100
AcDbEntity
  8
0
100
AcDbPolyline
 90
        6
 70
     0
 43
0.0
 10
2.557404642351675
 20
18.31816739388374
 10
2.454904642351673
 20
18.37734579647568
 42
-0.5773502691896213
 10
2.454904642351673
 20
18.40332655858922
 10
2.91492696268798
 20
18.66892056906862
 42
-0.4142135616547307
 10
2.935417343726355
 20
18.66343018804371
 10
2.990417343978398
 20
18.56816739373046
  0
LINE
  5
204B
330
17
100
AcDbEntity
  8
0
100
AcDbLine
 10
2.927917345040404
 20
18.67642056981667
 30
0.0
 11
1.628879239629226
 21
17.92642056996994
 31
0.0
  0
LINE
  5
204C
330
17
100
AcDbEntity
  8
0
100
AcDbLine
 10
2.802917345040404
 20
18.89292692076277
 30
0.0
 11
2.927917345040404
 21
18.67642056981667
 31
0.0
  0
LINE
  5
204D
330
17
100
AcDbEntity
  8
0
100
AcDbLine
 10
1.503879239629222
 20
18.14292692091605
 30
0.0
 11
2.802917345040404
 21
18.89292692076277
 31
0.0
  0
LINE
  5
204E
330
17
100
AcDbEntity
  8
0
100
AcDbLine
 10
2.509616074851182
 20
19.300939622655
 30
0.0
 11
2.759616074851182
 21
18.86792692076278
 31
0.0
  0
LINE
  5
204F
330
17
100
AcDbEntity
  8
0
100
AcDbLine
 10
2.552917345040404
 20
19.32593962265499
 30
0.0
 11
1.253879239629215
 21
18.57593962280826
 31
0.0
  0
LINE
  5
2050
330
17
100
AcDbEntity
  8
0
100
AcDbLine
 10
2.427917345040404
 20
19.5424459736011
 30
0.0
 11
2.552917345040404
 21
19.32593962265499
 31
0.0
  0
LINE
  5
2051
330
17
100
AcDbEntity
  8
0
100
AcDbLine
 10
1.128879239629215
 20
18.79244597375437
 30
0.0
 11
2.427917345040404
 21
19.5424459736011
 31
0.0
  0
LINE
  5
2052
330
17
100
AcDbEntity
  8
0
100
AcDbLine
 10
2.163205913337408
 20
19.100939622655
 30
0.0
 11
2.413205913337408
 21
18.66792692076278
 31
0.0
  0
LWPOLYLINE
  5
2053
330
17
100
AcDbEntity
  8
0
100
AcDbPolyline
 90
        4
 70
     0
 43
0.0
 10
5.716969382349494
 20
22.68903498443906
 10
1.237866950242858
 20
20.10302398953429
 10
1.278366950242856
 20
20.03287593182775
 10
5.716969382349494
 20
22.59550424083034
  0
INSERT
  5
2055
330
17
100
AcDbEntity
  8
0
100
AcDbBlockReference
  2
*X1
 10
0.6601292396292085
 20
12.63429148161998
 30
0.0
  0
LWPOLYLINE
  5
2056
330
17
100
AcDbEntity
  8
0
100
AcDbPolyline
 90
       53
 70
     1
 43
0.0
 10
4.671186398144241
 20
17.1569899991915
 10
3.588654643413695
 20
16.53198999919149
 10
2.557404643413692
 20
18.31816739449689
 10
2.693803644509744
 20
18.3969173944969
 42
-0.414213562373069
 10
2.734784406623274
 20
18.38593663238337
 10
2.744784406623276
 20
18.36861612430768
 10
2.705813263452975
 20
18.34611612430768
 10
2.733400702288571
 20
18.29833327859372
 42
0.3704662542213866
 10
2.919596164102232
 20
18.40583327859371
 10
2.892008725266629
 20
18.45361612430767
 10
2.853037582096325
 20
18.43111612430767
 10
2.84303758209633
 20
18.44843663238336
 42
-0.4142135623730951
 10
2.854018344209864
 20
18.4894173944969
 10
2.990417345305912
 20
18.5681673944969
 10
3.000417345305914
 20
18.55084688642121
 42
-0.4142135623730951
 10
2.989436583192381
 20
18.50986612430768
 10
3.010170325216394
 20
18.47395422969105
 42
-0.153306583069667
 10
3.017992741490731
 20
18.4388669457275
 42
-0.2453282281231864
 10
2.891410994359807
 20
18.23965142460756
 10
2.77882769186783
 20
18.17465142460755
 42
0.4142135623730951
 10
2.767846929754297
 20
18.13367066249402
 10
2.807846929754292
 20
18.06438863019126
 42
0.4142135623731039
 10
2.84882769186783
 20
18.05340786807773
 10
3.558968522440052
 20
18.46340786777115
 42
0.4142135623730951
 10
3.580930046667118
 20
18.54536939199821
 10
2.829680046667116
 20
19.84657256118434
 10
2.937933221609162
 20
19.90907256087776
 42
-0.4142135623730951
 10
2.978913983722696
 20
19.89809179876423
 10
3.058913983722698
 20
19.75952773415872
 10
3.041593475647006
 20
19.74952773415872
 10
3.115626801918873
 20
19.66129825160253
 10
3.2914139837227
 20
19.35682592139895
 42
0.9999999999999998
 10
3.455958810441741
 20
19.45182592139895
 10
3.280171628637914
 20
19.75629825160253
 10
3.240779318517427
 20
19.86452773415872
 10
3.223458810441742
 20
19.85452773415872
 10
3.143458810441744
 20
19.99309179876423
 42
-0.4142135623731124
 10
3.154439572555274
 20
20.03407256087776
 10
3.262692748559333
 20
20.09657256118434
 10
3.590692748559343
 20
19.52845989630174
 42
-0.4142135623730951
 10
3.499186397613231
 20
19.18695354535563
 10
3.369282587045569
 20
19.11195354535562
 10
3.667532587045565
 20
18.59536939199822
 42
0.4142135623730951
 10
3.749494111272626
 20
18.57340786777115
 10
4.330980330024948
 20
18.90912909269786
 10
4.375980330024949
 20
18.83118680635726
 10
2.893827691867821
 20
17.97546558173713
 42
0.4142135623731038
 10
2.882846929754295
 20
17.9344848196236
 10
3.606596929754287
 20
16.68091304764562
 42
0.4142135623730863
 10
3.647577691867821
 20
16.66993228553209
 10
4.548244111803645
 20
17.18993228553209
 10
4.475748562974589
 20
17.37619391711513
 42
-0.9265505782289695
 10
4.529686398144241
 20
17.40207518846249
  0
LINE
  5
2057
330
17
100
AcDbEntity
  8
KCADSMISC
100
AcDbLine
 10
-5.428019258324987
 20
20.7170471856516
 30
0.0
 11
-5.965747446033354
 21
20.40658967172733
 31
0.0
  0
LWPOLYLINE
  5
2058
330
17
100
AcDbEntity
  8
0
100
AcDbPolyline
 90
        2
 70
     0
 43
0.0
 10
-4.599219552923358
 20
19.2815239865979
 42
0.3093209639028732
 10
-4.662970138138554
 20
19.63502621005153
  0
LWPOLYLINE
  5
2059
330
17
100
AcDbEntity
  8
0
100
AcDbPolyline
 90
        3
 70
     0
 43
0.0
 10
4.632322059743506
 20
19.46823618470623
 10
4.230049052573017
 20
20.78757100036669
 42
0.9707793096702415
 10
3.613853475847482
 20
20.63071435612785
  0
LWPOLYLINE
  5
205A
330
17
100
AcDbEntity
  8
0
100
AcDbPolyline
 90
        2
 70
     0
 43
0.0
 10
4.632322059743538
 20
19.46823618470619
 10
4.283676629143313
 20
19.82902481348382
  0
LWPOLYLINE
  5
205B
330
17
100
AcDbEntity
  8
KCADSMISC
100
AcDbPolyline
 90
        6
 70
     0
 43
0.0
 10
3.277445924032379
 20
20.32101931169204
 10
4.675230459703969
 20
19.14933574706443
 10
3.818430459703948
 20
20.63335687898945
 10
4.1342459240324
 20
18.83699817976702
 10
3.277445924032379
 20
20.32101931169204
 10
3.818430459703948
 20
20.63335687898945
  0
LWPOLYLINE
  5
205C
330
17
100
AcDbEntity
  8
KCADSMISC
100
AcDbPolyline
 90
        2
 70
     0
 43
0.0
 10
4.133804520535244
 20
18.83674333533911
 10
4.675230459703969
 20
19.14933574706443
  0
TEXT
  5
205D
330
17
100
AcDbEntity
  8
KCADSLABEL
100
AcDbText
 10
-5.742876316022536
 20
17.76284631342186
 30
0.0
 40
0.125
  1
822005
 50
360.0
 72
     1
 11
-5.45152229146592
 21
17.88784631342186
 31
0.0
100
AcDbText
 73
     3
  0
TEXT
  5
205E
330
17
100
AcDbEntity
  8
KCADSLABEL
100
AcDbText
 10
3.435734474211233
 20
17.53925646679399
 30
0.0
 40
0.125
  1
822009
 50
360.0
 72
     1
 11
3.72708849876785
 21
17.66425646679399
 31
0.0
100
AcDbText
 73
     3
  0
TEXT
  5
205F
330
17
100
AcDbEntity
  8
KCADSLABEL
100
AcDbText
 10
-7.036867993915633
 20
20.41110729925753
 30
0.0
 40
0.125
  1
822121
 50
360.0
 72
     1
 11
-6.745513969359016
 21
20.53610729925753
 31
0.0
100
AcDbText
 73
     3
  0
TEXT
  5
2060
330
17
100
AcDbEntity
  8
KCADSLABEL
100
AcDbText
 10
2.169145675275338
 20
20.28044597526635
 30
0.0
 40
0.125
  1
822121
 50
360.0
 72
     1
 11
2.460499699831954
 21
20.40544597526635
 31
0.0
100
AcDbText
 73
     3
  0
ARC
  5
2061
330
17
100
AcDbEntity
  8
0
100
AcDbCircle
 10
-4.216327344328497
 20
19.82653803901214
 30
0.0
 40
0.4746646074625744
100
AcDbArc
 50
191.3159930618587
 51
231.6860592533476
  0
ARC
  5
2062
330
17
100
AcDbEntity
  8
0
100
AcDbCircle
 10
4.309733519025039
 20
19.28950173742416
 30
0.0
 40
0.3687944810434747
100
AcDbArc
 50
8.192072544933017
 51
28.98922456816915
  0
ARC
  5
2063
330
17
100
AcDbEntity
  8
0
100
AcDbCircle
 10
4.444427124982839
 20
19.29915712934378
 30
0.0
 40
0.2342977087150134
100
AcDbArc
 50
332.2344454941594
 51
10.54912366882424
  0
ARC
  5
2064
330
17
100
AcDbEntity
  8
0
100
AcDbCircle
 10
-5.264999419630356
 20
20.37657833016181
 30
0.0
 40
1.52989518030952
100
AcDbArc
 50
254.2632476657709
 51
270.9350948097797
  0
CIRCLE
  5
2065
330
17
100
AcDbEntity
  8
0
100
AcDbCircle
 10
-5.539676286199352
 20
18.80538974075196
 30
0.0
 40
0.0059
  0
CIRCLE
  5
2066
330
17
100
AcDbEntity
  8
0
100
AcDbCircle
 10
-5.544671524972194
 20
18.77170493013758
 30
0.0
 40
0.0059
  0
CIRCLE
  5
2067
330
17
100
AcDbEntity
  8
0
100
AcDbCircle
 10
-5.575891690285665
 20
18.80414216301405
 30
0.0
 40
0.0059
  0
CIRCLE
  5
2068
330
17
100
AcDbEntity
  8
0
100
AcDbCircle
 10
-5.615853532009026
 20
18.85279801232876
 30
0.0
 40
0.0059
  0
CIRCLE
  5
2069
330
17
100
AcDbEntity
  8
0
100
AcDbCircle
 10
-5.510953723157463
 20
18.84905525794594
 30
0.0
 40
0.0059
  0
CIRCLE
  5
206A
330
17
100
AcDbEntity
  8
0
100
AcDbCircle
 10
-5.458503801616842
 20
18.82285595609718
 30
0.0
 40
0.0059
  0
CIRCLE
  5
206B
330
17
100
AcDbEntity
  8
0
100
AcDbCircle
 10
-5.495968041068621
 20
18.76546699910987
 30
0.0
 40
0.0059
  0
CIRCLE
  5
206C
330
17
100
AcDbEntity
  8
0
100
AcDbCircle
 10
-5.457255000481055
 20
18.76047666698914
 30
0.0
 40
0.0059
  0
CIRCLE
  5
206D
330
17
100
AcDbEntity
  8
0
100
AcDbCircle
 10
-5.37483371476275
 20
18.8241035338351
 30
0.0
 40
0.0059
  0
CIRCLE
  5
206E
330
17
100
AcDbEntity
  8
0
100
AcDbCircle
 10
-5.409800317713276
 20
18.82285595609718
 30
0.0
 40
0.0059
  0
CIRCLE
  5
206F
330
17
100
AcDbEntity
  8
0
100
AcDbCircle
 10
-5.409800317713276
 20
18.76172424472705
 30
0.0
 40
0.0059
  0
CIRCLE
  5
2070
330
17
100
AcDbEntity
  8
0
100
AcDbCircle
 10
-5.548417928379564
 20
18.73053461075756
 30
0.0
 40
0.0059
  0
CIRCLE
  5
2071
330
17
100
AcDbEntity
  8
0
100
AcDbCircle
 10
-5.467245443797054
 20
18.71681117096423
 30
0.0
 40
0.0059
  0
CIRCLE
  5
2072
330
17
100
AcDbEntity
  8
0
100
AcDbCircle
 10
-5.519695365337675
 20
18.68437393808775
 30
0.0
 40
0.0059
  0
CIRCLE
  5
2073
330
17
100
AcDbEntity
  8
0
100
AcDbCircle
 10
-5.408551516577482
 20
18.72055392534704
 30
0.0
 40
0.0059
  0
CIRCLE
  5
2074
330
17
100
AcDbEntity
  8
0
100
AcDbCircle
 10
-5.33986707758256
 20
18.81911320171437
 30
0.0
 40
0.0059
  0
CIRCLE
  5
2075
330
17
100
AcDbEntity
  8
0
100
AcDbCircle
 10
-5.547169127243776
 20
18.84905525794594
 30
0.0
 40
0.0059
  0
CIRCLE
  5
2076
330
17
100
AcDbEntity
  8
0
100
AcDbCircle
 10
-5.640829691643546
 20
18.87774971527053
 30
0.0
 40
0.0059
  0
ARC
  5
2077
330
17
100
AcDbEntity
  8
0
100
AcDbCircle
 10
3.981450298398572
 20
20.29288802349967
 30
0.0
 40
1.52989518030952
100
AcDbArc
 50
252.9051614811415
 51
270.9350948097797
  0
CIRCLE
  5
2078
330
17
100
AcDbEntity
  8
0
100
AcDbCircle
 10
3.787945916412086
 20
18.73916564943504
 30
0.0
 40
0.0059
  0
CIRCLE
  5
2079
330
17
100
AcDbEntity
  8
0
100
AcDbCircle
 10
3.726754352691253
 20
18.60068363142561
 30
0.0
 40
0.0059
  0
CIRCLE
  5
207A
330
17
100
AcDbEntity
  8
0
100
AcDbCircle
 10
3.779204274231874
 20
18.63312086430208
 30
0.0
 40
0.0059
  0
CIRCLE
  5
207B
330
17
100
AcDbEntity
  8
0
100
AcDbCircle
 10
3.698031789649364
 20
18.64684430409542
 30
0.0
 40
0.0059
  0
CIRCLE
  5
207C
330
17
100
AcDbEntity
  8
0
100
AcDbCircle
 10
3.789194717547873
 20
18.676786360327
 30
0.0
 40
0.0059
  0
CIRCLE
  5
207D
330
17
100
AcDbEntity
  8
0
100
AcDbCircle
 10
3.750481676960307
 20
18.68177669244772
 30
0.0
 40
0.0059
  0
CIRCLE
  5
207E
330
17
100
AcDbEntity
  8
0
100
AcDbCircle
 10
3.670558027743263
 20
18.72045185635191
 30
0.0
 40
0.0059
  0
CIRCLE
  5
207F
330
17
100
AcDbEntity
  8
0
100
AcDbCircle
 10
3.701778193056734
 20
18.68801462347544
 30
0.0
 40
0.0059
  0
CIRCLE
  5
2080
330
17
100
AcDbEntity
  8
0
100
AcDbCircle
 10
3.706773431829576
 20
18.72169943408982
 30
0.0
 40
0.0059
  0
CIRCLE
  5
2081
330
17
100
AcDbEntity
  8
0
100
AcDbCircle
 10
3.605620026385382
 20
18.79405940860839
 30
0.0
 40
0.0059
  0
CIRCLE
  5
2082
330
17
100
AcDbEntity
  8
0
100
AcDbCircle
 10
3.630596186019902
 20
18.76910770566661
 30
0.0
 40
0.0059
  0
CIRCLE
  5
2083
330
17
100
AcDbEntity
  8
0
100
AcDbCircle
 10
3.699280590785152
 20
18.7653649512838
 30
0.0
 40
0.0059
  0
CIRCLE
  5
2084
330
17
100
AcDbEntity
  8
0
100
AcDbCircle
 10
3.735495994871465
 20
18.7653649512838
 30
0.0
 40
0.0059
  0
CIRCLE
  5
2085
330
17
100
AcDbEntity
  8
0
100
AcDbCircle
 10
3.836649400315652
 20
18.73916564943504
 30
0.0
 40
0.0059
  0
CIRCLE
  5
2086
330
17
100
AcDbEntity
  8
0
100
AcDbCircle
 10
3.871616003266177
 20
18.74041322717296
 30
0.0
 40
0.0059
  0
CIRCLE
  5
2087
330
17
100
AcDbEntity
  8
0
100
AcDbCircle
 10
3.906582640446368
 20
18.73542289505223
 30
0.0
 40
0.0059
  0
CIRCLE
  5
2088
330
17
100
AcDbEntity
  8
0
100
AcDbCircle
 10
3.837898201451446
 20
18.6368636186849
 30
0.0
 40
0.0059
  0
CIRCLE
  5
2089
330
17
100
AcDbEntity
  8
0
100
AcDbCircle
 10
3.836649400315652
 20
18.67803393806491
 30
0.0
 40
0.0059
  0
CIRCLE
  5
208A
330
17
100
AcDbEntity
  8
0
100
AcDbCircle
 10
3.624120719296621
 20
18.73251375732095
 30
0.0
 40
0.0059
  0
CIRCLE
  5
208B
330
17
100
AcDbEntity
  8
0
100
AcDbCircle
 10
3.661842092046976
 20
18.67131354285312
 30
0.0
 40
0.0059
  0
LINE
  5
208C
330
17
100
AcDbEntity
  8
0
100
AcDbLine
 10
-7.242511173204846
 20
19.66944979015328
 30
0.0
 11
-7.117761173204847
 21
19.45337645190906
 31
0.0
  0
LINE
  5
208D
330
17
100
AcDbEntity
  8
0
100
AcDbLine
 10
-7.346867871552497
 20
19.3211016379449
 30
0.0
 11
-7.412516471097013
 21
19.57129718565157
 31
0.0
  0
LINE
  5
208E
330
17
100
AcDbEntity
  8
0
100
AcDbLine
 10
-7.412516471097013
 20
19.57129718565157
 30
0.0
 11
-7.376576416839959
 21
19.59204718565158
 31
0.0
  0
LINE
  5
208F
330
17
100
AcDbEntity
  8
0
100
AcDbLine
 10
-6.857953552069517
 20
19.60337645190906
 30
0.0
 11
-6.982703552069516
 21
19.81944979015328
 31
0.0
  0
LINE
  5
2090
330
17
100
AcDbEntity
  8
0
100
AcDbLine
 10
-5.983756968407575
 20
20.18026286845964
 30
0.0
 11
-6.077256968407574
 21
20.34220961896732
 31
0.0
  0
LINE
  5
2091
330
17
100
AcDbEntity
  8
0
100
AcDbLine
 10
-6.185510143880634
 20
20.27970961896732
 30
0.0
 11
-6.138760143880631
 21
20.19873624371348
 31
0.0
  0
LINE
  5
2092
330
17
100
AcDbEntity
  8
0
100
AcDbLine
 10
-6.138760143880631
 20
20.19873624371348
 30
0.0
 11
-6.355266494826743
 21
20.07373624371348
 31
0.0
  0
LINE
  5
2093
330
17
100
AcDbEntity
  8
0
100
AcDbLine
 10
-6.355266494826743
 20
20.07373624371348
 30
0.0
 11
-6.402016494826739
 21
20.15470961896733
 31
0.0
  0
LINE
  5
2094
330
17
100
AcDbEntity
  8
0
100
AcDbLine
 10
-6.510269670299798
 20
20.09220961896732
 30
0.0
 11
-6.4167696702998
 21
19.93026286845964
 31
0.0
  0
LINE
  5
2095
330
17
100
AcDbEntity
  8
0
100
AcDbLine
 10
2.003938544824082
 20
19.58575948349114
 30
0.0
 11
2.128688544824084
 21
19.36968614524692
 31
0.0
  0
LINE
  5
2096
330
17
100
AcDbEntity
  8
0
100
AcDbLine
 10
1.899581846476431
 20
19.23741133128276
 30
0.0
 11
1.833933246931914
 21
19.48760687898943
 31
0.0
  0
LINE
  5
2097
330
17
100
AcDbEntity
  8
0
100
AcDbLine
 10
1.833933246931914
 20
19.48760687898943
 30
0.0
 11
1.869873301188968
 21
19.50835687898943
 31
0.0
  0
LINE
  5
2098
330
17
100
AcDbEntity
  8
0
100
AcDbLine
 10
2.388496165959415
 20
19.51968614524692
 30
0.0
 11
2.263746165959416
 21
19.73575948349114
 31
0.0
  0
LINE
  5
2099
330
17
100
AcDbEntity
  8
0
100
AcDbLine
 10
3.262692749621352
 20
20.0965725617975
 30
0.0
 11
3.169192749621354
 21
20.25851931230519
 31
0.0
  0
LINE
  5
209A
330
17
100
AcDbEntity
  8
0
100
AcDbLine
 10
3.060939574148294
 20
20.19601931230519
 30
0.0
 11
3.107689574148297
 21
20.11504593705134
 31
0.0
  0
LINE
  5
209B
330
17
100
AcDbEntity
  8
0
100
AcDbLine
 10
3.107689574148297
 20
20.11504593705134
 30
0.0
 11
2.891183223202189
 21
19.99004593705134
 31
0.0
  0
LINE
  5
209C
330
17
100
AcDbEntity
  8
0
100
AcDbLine
 10
2.891183223202189
 20
19.99004593705134
 30
0.0
 11
2.844433223202189
 21
20.07101931230518
 31
0.0
  0
LINE
  5
209D
330
17
100
AcDbEntity
  8
0
100
AcDbLine
 10
2.73618004772913
 20
20.00851931230519
 30
0.0
 11
2.829680047729128
 21
19.8465725617975
 31
0.0
  0
TEXT
  5
220B
330
17
100
AcDbEntity
  8
KCADSLABEL
100
AcDbText
 10
13.61555140954271
 20
7.534791901930546
 30
0.0
 40
0.125
  1
822007
 50
360.0
 72
     1
 11
13.90690543409932
 21
7.659791901930546
 31
0.0
100
AcDbText
 73
     3
  0
LWPOLYLINE
  5
220C
330
17
100
AcDbEntity
  8
0
100
AcDbPolyline
 90
        6
 70
     0
 43
0.0
 10
12.41187601190124
 20
8.768418488330402
 10
12.28509386868725
 20
8.841616192843435
 42
-0.5773502691896299
 10
12.28509386868725
 20
8.867596954956969
 10
12.75725726057897
 20
9.140200616367138
 42
-0.414213561654724
 10
12.77774764161734
 20
9.134710235342232
 10
12.84488871352795
 20
9.018418488177115
  0
LWPOLYLINE
  5
220D
330
17
100
AcDbEntity
  8
0
100
AcDbPolyline
 90
        8
 70
     1
 43
0.0
 10
11.57564084909105
 20
5.407707218714193
 10
11.57564084909105
 20
8.486861576575188
 42
-0.2679491924311231
 10
11.63164084909105
 20
8.583856421799044
 10
12.94580422962924
 20
9.342589003311919
 10
12.98630422962924
 20
9.272440945605382
 10
11.67214084909105
 20
8.513708364092508
 42
0.2679491924311204
 10
11.65664084909105
 20
8.48686157657519
 10
11.65664084909105
 20
5.407707218714193
  0
LINE
  5
220E
330
17
100
AcDbEntity
  8
0
100
AcDbLine
 10
11.85021274389305
 20
7.729991799302414
 30
0.0
 11
12.68761099527081
 21
7.523616342791196
 31
0.0
  0
ARC
  5
220F
330
17
100
AcDbEntity
  8
0
100
AcDbCircle
 10
11.87108272864373
 20
7.516567893793698
 30
0.0
 40
0.214441879552683
100
AcDbArc
 50
95.58499942174689
 51
282.2414419719828
  0
ARC
  5
2210
330
17
100
AcDbEntity
  8
0
100
AcDbCircle
 10
11.87108272864373
 20
7.945451652899063
 30
0.0
 40
0.214441879552683
100
AcDbArc
 50
94.0173737381934
 51
264.377431530185
  0
LINE
  5
2211
330
17
100
AcDbEntity
  8
0
100
AcDbLine
 10
12.34911610160998
 20
8.329688103325089
 30
0.0
 11
12.42686058529682
 21
8.359832273923657
 31
0.0
  0
LINE
  5
2212
330
17
100
AcDbEntity
  8
0
100
AcDbLine
 10
12.85997696698856
 20
7.511692083239882
 30
0.0
 11
11.9165512059709
 21
7.307001824794832
 31
0.0
  0
LINE
  5
2213
330
17
100
AcDbEntity
  8
0
100
AcDbLine
 10
11.9165512059709
 20
7.297250203687196
 30
0.0
 11
12.85997696698856
 21
7.09255994524215
 31
0.0
  0
LINE
  5
2214
330
17
100
AcDbEntity
  8
0
100
AcDbLine
 10
12.80961872223269
 20
7.082289911952905
 30
0.0
 11
11.918878093328
 21
6.878636477871076
 31
0.0
  0
LINE
  5
2215
330
17
100
AcDbEntity
  8
0
100
AcDbLine
 10
11.918878093328
 20
6.867848032400221
 30
0.0
 11
12.80961872223269
 21
6.664194598318395
 31
0.0
  0
LINE
  5
2216
330
17
100
AcDbEntity
  8
0
100
AcDbLine
 10
11.95215921165507
 20
6.460276010306056
 30
0.0
 11
12.39929144832531
 21
6.642882861307192
 31
0.0
  0
LINE
  5
2217
330
17
100
AcDbEntity
  8
0
100
AcDbLine
 10
12.39929144832531
 20
6.245834130753374
 30
0.0
 11
11.95215921165507
 21
6.428440981754508
 31
0.0
  0
LINE
  5
2218
330
17
100
AcDbEntity
  8
0
100
AcDbLine
 10
11.95822099549902
 20
6.03397723259691
 30
0.0
 11
12.35720614643229
 21
6.211414120805608
 31
0.0
  0
LINE
  5
2219
330
17
100
AcDbEntity
  8
0
100
AcDbLine
 10
12.35720614643229
 20
5.819535353044226
 30
0.0
 11
11.95822099549902
 21
5.996972241252924
 31
0.0
  0
LINE
  5
221A
330
17
100
AcDbEntity
  8
0
100
AcDbLine
 10
11.95822099549902
 20
5.605093473491542
 30
0.0
 11
12.35720614643229
 21
5.782530361700242
 31
0.0
  0
LINE
  5
221B
330
17
100
AcDbEntity
  8
0
100
AcDbLine
 10
12.35720614643229
 20
5.39065159393886
 30
0.0
 11
11.95822099549902
 21
5.568088482147558
 31
0.0
  0
LINE
  5
221C
330
17
100
AcDbEntity
  8
0
100
AcDbLine
 10
11.95822099549902
 20
5.176209714386178
 30
0.0
 11
12.35720614643229
 21
5.353646602594876
 31
0.0
  0
ARC
  5
221D
330
17
100
AcDbEntity
  8
0
100
AcDbCircle
 10
11.87108272864373
 20
8.37433541200443
 30
0.0
 40
0.214441879552683
100
AcDbArc
 50
40.63712838584221
 51
261.5424589560563
  0
ARC
  5
221E
330
17
100
AcDbEntity
  8
0
100
AcDbCircle
 10
12.90544544431572
 20
7.302126014241016
 30
0.0
 40
0.214441879552683
100
AcDbArc
 50
257.7585580280171
 51
102.2414419719832
  0
ARC
  5
221F
330
17
100
AcDbEntity
  8
0
100
AcDbCircle
 10
12.85741408691695
 20
6.87324225513565
 30
0.0
 40
0.214441879552683
100
AcDbArc
 50
257.1216011215733
 51
102.8783988784266
  0
ARC
  5
2220
330
17
100
AcDbEntity
  8
0
100
AcDbCircle
 10
11.87108272864373
 20
7.087684134688331
 30
0.0
 40
0.214441879552683
100
AcDbArc
 50
77.75855802801718
 51
282.8783988784266
  0
ARC
  5
2221
330
17
100
AcDbEntity
  8
0
100
AcDbCircle
 10
12.48036793133665
 20
6.444358496030284
 30
0.0
 40
0.214441879552683
100
AcDbArc
 50
247.7851101849261
 51
112.2148898150743
  0
ARC
  5
2222
330
17
100
AcDbEntity
  8
0
100
AcDbCircle
 10
12.44434441328758
 20
6.015474736924918
 30
0.0
 40
0.214441879552683
100
AcDbArc
 50
246.0243030343448
 51
113.9756969656548
  0
ARC
  5
2223
330
17
100
AcDbEntity
  8
0
100
AcDbCircle
 10
11.87108272864373
 20
6.658800375582966
 30
0.0
 40
0.214441879552683
100
AcDbArc
 50
77.12160112157376
 51
292.2148898150743
  0
ARC
  5
2224
330
17
100
AcDbEntity
  8
0
100
AcDbCircle
 10
11.87108272864373
 20
6.2299166164776
 30
0.0
 40
0.214441879552683
100
AcDbArc
 50
67.78511018492608
 51
293.9756969656548
  0
ARC
  5
2225
330
17
100
AcDbEntity
  8
0
100
AcDbCircle
 10
11.87108272864373
 20
5.801032857372234
 30
0.0
 40
0.214441879552683
100
AcDbArc
 50
66.0243030343452
 51
293.9756969656548
  0
ARC
  5
2226
330
17
100
AcDbEntity
  8
0
100
AcDbCircle
 10
11.87108272864373
 20
5.372149098266868
 30
0.0
 40
0.214441879552683
100
AcDbArc
 50
66.0243030343452
 51
293.9756969656548
  0
ARC
  5
2227
330
17
100
AcDbEntity
  8
0
100
AcDbCircle
 10
12.44434441328758
 20
5.586590977819552
 30
0.0
 40
0.214441879552683
100
AcDbArc
 50
246.0243030343448
 51
113.9756969656548
  0
ARC
  5
2228
330
17
100
AcDbEntity
  8
0
100
AcDbCircle
 10
12.44434441328758
 20
5.157707218714186
 30
0.0
 40
0.214441879552683
100
AcDbArc
 50
0.0000000000001018
 51
113.9756969656548
  0
LWPOLYLINE
  5
2229
330
17
100
AcDbEntity
  8
0
100
AcDbPolyline
 90
       12
 70
     1
 43
0.0
 10
11.20822464258063
 20
3.525267358759398
 10
10.69968629284026
 20
3.525267358759398
 10
10.69968629284026
 20
5.915147078668963
 10
11.20822464258063
 20
5.915147078668963
 42
1.33239341188041
 10
11.29393162992653
 20
5.926202278276312
 10
11.37706798563526
 20
5.940861460865535
 42
0.8617744796823018
 10
11.372686243261
 20
5.970207218714181
 10
10.63768629284026
 20
5.970207218714181
 10
10.63768629284026
 20
3.470207218714181
 10
11.372686243261
 20
3.470207218714181
 42
0.861774479682302
 10
11.37706798563526
 20
3.499552976562826
 10
11.29393162992652
 20
3.51421215915205
 42
1.33239341188041
  0
LWPOLYLINE
  5
222A
330
17
100
AcDbEntity
  8
0
100
AcDbPolyline
 90
       41
 70
     1
 43
0.0
 10
11.40268629284026
 20
5.001207218714187
 10
11.38768629284027
 20
5.016207218714187
 10
11.38768629284026
 20
5.878707218714183
 10
11.45268629284027
 20
5.878707218714181
 10
11.45268629284027
 20
5.89870721871418
 10
11.38768629284026
 20
5.928707218714183
 10
11.30192668049088
 20
5.913585485201888
 42
-0.9999999999999998
 10
11.20344590518966
 20
5.896220667435194
 10
10.96919418164379
 20
5.793078809396678
 42
0.2973336368416808
 10
10.95068629284027
 20
5.764707218714185
 10
10.95068629284027
 20
5.723186811445414
 42
0.5416234831226134
 10
10.99417840403674
 20
5.694815220762921
 10
11.12467803407291
 20
5.752274667001035
 42
-0.1040635034746246
 10
11.13717014526938
 20
5.754903076318543
 10
11.25668629284027
 20
5.754903076318543
 42
-0.4142135623730951
 10
11.28768629284027
 20
5.723903076318542
 10
11.28768629284027
 20
4.970207218714183
 10
11.26268629284027
 20
4.970207218714183
 10
11.26268629284027
 20
4.735207218714183
 10
11.27768629284026
 20
4.720207218714183
 10
11.26268629284027
 20
4.705207218714182
 10
11.26268629284027
 20
4.470207218714183
 10
11.28768629284027
 20
4.470207218714183
 10
11.28768629284027
 20
3.716511361109823
 42
-0.4142135623730951
 10
11.25668629284027
 20
3.685511361109822
 10
11.13717014526938
 20
3.685511361109822
 42
-0.104063503474624
 10
11.12467803407291
 20
3.68813977042733
 10
10.99417840403674
 20
3.745599216665445
 42
0.5416234831226135
 10
10.95068629284027
 20
3.717227625982951
 10
10.95068629284027
 20
3.67570721871418
 42
0.2973336368416811
 10
10.96919418164379
 20
3.647335628031687
 10
11.20344590518966
 20
3.544193769993171
 42
-0.9999999999999998
 10
11.30192668049088
 20
3.526828952226477
 10
11.38768629284026
 20
3.511707218714182
 10
11.45268629284027
 20
3.541707218714185
 10
11.45268629284027
 20
3.561707218714184
 10
11.38768629284027
 20
3.561707218714182
 10
11.38768629284027
 20
4.424207218714185
 10
11.40268629284026
 20
4.439207218714185
 10
11.38768629284027
 20
4.454207218714186
 10
11.38768629284027
 20
4.986207218714186
  0
LWPOLYLINE
  5
222B
330
17
100
AcDbEntity
  8
0
100
AcDbPolyline
 90
       24
 70
     1
 43
0.0
 10
14.34254195857725
 20
10.36271856111522
 10
14.32522145050157
 20
10.35271856111522
 10
14.29272145050157
 20
10.40901021236122
 10
13.85970874860934
 20
10.15901021236122
 10
13.82470874860933
 20
10.21963199062615
 10
13.60820239766322
 20
10.09463199062615
 10
13.64320239766323
 20
10.03401021236123
 10
13.36953837006735
 20
9.876010212361229
 10
13.33453837006735
 20
9.936631990626139
 10
13.10244356185312
 20
9.802631990626139
 10
13.13744356185312
 20
9.742010212361229
 10
12.86377953425725
 20
9.584010212361224
 10
12.82877953425724
 20
9.644631990626134
 10
12.61227318331114
 20
9.51963199062613
 10
12.64727318331113
 20
9.459010212361224
 10
12.21426048141892
 20
9.209010212361215
 10
12.24676048141892
 20
9.152718561115225
 10
12.22943997334323
 20
9.142718561115227
 10
12.1709592112297
 20
9.184010212361215
 10
12.1399592112297
 20
9.237703787395851
 10
12.18607841210653
 20
9.409822988272686
 10
14.13290351981391
 20
10.5338229882727
 10
14.30502272069079
 20
10.48770378739585
 10
14.33602272069079
 20
10.43401021236121
  0
LINE
  5
222C
330
17
100
AcDbEntity
  8
0
100
AcDbLine
 10
12.97087065417802
 20
6.514291439190785
 30
0.0
 11
13.29563018059718
 21
6.701791439190785
 31
0.0
  0
LINE
  5
222D
330
17
100
AcDbEntity
  8
0
100
AcDbLine
 10
13.09104197610953
 20
7.591148603992692
 30
0.0
 11
13.3206159909779
 21
7.193514746143106
 31
0.0
  0
LWPOLYLINE
  5
222E
330
17
100
AcDbEntity
  8
0
100
AcDbPolyline
 90
       12
 70
     0
 43
0.0
 10
14.59059278367841
 20
8.993850416752474
 10
14.72699178583648
 20
9.072600417365634
 42
-0.4142135623730639
 10
14.76797254795001
 20
9.061619655252103
 10
14.77797254795001
 20
9.044299147176413
 10
14.73900140477971
 20
9.021799147176412
 10
14.76658884361532
 20
8.974016301462459
 42
0.3704662542213858
 10
14.95278430542897
 20
9.081516301462443
 10
14.92519686659337
 20
9.129299147176412
 10
14.88622572342307
 20
9.106799147176412
 10
14.87622572342307
 20
9.1241196552521
 42
-0.4142135623730832
 10
14.8872064855366
 20
9.165100417365634
 10
15.02360548530514
 20
9.243850416599187
  0
LINE
  5
222F
330
17
100
AcDbEntity
  8
0
100
AcDbLine
 10
14.0283874086079
 20
9.967618693115412
 30
0.0
 11
15.29884667595972
 21
10.70111869311543
 31
0.0
  0
LINE
  5
2230
330
17
100
AcDbEntity
  8
0
100
AcDbLine
 10
14.1533874086079
 20
9.7511123421693
 30
0.0
 11
14.0283874086079
 21
9.967618693115412
 31
0.0
  0
LINE
  5
2231
330
17
100
AcDbEntity
  8
0
100
AcDbLine
 10
15.42384667595972
 20
10.48461234216932
 30
0.0
 11
14.1533874086079
 21
9.7511123421693
 31
0.0
  0
LINE
  5
2232
330
17
100
AcDbEntity
  8
0
100
AcDbLine
 10
14.44668867879712
 20
9.343099640277081
 30
0.0
 11
14.19668867879712
 21
9.776112342169298
 31
0.0
  0
LINE
  5
2233
330
17
100
AcDbEntity
  8
0
100
AcDbLine
 10
14.4033874086079
 20
9.318099640277083
 30
0.0
 11
15.67384667595972
 21
10.0515996402771
 31
0.0
  0
LINE
  5
2234
330
17
100
AcDbEntity
  8
0
100
AcDbLine
 10
14.5283874086079
 20
9.101593289330972
 30
0.0
 11
14.4033874086079
 21
9.318099640277083
 31
0.0
  0
LINE
  5
2235
330
17
100
AcDbEntity
  8
0
100
AcDbLine
 10
15.79884667595972
 20
9.835093289331002
 30
0.0
 11
14.5283874086079
 21
9.101593289330972
 31
0.0
  0
LWPOLYLINE
  5
2236
330
17
100
AcDbEntity
  8
0
100
AcDbPolyline
 90
       12
 70
     0
 43
0.0
 10
14.59059278367841
 20
8.993850416752474
 10
14.72699178583648
 20
9.072600417365634
 42
-0.4142135623730639
 10
14.76797254795001
 20
9.061619655252103
 10
14.77797254795001
 20
9.044299147176413
 10
14.73900140477971
 20
9.021799147176412
 10
14.76658884361532
 20
8.974016301462459
 42
0.3704662542213858
 10
14.95278430542897
 20
9.081516301462443
 10
14.92519686659337
 20
9.129299147176412
 10
14.88622572342307
 20
9.106799147176412
 10
14.87622572342307
 20
9.1241196552521
 42
-0.4142135623730832
 10
14.8872064855366
 20
9.165100417365634
 10
15.02360548530514
 20
9.243850416599187
  0
LINE
  5
2237
330
17
100
AcDbEntity
  8
0
100
AcDbLine
 10
12.69468629284026
 20
5.157707218714193
 30
0.0
 11
12.69468629284026
 21
5.792207218714192
 31
0.0
  0
LINE
  5
2238
330
17
100
AcDbEntity
  8
0
100
AcDbLine
 10
14.7930988403109
 20
9.54309964027708
 30
0.0
 11
14.5430988403109
 21
9.976112342169301
 31
0.0
  0
LWPOLYLINE
  5
2239
330
17
100
AcDbEntity
  8
0
100
AcDbPolyline
 90
       10
 70
     1
 43
0.0
 10
13.19496502562568
 20
7.65114860460585
 42
0.4142135623730908
 10
13.18398426351215
 20
7.61016784249232
 10
13.66955738255922
 20
6.769130529513102
 42
0.166554338436942
 10
13.69984911710088
 20
6.742716647380454
 10
15.19505624312634
 20
6.133271729749502
 42
0.7144507839041664
 10
15.24146946763911
 20
6.186498933123205
 10
14.71483245568827
 20
7.098660994968314
 42
-0.198912367379658
 10
14.70863862949298
 20
7.14570777576467
 10
15.12713311474079
 20
8.707550457396859
 42
0.6681786379192989
 10
15.08315533995212
 20
8.741295790863468
  0
LWPOLYLINE
  5
223A
330
17
100
AcDbEntity
  8
0
100
AcDbPolyline
 90
       10
 70
     0
 43
0.0
 10
13.46610209450473
 20
6.754025423039397
 10
12.70968629284026
 20
6.31730855632913
 42
0.2679491924311228
 10
12.69468629284026
 20
6.291327794215597
 10
12.69468629284026
 20
5.282707218714186
 10
12.65878629284026
 20
5.282707218714186
 10
12.65878629284026
 20
6.299468433011179
 42
-0.2679491924311228
 10
12.68878629284026
 20
6.351429957238245
 10
13.44610209450473
 20
6.788666439190782
 10
13.46610209450473
 20
6.754025423039397
 10
13.44610209450473
 20
6.788666439190784
  0
INSERT
  5
223B
330
17
100
AcDbEntity
  8
0
100
AcDbBlockReference
  2
*X2
 10
10.57338430839745
 20
1.901027812671024
 30
0.0
  0
LWPOLYLINE
  5
223C
330
17
100
AcDbEntity
  8
0
100
AcDbPolyline
 90
      125
 70
     1
 43
0.0
 10
11.69718629284026
 20
4.376707218714184
 10
11.60368629284026
 20
4.376707218714185
 42
0.4142135623730951
 10
11.57268629284026
 20
4.345707218714185
 10
11.57268629284026
 20
4.282707218714184
 10
12.69768629284026
 20
4.282707218714184
 10
12.69768629284026
 20
3.648707218714186
 42
0.4142135623730951
 10
12.72268629284026
 20
3.623707218714187
 10
12.73768629284026
 20
3.623707218714187
 10
12.73768629284026
 20
3.645707218714186
 10
12.83468629284026
 20
3.645707218714187
 42
-0.4142135623730951
 10
12.88468629284026
 20
3.595707218714187
 10
12.88468629284026
 20
3.570707218714188
 42
-0.4142135623730898
 10
12.83468629284026
 20
3.520707218714189
 10
12.73768629284026
 20
3.520707218714186
 10
12.73768629284026
 20
3.542707218714188
 10
12.72268629284026
 20
3.542707218714188
 42
0.4142135623730951
 10
12.69768629284026
 20
3.517707218714186
 10
12.69768629284026
 20
3.470707218714185
 10
16.69468629284026
 20
3.470707218714188
 10
16.69468629284026
 20
5.970707218714183
 10
12.69768629284026
 20
5.970707218714183
 10
12.69768629284026
 20
5.923707218714186
 42
0.4142135623730951
 10
12.72268629284026
 20
5.898707218714186
 10
12.73768629284026
 20
5.89870721871418
 10
12.73768629284026
 20
5.920707218714186
 10
12.83468629284026
 20
5.920707218714186
 42
-0.4142135623730951
 10
12.88468629284026
 20
5.870707218714175
 10
12.88468629284026
 20
5.845707218714183
 42
-0.4142135623730951
 10
12.83468629284026
 20
5.795707218714182
 10
12.73768629284026
 20
5.795707218714186
 10
12.73768629284026
 20
5.817707218714177
 10
12.72268629284026
 20
5.817707218714177
 42
0.4142135623730951
 10
12.69768629284026
 20
5.792707218714186
 10
12.69768629284026
 20
5.157707218714184
 10
11.57268629284026
 20
5.157707218714184
 10
11.57268629284026
 20
5.094707218714182
 42
0.4142135623730951
 10
11.60368629284026
 20
5.063707218714181
 10
11.69718629284026
 20
5.063707218714183
 42
-0.9999999999999998
 10
11.69718625870059
 20
4.93870721871419
 10
11.60368629284026
 20
4.938707218714185
 42
0.4142135623730825
 10
11.57268629284026
 20
4.907707218714186
 10
11.57268629284026
 20
4.839207218714184
 10
11.58798680820863
 20
4.812705948714183
 10
11.5976862927734
 20
4.812705948714183
 10
11.61298680827549
 20
4.839207218714182
 10
11.62268629284026
 20
4.839207218714182
 10
11.63798680820863
 20
4.812705948714183
 10
11.6476862927734
 20
4.812705948714183
 10
11.66298680827549
 20
4.839207218714182
 10
11.67268629284027
 20
4.839207218714182
 10
11.68798680820863
 20
4.812705948714183
 10
11.6976862927734
 20
4.812705948714183
 10
11.71298680827549
 20
4.839207218714182
 10
11.72268629284026
 20
4.839207218714182
 10
11.73798680820863
 20
4.812705948714183
 10
11.7476862927734
 20
4.812705948714183
 10
11.76298680827549
 20
4.839207218714182
 10
11.77268629284027
 20
4.839207218714182
 10
11.78798680820863
 20
4.812705948714183
 10
11.7976862927734
 20
4.812705948714183
 10
11.81298680827549
 20
4.839207218714182
 10
11.82268629284026
 20
4.839207218714182
 10
11.83798680820863
 20
4.812705948714183
 10
11.8476862927734
 20
4.812705948714183
 10
11.86298680827549
 20
4.839207218714182
 10
11.87268629284026
 20
4.839207218714182
 10
11.88798680820863
 20
4.812705948714183
 10
11.89768629277341
 20
4.812705948714183
 10
11.91298680827549
 20
4.839207218714182
 10
11.92268629284026
 20
4.839207218714182
 10
11.93798680820863
 20
4.812705948714183
 10
11.9476862927734
 20
4.81270594871418
 10
11.96298680827549
 20
4.839207218714182
 10
11.97268629284026
 20
4.839207218714182
 10
11.98798680820863
 20
4.81270594871418
 10
11.9976862927734
 20
4.81270594871418
 10
12.01298680827549
 20
4.839207218714182
 10
12.02268629284027
 20
4.839207218714182
 10
12.03798680820863
 20
4.812705948714183
 10
12.0476862927734
 20
4.812705948714183
 10
12.05808011792514
 20
4.830708581804634
 42
-0.6271311136319316
 10
12.07762245972699
 20
4.619158796830648
 10
12.0726862927734
 20
4.627708488714185
 10
12.06298680820863
 20
4.627708488714185
 10
12.04768629284027
 20
4.601207218714185
 10
12.03798680827549
 20
4.601207218714185
 10
12.0226862927734
 20
4.627708488714185
 10
12.01298680820863
 20
4.627708488714185
 10
11.99768629284026
 20
4.601207218714185
 10
11.98798680827549
 20
4.601207218714185
 10
11.9726862927734
 20
4.627708488714185
 10
11.96298680820863
 20
4.627708488714185
 10
11.94768629284026
 20
4.601207218714183
 10
11.9379868082755
 20
4.601207218714185
 10
11.9226862927734
 20
4.627708488714185
 10
11.91298680820863
 20
4.627708488714185
 10
11.89768629284026
 20
4.601207218714185
 10
11.88798680827549
 20
4.601207218714185
 10
11.8726862927734
 20
4.627708488714185
 10
11.86298680820863
 20
4.627708488714185
 10
11.84768629284026
 20
4.601207218714185
 10
11.83798680827549
 20
4.601207218714185
 10
11.8226862927734
 20
4.627708488714185
 10
11.81298680820863
 20
4.627708488714185
 10
11.79768629284027
 20
4.601207218714185
 10
11.78798680827549
 20
4.601207218714185
 10
11.7726862927734
 20
4.627708488714185
 10
11.76298680820863
 20
4.627708488714185
 10
11.74768629284026
 20
4.601207218714183
 10
11.73798680827549
 20
4.601207218714185
 10
11.7226862927734
 20
4.627708488714185
 10
11.71298680820863
 20
4.627708488714185
 10
11.69768629284027
 20
4.601207218714185
 10
11.68798680827549
 20
4.601207218714185
 10
11.6726862927734
 20
4.627708488714185
 10
11.66298680820863
 20
4.627708488714185
 10
11.64768629284026
 20
4.601207218714185
 10
11.63798680827549
 20
4.601207218714185
 10
11.6226862927734
 20
4.627708488714185
 10
11.61298680820863
 20
4.627708488714185
 10
11.59768629284026
 20
4.601207218714185
 10
11.57268629284026
 20
4.601207218714185
 10
11.57268629284026
 20
4.532707218714186
 42
0.4142135623730951
 10
11.60368629284026
 20
4.501707218714185
 10
11.69718629284026
 20
4.501707218714187
 42
-1.000000000000014
  0
LWPOLYLINE
  5
223D
330
17
100
AcDbEntity
  8
0
100
AcDbPolyline
 90
       10
 70
     1
 43
0.0
 10
12.92468629284027
 20
5.695707218714181
 10
12.78768629284027
 20
5.695707218714176
 10
12.78768629284026
 20
3.745707218714187
 10
12.92468629284027
 20
3.745707218714187
 42
-0.4142135623731122
 10
12.98468629284027
 20
3.685707218714183
 10
12.98468629284026
 20
3.560707218714185
 10
16.60468629284026
 20
3.560707218714187
 10
16.60468629284026
 20
5.880707218714183
 10
12.98468629284026
 20
5.880707218714183
 10
12.98468629284026
 20
5.755707218714182
 42
-0.4142135623730948
  0
LWPOLYLINE
  5
223E
330
17
100
AcDbEntity
  8
0
100
AcDbPolyline
 90
        8
 70
     1
 43
0.0
 10
12.00743629284026
 20
4.502207218714184
 42
0.9999999999999998
 10
12.00743629284026
 20
4.382707218714182
 10
12.69768629284026
 20
4.382707218714182
 10
12.69768629284026
 20
5.057707218714183
 10
12.00743629284026
 20
5.057707218714183
 42
0.9999999999999998
 10
12.00743629284026
 20
4.938207218714186
 10
12.01668629284026
 20
4.938207218714184
 42
-0.9999999999999998
 10
12.01668629284026
 20
4.502207218714184
  0
LINE
  5
223F
330
17
100
AcDbEntity
  8
0
100
AcDbLine
 10
12.32268629284027
 20
3.513707218714188
 30
0.0
 11
11.82268629284026
 21
3.513707218714188
 31
0.0
  0
LINE
  5
2240
330
17
100
AcDbEntity
  8
0
100
AcDbLine
 10
12.57268629284026
 20
2.958470130219369
 30
0.0
 11
12.57268629284026
 21
3.969707218714185
 31
0.0
  0
LINE
  5
2241
330
17
100
AcDbEntity
  8
0
100
AcDbLine
 10
12.57268629284026
 20
3.969707218714185
 30
0.0
 11
12.32268629284027
 21
3.969707218714185
 31
0.0
  0
LINE
  5
2242
330
17
100
AcDbEntity
  8
0
100
AcDbLine
 10
12.32268629284027
 20
3.969707218714185
 30
0.0
 11
12.32268629284027
 21
2.958470130219369
 31
0.0
  0
LINE
  5
2243
330
17
100
AcDbEntity
  8
0
100
AcDbLine
 10
12.32268629284027
 20
3.919707218714188
 30
0.0
 11
11.82268629284026
 21
3.919707218714188
 31
0.0
  0
LINE
  5
2244
330
17
100
AcDbEntity
  8
0
100
AcDbLine
 10
11.82268629284026
 20
2.958470130219369
 30
0.0
 11
11.82268629284026
 21
3.969707218714185
 31
0.0
  0
LINE
  5
2245
330
17
100
AcDbEntity
  8
0
100
AcDbLine
 10
11.82268629284026
 20
3.969707218714185
 30
0.0
 11
11.57268629284026
 21
3.969707218714185
 31
0.0
  0
LINE
  5
2246
330
17
100
AcDbEntity
  8
0
100
AcDbLine
 10
11.57268629284026
 20
3.969707218714185
 30
0.0
 11
11.57268629284026
 21
2.958470130219369
 31
0.0
  0
LWPOLYLINE
  5
2247
330
17
100
AcDbEntity
  8
KCADSMISC
100
AcDbPolyline
 90
       18
 70
     1
 43
0.0
 10
14.32441020986711
 20
8.464892161135587
 42
0.9999999999999918
 10
14.41101275024556
 20
8.514892161135586
 10
14.27101275024556
 20
8.757379274195233
 42
-0.4142135623730953
 10
14.31676592571862
 20
8.928132449668286
 10
14.55059278474041
 20
9.06313244966828
 10
14.37559278474042
 20
9.366241340992836
 10
14.29363126051335
 20
9.388202865219902
 10
14.16613126051335
 20
9.609039343184932
 10
14.18809278474042
 20
9.691000867411997
 10
14.01309278474042
 20
9.994109758736552
 10
13.5800800828482
 20
9.744109758736552
 10
13.9700800828482
 20
9.068609943784688
 42
-0.4142135623730977
 10
13.92432690737514
 20
8.897856768311637
 10
13.72947119099267
 20
8.785356768005076
 42
0.4142135623730973
 10
13.71116992080345
 20
8.717055497815856
 10
13.79116992080345
 20
8.578491433210349
 10
14.03365703439406
 20
8.718491433516902
 42
-0.4142135623730936
 10
14.20441020986712
 20
8.672738258043846
  0
LWPOLYLINE
  5
2248
330
17
100
AcDbEntity
  8
0
100
AcDbPolyline
 90
       78
 70
     0
 43
0.0
 10
13.13076595670782
 20
9.522225894556129
 10
13.91201595670783
 20
8.169061201142937
 10
13.1412533478707
 20
7.724061201449515
 42
-0.4142135623730951
 10
13.10027258575717
 20
7.735041963563048
 10
12.61452258575717
 20
8.576385643339634
 42
-0.4142135623730777
 10
12.6255033478707
 20
8.617366405453164
 10
12.74674690440052
 20
8.687366405453175
 42
0.2453282281231885
 10
12.87332865153145
 20
8.886581926573118
 42
0.1533065830696688
 10
12.86550623525711
 20
8.921669210536666
 10
12.8447724932331
 20
8.957581105153295
 42
0.4142135623731122
 10
12.85575325534663
 20
8.998561867266825
 10
12.84575325534663
 20
9.015882375342517
 10
12.70935425425058
 20
8.937132375342512
 42
0.4142135623731124
 10
12.69837349213705
 20
8.896151613228981
 10
12.70837349213705
 20
8.878831105153292
 10
12.74734463530735
 20
8.901331105153293
 10
12.77493207414295
 20
8.853548259439321
 42
-0.3704662542213899
 10
12.58873661232929
 20
8.746048259439341
 10
12.56114917349369
 20
8.793831105153291
 10
12.600120316664
 20
8.816331105153292
 10
12.59012031666399
 20
8.833651613228983
 42
0.4142135623730561
 10
12.54913955455046
 20
8.844632375342513
 10
12.41274055345441
 20
8.76588237534251
 10
13.51624055345441
 20
6.854564309190259
 42
-0.4142135623730909
 10
13.49354697841977
 20
6.769870734155624
 10
12.72018629284026
 20
6.323370734155624
 42
0.9999999999999998
 10
12.76518629284026
 20
6.245428447815024
 10
13.53184679372661
 20
6.688060094378808
 42
-0.231676105815556
 10
13.58624863421958
 20
6.691780401476821
 10
15.35416976780652
 20
5.971177529217261
 10
16.52330406291551
 20
6.646177529217263
 10
16.27330406291551
 20
7.079190231109485
 10
16.21961048788087
 20
7.048190231109488
 10
16.42461048788088
 20
6.69311981555786
 10
15.44946588321959
 20
6.130119815557861
 42
-0.4142135623730951
 10
15.36477230818496
 20
6.152813390592498
 10
14.79852230818496
 20
7.133587160378381
 10
15.2560540629155
 20
8.841118915108927
 10
15.02355406291551
 20
9.243820727868692
 10
14.88715506181945
 20
9.165070727868695
 42
0.4142135623730516
 10
14.87617429970592
 20
9.124089965755162
 10
14.88617429970592
 20
9.106769457679471
 10
14.92514544287622
 20
9.129269457679471
 10
14.95273288171182
 20
9.081486611965521
 42
-0.3704662542213883
 10
14.76653741989817
 20
8.973986611965509
 10
14.73894998106256
 20
9.021769457679472
 10
14.77792112423287
 20
9.044269457679472
 10
14.76792112423287
 20
9.061589965755164
 42
0.4142135623731038
 10
14.72694036211933
 20
9.072570727868697
 10
14.59054136102328
 20
8.993820727868698
 10
14.60054136102328
 20
8.976500219793006
 42
0.4142135623731039
 10
14.64152212313681
 20
8.965519457679473
 10
14.66225586516085
 20
8.929607563062823
 42
0.1533065830697019
 10
14.68873113628593
 20
8.905289509868509
 42
0.2453282281231519
 10
14.92454771196939
 20
8.915304757979349
 10
15.03713101446137
 20
8.98030475797935
 42
-0.4142135623731038
 10
15.0781117765749
 20
8.969323995865815
 10
15.11811177657491
 20
8.90004196356306
 42
-0.4142135623730951
 10
15.10713101446137
 20
8.859061201449527
 10
13.99861849708627
 20
8.219061201142938
 10
13.68611821184886
 20
8.76032757255391
 42
-0.4142135623731038
 10
13.69709897396239
 20
8.801308334667442
 10
13.80102202347854
 20
8.861308335280595
 42
0.4142135623730919
 10
13.89252837442465
 20
9.202814686226702
 10
13.56377865966206
 20
9.772225895169288
 10
13.455525483658
 20
9.709725894862712
 42
0.4142135623730951
 10
13.44454472154447
 20
9.668745132749178
 10
13.52454472154447
 20
9.530181068143667
 10
13.54186522962016
 20
9.54018106814367
 10
13.58125753974064
 20
9.431951585587478
 10
13.75704472154447
 20
9.127479255383903
 42
-0.9999999999999998
 10
13.59249989482542
 20
9.032479255383902
 10
13.4167127130216
 20
9.336951585587478
 10
13.34267938674974
 20
9.425181068143668
 10
13.35999989482543
 20
9.435181068143666
 10
13.27999989482542
 20
9.573745132749177
 42
0.4142135623730864
 10
13.23901913271189
 20
9.58472589486271
 10
13.13076595776984
 20
9.522225895169288
  0
LINE
  5
2249
330
17
100
AcDbEntity
  8
0
100
AcDbLine
 10
12.69920215360834
 20
6.307156838646866
 30
0.0
 11
12.7029157884134
 21
6.305454447376044
 31
0.0
  0
LINE
  5
224A
330
17
100
AcDbEntity
  8
0
100
AcDbLine
 10
11.85021274389305
 20
7.729991799302414
 30
0.0
 11
12.66032289803893
 21
7.947102037031775
 31
0.0
  0
ARC
  5
224B
330
17
100
AcDbEntity
  8
0
100
AcDbCircle
 10
12.68542343209194
 20
7.736097410098835
 30
0.0
 40
0.2124923278541028
100
AcDbArc
 50
270.5898582451577
 51
96.78387015393749
  0
LINE
  5
224C
330
17
100
AcDbEntity
  8
0
100
AcDbLine
 10
12.03381182844072
 20
8.513994138138352
 30
0.0
 11
12.34911610160998
 21
8.329688103325089
 31
0.0
  0
LINE
  5
224D
330
17
100
AcDbEntity
  8
0
100
AcDbLine
 10
11.85605915340665
 20
8.159366617062824
 30
0.0
 11
12.48200639086391
 21
7.994164059609223
 31
0.0
  0
LINE
  5
224E
330
17
100
AcDbEntity
  8
0
100
AcDbLine
 10
12.34911610160998
 20
8.329688103325089
 30
0.0
 11
11.85605915340665
 21
8.159366617062824
 31
0.0
  0
LINE
  5
224F
330
17
100
AcDbEntity
  8
KCADSMISC
100
AcDbLine
 10
14.01309278474042
 20
9.994109758736552
 30
0.0
 11
14.03365703439406
 21
8.718491433516902
 31
0.0
  0
LINE
  5
2250
330
17
100
AcDbEntity
  8
KCADSMISC
100
AcDbLine
 10
14.55009159848086
 20
9.06284308964641
 30
0.0
 11
13.5800800828482
 21
9.744109758736552
 31
0.0
  0
TEXT
  5
2251
330
17
100
AcDbEntity
  8
KCADSLABEL
100
AcDbText
 10
12.16307930921723
 20
9.984880171218653
 30
0.0
 40
0.125
  1
822034
 50
360.0
 72
     1
 11
12.45443333377384
 21
10.10988017121865
 31
0.0
100
AcDbText
 73
     3
  0
TEXT
  5
2252
330
17
100
AcDbEntity
  8
KCADSLABEL
100
AcDbText
 10
15.78132617078825
 20
3.205183157409129
 30
0.0
 40
0.125
  1
216883
 72
     4
 11
16.07268019534486
 21
3.266830497108992
 31
0.0
100
AcDbText
  0
ARC
  5
2253
330
17
100
AcDbEntity
  8
0
100
AcDbCircle
 10
10.95637450319255
 20
7.405240699331258
 30
0.0
 40
2.365354158599966
100
AcDbArc
 50
341.2329010413678
 51
355.1686950724697
  0
CIRCLE
  5
2254
330
17
100
AcDbEntity
  8
0
100
AcDbCircle
 10
13.33145452239094
 20
6.971766793509889
 30
0.0
 40
0.0059
  0
CIRCLE
  5
2255
330
17
100
AcDbEntity
  8
0
100
AcDbCircle
 10
13.37507813453149
 20
6.959055684763033
 30
0.0
 40
0.0059
  0
CIRCLE
  5
2256
330
17
100
AcDbEntity
  8
0
100
AcDbCircle
 10
13.36780752757475
 20
7.009900083138745
 30
0.0
 40
0.0059
  0
CIRCLE
  5
2257
330
17
100
AcDbEntity
  8
0
100
AcDbCircle
 10
13.3350898406693
 20
7.062560348962339
 30
0.0
 40
0.0059
  0
CIRCLE
  5
2258
330
17
100
AcDbEntity
  8
0
100
AcDbCircle
 10
13.3169133380774
 20
7.018979438683992
 30
0.0
 40
0.0059
  0
CIRCLE
  5
2259
330
17
100
AcDbEntity
  8
0
100
AcDbCircle
 10
13.30782508678145
 20
6.897316063394196
 30
0.0
 40
0.0059
  0
CIRCLE
  5
225A
330
17
100
AcDbEntity
  8
0
100
AcDbCircle
 10
13.39688992580179
 20
6.899131930842074
 30
0.0
 40
0.0059
  0
CIRCLE
  5
225B
330
17
100
AcDbEntity
  8
0
100
AcDbCircle
 10
13.47141355090864
 20
6.877341484855829
 30
0.0
 40
0.0059
  0
CIRCLE
  5
225C
330
17
100
AcDbEntity
  8
0
100
AcDbCircle
 10
13.44778408569919
 20
6.837392327779092
 30
0.0
 40
0.0059
  0
CIRCLE
  5
225D
330
17
100
AcDbEntity
  8
0
100
AcDbCircle
 10
13.38416635622749
 20
6.844655797570602
 30
0.0
 40
0.0059
  0
CIRCLE
  5
225E
330
17
100
AcDbEntity
  8
0
100
AcDbCircle
 10
13.3350898406693
 20
6.882789105505317
 30
0.0
 40
0.0059
  0
CIRCLE
  5
225F
330
17
100
AcDbEntity
  8
0
100
AcDbCircle
 10
13.2969191911463
 20
6.831944707129604
 30
0.0
 40
0.0059
  0
CIRCLE
  5
2260
330
17
100
AcDbEntity
  8
0
100
AcDbCircle
 10
13.32600158937335
 20
6.804706640493868
 30
0.0
 40
0.0059
  0
CIRCLE
  5
2261
330
17
100
AcDbEntity
  8
0
100
AcDbCircle
 10
13.3405427736869
 20
6.835576442025359
 30
0.0
 40
0.0059
  0
CIRCLE
  5
2262
330
17
100
AcDbEntity
  8
0
100
AcDbCircle
 10
13.38598403016664
 20
6.793811417500744
 30
0.0
 40
0.0059
  0
CIRCLE
  5
2263
330
17
100
AcDbEntity
  8
0
100
AcDbCircle
 10
13.45323704831674
 20
6.819233616688602
 30
0.0
 40
0.0059
  0
CIRCLE
  5
2264
330
17
100
AcDbEntity
  8
0
100
AcDbCircle
 10
13.47868412826544
 20
6.7974431523965
 30
0.0
 40
0.0059
  0
CIRCLE
  5
2265
330
17
100
AcDbEntity
  8
0
100
AcDbCircle
 10
13.50413123781408
 20
6.830128839681723
 30
0.0
 40
0.0059
  0
CIRCLE
  5
2266
330
17
100
AcDbEntity
  8
0
100
AcDbCircle
 10
13.3587192762788
 20
6.761125730215521
 30
0.0
 40
0.0059
  0
CIRCLE
  5
2267
330
17
100
AcDbEntity
  8
0
100
AcDbCircle
 10
13.28601329551115
 20
6.766573350865009
 30
0.0
 40
0.0059
  0
CIRCLE
  5
2268
330
17
100
AcDbEntity
  8
0
100
AcDbCircle
 10
13.2514779642665
 20
6.733887663579785
 30
0.0
 40
0.0059
  0
CIRCLE
  5
2269
330
17
100
AcDbEntity
  8
0
100
AcDbCircle
 10
13.28419565117195
 20
6.737519398475541
 30
0.0
 40
0.0059
  0
CIRCLE
  5
226A
330
17
100
AcDbEntity
  8
0
100
AcDbCircle
 10
13.3150956937382
 20
6.748414639774519
 30
0.0
 40
0.0059
  0
CIRCLE
  5
226B
330
17
100
AcDbEntity
  8
0
100
AcDbCircle
 10
13.24057206863135
 20
6.684859150957805
 30
0.0
 40
0.0059
  0
CIRCLE
  5
226C
330
17
100
AcDbEntity
  8
0
100
AcDbCircle
 10
13.44414879702079
 20
6.904579551491561
 30
0.0
 40
0.0059
  0
CIRCLE
  5
226D
330
17
100
AcDbEntity
  8
0
100
AcDbCircle
 10
13.42960761270724
 20
6.933633485575175
 30
0.0
 40
0.0059
  0
CIRCLE
  5
226E
330
17
100
AcDbEntity
  8
0
100
AcDbCircle
 10
13.35144866932205
 20
7.095246017941708
 30
0.0
 40
0.0059
  0
CIRCLE
  5
226F
330
17
100
AcDbEntity
  8
0
100
AcDbCircle
 10
13.32781923371255
 20
7.142458681421665
 30
0.0
 40
0.0059
  0
CIRCLE
  5
2270
330
17
100
AcDbEntity
  8
0
100
AcDbCircle
 10
13.313278049399
 20
7.109772994136442
 30
0.0
 40
0.0059
  0
CIRCLE
  5
2271
330
17
100
AcDbEntity
  8
0
100
AcDbCircle
 10
13.34599573630445
 20
6.928185883231542
 30
0.0
 40
0.0059
  0
ARC
  5
2272
330
17
100
AcDbEntity
  8
0
100
AcDbCircle
 10
12.45194839895752
 20
8.176623394674635
 30
0.0
 40
0.1849186086632627
100
AcDbArc
 50
279.3547726678959
 51
97.7973351263985
  0
LINE
  5
2273
330
17
100
AcDbEntity
  8
0
100
AcDbLine
 10
14.20195747705568
 20
10.35660760785951
 30
0.0
 11
14.3270021009232
 21
10.14002396610762
 31
0.0
  0
LINE
  5
2274
330
17
100
AcDbEntity
  8
0
100
AcDbLine
 10
14.55610879927085
 20
10.27229878007178
 30
0.0
 11
14.37196277494785
 21
10.45476021236122
 31
0.0
  0
LINE
  5
2275
330
17
100
AcDbEntity
  8
0
100
AcDbLine
 10
14.37196277494785
 20
10.45476021236122
 30
0.0
 11
14.33602272069079
 21
10.43401021236121
 31
0.0
  0
LINE
  5
2276
330
17
100
AcDbEntity
  8
0
100
AcDbLine
 10
14.06719447978786
 20
9.990023966107621
 30
0.0
 11
13.94214985592035
 21
10.20660760785951
 31
0.0
  0
LINE
  5
2277
330
17
100
AcDbEntity
  8
0
100
AcDbLine
 10
13.56383008231719
 20
9.772255584053059
 30
0.0
 11
13.47033008231719
 21
9.934202334560747
 31
0.0
  0
LINE
  5
2278
330
17
100
AcDbEntity
  8
0
100
AcDbLine
 10
13.40882690684413
 20
9.7907289593069
 30
0.0
 11
13.19232055589803
 21
9.665728959306903
 31
0.0
  0
LINE
  5
2279
330
17
100
AcDbEntity
  8
0
100
AcDbLine
 10
13.03731738042497
 20
9.684202334560747
 30
0.0
 11
13.13081738042497
 21
9.522255584053063
 31
0.0
  0
LWPOLYLINE
  5
227A
330
17
100
AcDbEntity
  8
0
100
AcDbPolyline
 90
        3
 70
     0
 43
0.0
 10
13.19232055589803
 20
9.665728959306903
 10
13.14557055589802
 20
9.746702334560747
 10
13.13744356185312
 20
9.742010212361229
  0
LWPOLYLINE
  5
227B
330
17
100
AcDbEntity
  8
0
100
AcDbPolyline
 90
        3
 70
     0
 43
0.0
 10
13.36953837006735
 20
9.876010212361229
 10
13.36207690684413
 20
9.871702334560747
 10
13.40882690684413
 20
9.7907289593069
  0
LINE
  5
227C
330
17
100
AcDbEntity
  8
0
100
AcDbLine
 10
12.30601404911202
 20
9.261984159367941
 30
0.0
 11
12.4282037620914
 21
9.043752234046266
 31
0.0
  0
LINE
  5
227D
330
17
100
AcDbEntity
  8
0
100
AcDbLine
 10
12.68797181326762
 20
9.193729388319724
 30
0.0
 11
12.5658436090383
 21
9.411996825734807
 31
0.0
  0
LINE
  5
227E
330
17
100
AcDbEntity
  8
0
100
AcDbLine
 10
12.19913195780361
 20
8.911497566176958
 30
0.0
 11
12.13522015289965
 21
9.165208761826743
 31
0.0
  0
LINE
  5
227F
330
17
100
AcDbEntity
  8
0
100
AcDbLine
 10
12.13522015289965
 20
9.165208761826743
 30
0.0
 11
12.17051788394506
 21
9.184774613640964
 31
0.0
  0
LINE
  5
2280
330
17
100
AcDbEntity
  8
0
100
AcDbLine
 10
11.38768629284026
 20
5.772767603292349
 30
0.0
 11
11.57564084909105
 21
5.772767603292351
 31
0.0
  0
LINE
  5
2281
330
17
100
AcDbEntity
  8
0
100
AcDbLine
 10
11.57564084909105
 20
6.038392601751429
 30
0.0
 11
11.38768629284036
 21
5.969982737881466
 31
0.0
  0
LINE
  5
2282
330
17
100
AcDbEntity
  8
0
100
AcDbLine
 10
11.38768629284036
 20
5.969982737881466
 30
0.0
 11
11.38768629284036
 21
5.928707218714139
 31
0.0
  0
LINE
  5
2283
330
17
100
AcDbEntity
  8
0
100
AcDbLine
 10
11.57564084909105
 20
5.47276760329235
 30
0.0
 11
11.38768629284027
 21
5.47276760329235
 31
0.0
  0
LINE
  5
2284
330
17
100
AcDbEntity
  8
0
100
AcDbLine
 10
11.38768629284027
 20
4.595207218714184
 30
0.0
 11
11.38768629284027
 21
4.495207218714183
 31
0.0
  0
LINE
  5
2285
330
17
100
AcDbEntity
  8
0
100
AcDbLine
 10
11.38768629284027
 20
4.495207218714183
 30
0.0
 11
11.39868629284026
 21
4.495207218714183
 31
0.0
  0
ARC
  5
2286
330
17
100
AcDbEntity
  8
0
100
AcDbCircle
 10
11.39868629284026
 20
4.470207218714183
 30
0.0
 40
0.0250000000000004
100
AcDbArc
 50
0.0000000000040711
 51
90.00000000000039
  0
LINE
  5
2287
330
17
100
AcDbEntity
  8
0
100
AcDbLine
 10
11.42368629284026
 20
4.470207218714184
 30
0.0
 11
11.42368629284026
 21
4.418207218714185
 31
0.0
  0
ARC
  5
2288
330
17
100
AcDbEntity
  8
0
100
AcDbCircle
 10
11.39868629284026
 20
4.418207218714186
 30
0.0
 40
0.0250000000000001
100
AcDbArc
 50
269.9999999999992
 51
359.9999999999959
  0
LINE
  5
2289
330
17
100
AcDbEntity
  8
0
100
AcDbLine
 10
11.39868629284026
 20
4.393207218714186
 30
0.0
 11
11.38768629284027
 21
4.393207218714186
 31
0.0
  0
LINE
  5
228A
330
17
100
AcDbEntity
  8
0
100
AcDbLine
 10
11.38768629284027
 20
4.393207218714186
 30
0.0
 11
11.38768629284027
 21
4.383207218714185
 31
0.0
  0
LINE
  5
228B
330
17
100
AcDbEntity
  8
0
100
AcDbLine
 10
11.38768629284027
 20
4.283207218714183
 30
0.0
 11
11.57268629284026
 21
4.283207218714183
 31
0.0
  0
LINE
  5
228C
330
17
100
AcDbEntity
  8
0
100
AcDbLine
 10
11.57268629284026
 20
5.157207218714185
 30
0.0
 11
11.38768629284027
 21
5.157207218714185
 31
0.0
  0
ARC
  5
228D
330
17
100
AcDbEntity
  8
0
100
AcDbCircle
 10
11.39868629284026
 20
5.022207218714186
 30
0.0
 40
0.0250000000000013
100
AcDbArc
 50
359.999999999998
 51
89.99999999999797
  0
LINE
  5
228E
330
17
100
AcDbEntity
  8
0
100
AcDbLine
 10
11.42368629284026
 20
5.022207218714184
 30
0.0
 11
11.42368629284026
 21
4.970207218714184
 31
0.0
  0
ARC
  5
228F
330
17
100
AcDbEntity
  8
0
100
AcDbCircle
 10
11.39868629284026
 20
4.970207218714186
 30
0.0
 40
0.0249999999999999
100
AcDbArc
 50
269.9999999999988
 51
359.9999999999969
  0
LINE
  5
2290
330
17
100
AcDbEntity
  8
0
100
AcDbLine
 10
11.39868629284026
 20
4.945207218714186
 30
0.0
 11
11.38768629284027
 21
4.945207218714186
 31
0.0
  0
LINE
  5
2291
330
17
100
AcDbEntity
  8
0
100
AcDbLine
 10
11.38768629284027
 20
4.945207218714186
 30
0.0
 11
11.38768629284027
 21
4.845207218714188
 31
0.0
  0
LINE
  5
2292
330
17
100
AcDbEntity
  8
0
100
AcDbLine
 10
11.39868629284026
 20
5.047207218714186
 30
0.0
 11
11.38768629284027
 21
5.047207218714186
 31
0.0
  0
LINE
  5
2293
330
17
100
AcDbEntity
  8
0
100
AcDbLine
 10
11.57268629284026
 20
4.839207218714184
 30
0.0
 11
11.57268629284026
 21
4.601207218714185
 31
0.0
  0
LWPOLYLINE
  5
2294
330
17
100
AcDbEntity
  8
0
100
AcDbPolyline
 90
        7
 70
     0
 43
0.0
 10
11.38768629284027
 20
4.845207218714188
 10
11.51768629284027
 20
4.845207218714184
 42
-0.4142135623730951
 10
11.54268629284026
 20
4.820207218714186
 10
11.54268629284026
 20
4.720207218714184
 10
11.54268629284026
 20
4.620207218714183
 42
-0.4142135623730951
 10
11.51768629284027
 20
4.595207218714184
 10
11.38768629284027
 20
4.595207218714184
  0
LINE
  5
2295
330
17
100
AcDbEntity
  8
0
100
AcDbLine
 10
12.57268629284026
 20
3.742949331631582
 30
0.0
 11
12.57268629284026
 21
3.47787815426153
 31
0.0
  0
ARC
  5
2296
330
17
100
AcDbEntity
  8
0
100
AcDbCircle
 10
12.63569951121184
 20
3.505045184447491
 30
0.0
 40
0.0686200642572517
100
AcDbArc
 50
203.3224318677704
 51
334.6883241266929
  0
LINE
  5
2297
330
17
100
AcDbEntity
  8
0
100
AcDbLine
 10
12.69773173658947
 20
3.653707218714179
 30
0.0
 11
12.69773173658947
 21
3.740664235274945
 31
0.0
  0
ARC
  5
2298
330
17
100
AcDbEntity
  8
0
100
AcDbCircle
 10
12.63460602953982
 20
3.708810122910119
 30
0.0
 40
0.0707074208628044
100
AcDbArc
 50
26.77614850101874
 51
151.1300238152807
  0
LINE
  5
2299
330
17
100
AcDbEntity
  8
0
100
AcDbLine
 10
11.38768629284027
 20
3.667646834136016
 30
0.0
 11
11.57268629284026
 21
3.667646834136016
 31
0.0
  0
LINE
  5
229A
330
17
100
AcDbEntity
  8
0
100
AcDbLine
 10
11.57268629284026
 20
3.967646834136015
 30
0.0
 11
11.38768629284027
 21
3.967646834136015
 31
0.0
  0
LWPOLYLINE
  5
229B
330
17
100
AcDbEntity
  8
0
100
AcDbPolyline
 90
        3
 70
     0
 43
0.0
 10
11.57268629284026
 20
3.403097206207689
 10
11.38768629284036
 20
3.4704316995469
 10
11.38768629284036
 20
3.511707218714166
  0
LWPOLYLINE
  5
229C
330
17
100
AcDbEntity
  8
0
100
AcDbPolyline
 90
        3
 70
     0
 43
0.0
 10
15.02178999541771
 20
9.245837499310315
 10
15.02178999541771
 20
9.364194304494192
 42
0.3727151347639911
 10
15.00893856472087
 20
9.379039628672181
  0
LWPOLYLINE
  5
229D
330
17
100
AcDbEntity
  8
0
100
AcDbPolyline
 90
        3
 70
     0
 43
0.0
 10
14.53283696256428
 20
9.104162240505459
 42
0.2297872346301109
 10
14.53377729400624
 20
9.091100294046643
 10
14.58877729379099
 20
8.995837499463597
  0
TEXT
  5
229E
330
17
100
AcDbEntity
  8
KCADSLABEL
100
AcDbText
 10
10.59354555657523
 20
3.223744250315327
 30
0.0
 40
0.125
  1
216103
 72
     4
 11
10.88489958113185
 21
3.285391590015191
 31
0.0
100
AcDbText
  0
TEXT
  5
229F
330
17
100
AcDbEntity
  8
KCADSLABEL
100
AcDbText
 10
10.62022895523487
 20
6.423551926403942
 30
0.0
 40
0.125
  1
216051
 72
     4
 11
10.91158297979148
 21
6.485241899118813
 31
0.0
100
AcDbText
  0
LEADER
  5
22A0
330
17
100
AcDbEntity
  8
KCADSLABEL
100
AcDbLeader
  3
STANDARD
 76
     3
 10
10.96919418164379
 20
5.793078809396678
 30
0.0
 10
10.28461369445404
 20
6.491744793879806
 30
0.0
 10
10.45073502007166
 20
6.491744793879806
 30
0.0
1001
ACAD
1000
DSTYLE
1002
{
1070
     5
1000

1070
    41
1040
0.125
1070
    42
1040
0.25
1070
    43
1040
0.3828125
1070
    44
1040
0.125
1070
    73
1070
     0
1070
    74
1070
     0
1070
    77
1070
     1
1070
   140
1040
0.1875
1070
   141
1040
0.09375
1070
   145
1040
1.0
1070
   270
1070
     4
1070
   271
1070
     5
1070
   272
1070
     5
1070
   273
1070
     4
1070
   287
1070
     5
1002
}
  0
TEXT
  5
24FC
330
17
100
AcDbEntity
  8
KCADSLABEL
100
AcDbText
 10
12.71529409425746
 20
14.61141793237981
 30
0.0
 40
0.125
  1
822001
 72
     1
 11
13.00664811881408
 21
14.73641793237981
 31
0.0
100
AcDbText
 73
     3
  0
LWPOLYLINE
  5
24FD
330
17
100
AcDbEntity
  8
0
100
AcDbPolyline
 90
       12
 70
     1
 43
0.0
 10
11.78226140460364
 20
21.94965329164406
 10
11.79692058719286
 20
22.0327896473528
 42
1.33239341188041
 10
11.80797578680021
 20
22.11849663469869
 10
11.80797578680021
 20
22.62703498443906
 10
14.19785550670978
 20
22.62703498443906
 10
14.19785550670978
 20
22.11849663469869
 42
1.33239341188041
 10
14.20891070631713
 20
22.0327896473528
 10
14.22356988890635
 20
21.94965329164406
 42
0.8617744796823018
 10
14.25291564675499
 20
21.95403503401832
 10
14.25291564675499
 20
22.68903498443906
 10
11.752915646755
 20
22.68903498443906
 10
11.752915646755
 20
21.95403503401832
 42
0.861774479682302
  0
LWPOLYLINE
  5
24FE
330
17
100
AcDbEntity
  8
0
100
AcDbPolyline
 90
       41
 70
     1
 43
0.0
 10
11.96821978915063
 20
22.18955113200994
 42
-0.1040635034746242
 10
11.97084819846814
 20
22.20204324320642
 10
12.02830764470625
 20
22.33254287324259
 42
0.5416234831226134
 10
11.99993605402376
 20
22.37603498443906
 10
11.95841564675499
 20
22.37603498443906
 42
0.2973336368416811
 10
11.93004405607249
 20
22.35752709563553
 10
11.82690219803398
 20
22.12327537208967
 42
-0.9999999999999998
 10
11.80953738026728
 20
22.02479459678845
 10
11.79441564675499
 20
21.93903498443906
 10
11.82441564675499
 20
21.87403498443906
 10
11.84441564675499
 20
21.87403498443906
 10
11.84441564675499
 20
21.93903498443906
 10
12.70691564675499
 20
21.93903498443906
 10
12.72191564675499
 20
21.92403498443906
 10
12.73691564675499
 20
21.93903498443906
 10
13.26891564675499
 20
21.93903498443906
 10
13.283915646755
 20
21.92403498443906
 10
13.298915646755
 20
21.93903498443906
 10
14.16141564675499
 20
21.93903498443906
 10
14.16141564675499
 20
21.87403498443906
 10
14.18141564675499
 20
21.87403498443906
 10
14.21141564675499
 20
21.93903498443906
 10
14.1962939132427
 20
22.02479459678845
 42
-1.0
 10
14.178929095476
 20
22.12327537208967
 10
14.07578723743749
 20
22.35752709563553
 42
0.2973336368416808
 10
14.04741564675499
 20
22.37603498443906
 10
14.00589523948622
 20
22.37603498443906
 42
0.5416234831226136
 10
13.97752364880373
 20
22.33254287324259
 10
14.03498309504184
 20
22.20204324320642
 42
-0.1040635034746244
 10
14.03761150435935
 20
22.18955113200994
 10
14.03761150435935
 20
22.07003498443906
 42
-0.4142135623730951
 10
14.00661150435935
 20
22.03903498443906
 10
13.25291564675499
 20
22.03903498443906
 10
13.25291564675499
 20
22.06403498443906
 10
13.01791564675499
 20
22.06403498443906
 10
13.00291564675499
 20
22.04903498443906
 10
12.98791564675499
 20
22.06403498443906
 10
12.75291564675499
 20
22.06403498443906
 10
12.75291564675499
 20
22.03903498443906
 10
11.99921978915063
 20
22.03903498443906
 42
-0.4142135623730951
 10
11.96821978915063
 20
22.07003498443906
  0
LINE
  5
24FF
330
17
100
AcDbEntity
  8
0
100
AcDbLine
 10
14.06524051216018
 20
21.43953498443906
 30
0.0
 11
14.06524051216018
 21
20.93953498443906
 31
0.0
  0
LINE
  5
2500
330
17
100
AcDbEntity
  8
0
100
AcDbLine
 10
14.83790049964572
 20
21.68953498443906
 30
0.0
 11
13.62824051216018
 21
21.68953498443906
 31
0.0
  0
LINE
  5
2501
330
17
100
AcDbEntity
  8
0
100
AcDbLine
 10
13.62824051216018
 20
21.43953498443906
 30
0.0
 11
14.83790049964572
 21
21.43953498443906
 31
0.0
  0
LINE
  5
2502
330
17
100
AcDbEntity
  8
0
100
AcDbLine
 10
14.83790049964572
 20
20.93953498443906
 30
0.0
 11
13.62824051216018
 21
20.93953498443906
 31
0.0
  0
LINE
  5
2503
330
17
100
AcDbEntity
  8
0
100
AcDbLine
 10
13.62824051216018
 20
20.68953498443906
 30
0.0
 11
14.83790049964572
 21
20.68953498443906
 31
0.0
  0
LINE
  5
2504
330
17
100
AcDbEntity
  8
0
100
AcDbLine
 10
13.62824051216018
 20
21.68953498443906
 30
0.0
 11
13.62824051216018
 21
21.43953498443906
 31
0.0
  0
LINE
  5
2505
330
17
100
AcDbEntity
  8
0
100
AcDbLine
 10
13.67824051216018
 20
21.43953498443906
 30
0.0
 11
13.67824051216018
 21
20.93953498443906
 31
0.0
  0
LINE
  5
2506
330
17
100
AcDbEntity
  8
0
100
AcDbLine
 10
13.62824051216018
 20
20.93953498443906
 30
0.0
 11
13.62824051216018
 21
20.68953498443906
 31
0.0
  0
LWPOLYLINE
  5
2507
330
17
100
AcDbEntity
  8
0
100
AcDbPolyline
 90
        8
 70
     0
 43
0.0
 10
13.78324051154702
 20
20.10003498443905
 42
-0.4142135623730966
 10
13.75324051154702
 20
20.13003498443906
 10
13.75324051154702
 20
20.65953498443906
 42
-0.4142135623730951
 10
13.78324051154702
 20
20.68953498443906
 10
14.22324051154702
 20
20.68953498443906
 42
-0.4142135623730946
 10
14.25324051154702
 20
20.65953498443906
 10
14.25324051154702
 20
20.13003498443906
 10
14.25324051154702
 20
20.65953498443906
  0
LWPOLYLINE
  5
2508
330
17
100
AcDbEntity
  8
0
100
AcDbPolyline
 90
       10
 70
     1
 43
0.0
 10
12.50324051154702
 20
20.13103498443906
 10
10.17086762402537
 20
20.13103498443906
 42
-0.4142135623730969
 10
10.13486762402537
 20
20.16703498443906
 10
10.13486762402537
 20
22.31612329619363
 42
-0.1989123673796586
 10
10.14541177990266
 20
22.34157914031634
 10
10.31164431932201
 20
22.5078116797357
 10
10.33710016344473
 20
22.48235583561298
 10
10.17086762402537
 20
22.31612329619363
 10
10.17086762402537
 20
20.16703498443906
 10
12.50324051154702
 20
20.16703498443906
  0
LWPOLYLINE
  5
2509
330
17
100
AcDbEntity
  8
0
100
AcDbPolyline
 90
        8
 70
     0
 43
0.0
 10
11.52124051154702
 20
23.27177108588875
 10
11.52124051154702
 20
22.80103498443907
 42
0.4142135623730919
 10
11.55224051154702
 20
22.77003498443906
 10
14.50291564675499
 20
22.77003498443906
 10
14.50291564675499
 20
22.68903498443906
 10
11.55224051154702
 20
22.68903498443906
 42
-0.4142135623730948
 10
11.44024051154702
 20
22.80103498443906
 10
11.44024051154702
 20
23.27177108588875
  0
INSERT
  5
250A
330
17
100
AcDbEntity
  8
0
100
AcDbBlockReference
  2
*X3
 10
9.763971378685646
 20
15.54623722587003
 30
0.0
  0
ARC
  5
250B
330
17
100
AcDbEntity
  8
0
100
AcDbCircle
 10
10.34186762402537
 20
20.16703498443906
 30
0.0
 40
0.1710000000000007
100
AcDbArc
 50
85.60968186037374
 51
192.1531974690063
  0
LINE
  5
250C
330
17
100
AcDbEntity
  8
0
100
AcDbLine
 10
11.54875426393008
 20
20.16753674939717
 30
0.0
 11
11.28363898471454
 21
20.18789119444158
 31
0.0
  0
LINE
  5
250D
330
17
100
AcDbEntity
  8
0
100
AcDbLine
 10
11.28363898471454
 20
20.18789119444158
 30
0.0
 11
10.35495776717215
 21
20.33753321948094
 31
0.0
  0
LWPOLYLINE
  5
250E
330
17
100
AcDbEntity
  8
0
100
AcDbPolyline
 90
        2
 70
     0
 43
0.0
 10
10.36291930191806
 20
22.04673420912174
 10
11.752915646755
 20
21.87342213082357
  0
LWPOLYLINE
  5
250F
330
17
100
AcDbEntity
  8
0
100
AcDbPolyline
 90
       20
 70
     0
 43
0.0
 10
10.35495776717215
 20
22.04753321948095
 42
1.079718761320632
 10
10.35495776717215
 20
21.70653674939718
 10
11.54875426393008
 20
21.87653321948094
 42
-1.079718761320627
 10
11.54875426393008
 20
21.53553674939718
 10
10.35495776717215
 20
21.70553321948094
 42
1.079718761320632
 10
10.35495776717215
 20
21.36453674939717
 10
11.54875426393008
 20
21.53453321948094
 42
-1.079718761320623
 10
11.54875426393008
 20
21.19353674939718
 10
10.35495776717215
 20
21.36353321948094
 42
1.079718761320632
 10
10.35495776717215
 20
21.02253674939718
 10
11.54875426393008
 20
21.19253321948094
 42
-1.079718761320626
 10
11.54875426393008
 20
20.85153674939718
 10
10.35495776717215
 20
21.02153321948094
 42
1.079718761320627
 10
10.35495776717215
 20
20.68053674939717
 10
11.54875426393008
 20
20.85053321948094
 42
-1.079718761320628
 10
11.54875426393008
 20
20.50953674939718
 10
10.35495776717215
 20
20.67953321948094
 42
1.079718761320625
 10
10.35495776717215
 20
20.33853674939718
 10
11.54875426393008
 20
20.50853321948094
 42
-1.07971876132063
 10
11.54875426393008
 20
20.16753674939717
  0
ARC
  5
2510
330
17
100
AcDbEntity
  8
0
100
AcDbCircle
 10
14.22252146631964
 20
20.13075402966644
 30
0.0
 40
0.0307274594739141
100
AcDbArc
 50
271.3408859186643
 51
358.6591140813355
  0
TEXT
  5
2511
330
17
100
AcDbEntity
  8
KCADSLABEL
100
AcDbText
 10
12.24346371971339
 20
22.1196328098653
 30
0.0
 40
0.125
  1
216051
 72
     1
 11
12.53481774427
 21
22.2446328098653
 31
0.0
100
AcDbText
 73
     3
  0
TEXT
  5
2512
330
17
100
AcDbEntity
  8
KCADSLABEL
100
AcDbText
 10
13.31519276767709
 20
22.43326648362442
 30
0.0
 40
0.125
  1
216103
 72
     1
 11
13.6065467922337
 21
22.55826648362442
 31
0.0
100
AcDbText
 73
     3
  0
LWPOLYLINE
  5
2513
330
17
100
AcDbEntity
  8
KCADSMISC
100
AcDbPolyline
 90
       13
 70
     0
 43
0.0
 10
12.7532405121602
 20
21.09601747476696
 10
12.75324051216018
 20
21.93903498443906
 10
12.73691564675499
 20
21.93903498443906
 10
12.72191564675499
 20
21.92403498443906
 10
12.70691564675499
 20
21.93903498443906
 10
11.84441564675499
 20
21.93903498443906
 10
11.84441564675499
 20
21.87403498443906
 10
11.82441564675499
 20
21.87403498443906
 10
11.79441564675499
 20
21.93903498443906
 10
11.752915646755
 20
21.93903498443906
 10
11.752915646755
 20
20.16703498443906
 10
12.7532405121602
 20
20.16703498443906
 10
12.7532405121602
 20
21.09605249411111
  0
LINE
  5
2514
330
17
100
AcDbEntity
  8
KCADSMISC
100
AcDbLine
 10
12.7532405121602
 20
20.16703498443906
 30
0.0
 11
11.752915646755
 21
21.93903498443906
 31
0.0
  0
LINE
  5
2515
330
17
100
AcDbEntity
  8
KCADSMISC
100
AcDbLine
 10
12.75324051216018
 20
21.93903498443906
 30
0.0
 11
11.752915646755
 21
20.16703498443906
 31
0.0
  0
LWPOLYLINE
  5
2516
330
17
100
AcDbEntity
  8
0
100
AcDbPolyline
 90
        8
 70
     1
 43
0.0
 10
11.85324051154702
 20
14.48003498443906
 42
0.4142135623730973
 10
11.88324051154702
 20
14.45003498443905
 10
14.12324051154702
 20
14.45003498443905
 42
0.414213562373093
 10
14.15324051154702
 20
14.48003498443906
 10
14.15324051154702
 20
19.46953498443906
 42
0.4142135623730951
 10
14.12324051154702
 20
19.49953498443906
 10
11.88324051154702
 20
19.49953498443906
 42
0.4142135623730908
 10
11.85324051154702
 20
19.46953498443906
  0
LWPOLYLINE
  5
2517
330
17
100
AcDbEntity
  8
0
100
AcDbPolyline
 90
       68
 70
     1
 43
0.0
 10
14.22324051154702
 20
20.07003498443907
 10
14.22324051154702
 20
20.10003498443906
 10
14.09574051154702
 20
20.10003498443906
 42
0.4142135623730777
 10
14.06574051154702
 20
20.07003498443906
 10
14.06574051154702
 20
20.05003498443906
 10
14.11074051154702
 20
20.05003498443906
 10
14.11074051154702
 20
19.99486010676786
 42
-0.3704662542213866
 10
13.89574051154703
 20
19.99486010676785
 10
13.89574051154702
 20
20.05003498443906
 10
13.94074051154702
 20
20.05003498443906
 10
13.94074051154702
 20
20.07003498443906
 42
0.4142135623730864
 10
13.91074051154702
 20
20.10003498443906
 10
13.75324051154702
 20
20.10003498443906
 10
13.75324051154702
 20
20.01246139131026
 42
0.1989123673796581
 10
13.76202730811142
 20
19.99124818787466
 10
13.89566691841822
 20
19.85760857756786
 42
0.1989123673796633
 10
13.93809332528941
 20
19.84003498443905
 10
14.13324051154702
 20
19.84003498443905
 42
-0.4142135623730951
 10
14.16324051154702
 20
19.81003498443905
 10
14.16324051154702
 20
19.65953498443906
 42
-0.4142135623730992
 10
14.10324051154702
 20
19.59953498443906
 10
13.15324051154702
 20
19.59953498443906
 42
-0.4142135623730951
 10
13.05324051154702
 20
19.69953498443906
 10
13.05324051154702
 20
20.85108601016073
 42
0.3563939586926031
 10
13.25324051154702
 20
21.09603498443906
 10
13.25324051154702
 20
21.75203498443906
 10
13.12824051154702
 20
21.75203498443906
 42
0.4142135623731038
 10
13.09824051154702
 20
21.72203498443906
 10
13.09824051154702
 20
21.56203498443906
 10
13.11824051154702
 20
21.56203498443906
 10
13.09824051154702
 20
21.44860934804671
 10
13.09824051154702
 20
21.09703498443906
 42
-0.9999999999999998
 10
12.90824051154702
 20
21.09703498443906
 10
12.90824051154702
 20
21.44860934804671
 10
12.88824051154702
 20
21.56203498443906
 10
12.90824051154702
 20
21.56203498443906
 10
12.90824051154702
 20
21.72203498443906
 42
0.4142135623730993
 10
12.87824051154702
 20
21.75203498443906
 10
12.75324051216018
 20
21.75203498443906
 10
12.7532405121602
 20
21.09605249411112
 42
0.3564136925077791
 10
12.95324051154702
 20
20.85108601016074
 10
12.95324051154702
 20
19.69953498443906
 42
-0.4142135623730964
 10
12.85324051154702
 20
19.59953498443906
 10
11.90324051154702
 20
19.59953498443906
 42
-0.4142135623730974
 10
11.84324051154702
 20
19.65953498443906
 10
11.84324051154702
 20
19.81003498443905
 42
-0.4142135623730996
 10
11.87324051154702
 20
19.84003498443905
 10
12.06838769780464
 20
19.84003498443905
 42
0.1989123673796635
 10
12.11081410467583
 20
19.85760857756786
 10
12.24445371498262
 20
19.99124818787466
 42
0.1989123673796573
 10
12.25324051154703
 20
20.01246139131026
 10
12.25324051154702
 20
20.10003498443906
 10
12.09574051154702
 20
20.10003498443906
 42
0.4142135623730951
 10
12.06574051154702
 20
20.07003498443906
 10
12.06574051154702
 20
20.05003498443906
 10
12.11074051154702
 20
20.05003498443906
 10
12.11074051154702
 20
19.99486010676785
 42
-0.3704662542213866
 10
11.89574051154702
 20
19.99486010676786
 10
11.89574051154702
 20
20.05003498443906
 10
11.94074051154703
 20
20.05003498443906
 10
11.94074051154703
 20
20.07003498443906
 42
0.4142135623730777
 10
11.91074051154702
 20
20.10003498443906
 10
11.78324051154702
 20
20.10003498443906
 10
11.78324051154702
 20
20.07003498443907
 10
11.75324051154702
 20
20.07003498443907
 10
11.75324051154702
 20
14.35003498443906
 10
14.25324051154702
 20
14.35003498443905
 10
14.25324051154702
 20
20.07003498443907
  0
ARC
  5
2518
330
17
100
AcDbEntity
  8
0
100
AcDbCircle
 10
11.74547967547037
 20
20.1031994476986
 30
0.0
 40
0.0340604198433022
100
AcDbArc
 50
125.1905483058216
 51
283.170817916935
  0
ARC
  5
2519
330
17
100
AcDbEntity
  8
0
100
AcDbCircle
 10
12.23440998437039
 20
20.11529089889898
 30
0.0
 40
0.0242349268568828
100
AcDbArc
 50
320.9866717239677
 51
40.51479970273988
  0
CIRCLE
  5
251A
330
17
100
AcDbEntity
  8
0
100
AcDbCircle
 10
11.96972894947075
 20
20.02480316609886
 30
0.0
 40
0.0059
  0
CIRCLE
  5
251B
330
17
100
AcDbEntity
  8
0
100
AcDbCircle
 10
11.73281000313859
 20
20.09366493916627
 30
0.0
 40
0.0059
  0
CIRCLE
  5
251C
330
17
100
AcDbEntity
  8
0
100
AcDbCircle
 10
11.75966865848824
 20
20.11041689601107
 30
0.0
 40
0.0059
  0
CIRCLE
  5
251D
330
17
100
AcDbEntity
  8
0
100
AcDbCircle
 10
11.82530519653996
 20
20.11434349956552
 30
0.0
 40
0.0059
  0
CIRCLE
  5
251E
330
17
100
AcDbEntity
  8
0
100
AcDbCircle
 10
11.86657496338442
 20
20.11434349956552
 30
0.0
 40
0.0059
  0
CIRCLE
  5
251F
330
17
100
AcDbEntity
  8
0
100
AcDbCircle
 10
11.91865345971079
 20
20.1133618486769
 30
0.0
 40
0.0059
  0
CIRCLE
  5
2520
330
17
100
AcDbEntity
  8
0
100
AcDbCircle
 10
11.95697539365731
 20
20.08711778719535
 30
0.0
 40
0.0059
  0
CIRCLE
  5
2521
330
17
100
AcDbEntity
  8
0
100
AcDbCircle
 10
11.99529730103553
 20
20.10158203801356
 30
0.0
 40
0.0059
  0
CIRCLE
  5
2522
330
17
100
AcDbEntity
  8
0
100
AcDbCircle
 10
12.03853229866805
 20
20.07514128537191
 30
0.0
 40
0.0059
  0
CIRCLE
  5
2523
330
17
100
AcDbEntity
  8
0
100
AcDbCircle
 10
12.06368990984714
 20
20.10943524512246
 30
0.0
 40
0.0059
  0
CIRCLE
  5
2524
330
17
100
AcDbEntity
  8
0
100
AcDbCircle
 10
12.12500397216335
 20
20.11434349956552
 30
0.0
 40
0.0059
  0
CIRCLE
  5
2525
330
17
100
AcDbEntity
  8
0
100
AcDbCircle
 10
12.18690691763151
 20
20.11630681777369
 30
0.0
 40
0.0059
  0
CIRCLE
  5
2526
330
17
100
AcDbEntity
  8
0
100
AcDbCircle
 10
12.23702020973812
 20
20.11630681777369
 30
0.0
 40
0.0059
  0
CIRCLE
  5
2527
330
17
100
AcDbEntity
  8
0
100
AcDbCircle
 10
11.90784473022889
 20
20.03090309187875
 30
0.0
 40
0.0059
  0
CIRCLE
  5
2528
330
17
100
AcDbEntity
  8
0
100
AcDbCircle
 10
11.92356654996511
 20
20.0024351832471
 30
0.0
 40
0.0059
  0
CIRCLE
  5
2529
330
17
100
AcDbEntity
  8
0
100
AcDbCircle
 10
12.00610605708573
 20
20.04712385103676
 30
0.0
 40
0.0059
  0
CIRCLE
  5
252A
330
17
100
AcDbEntity
  8
0
100
AcDbCircle
 10
12.02084524814377
 20
20.00439848502432
 30
0.0
 40
0.0059
  0
CIRCLE
  5
252B
330
17
100
AcDbEntity
  8
0
100
AcDbCircle
 10
12.0640802457763
 20
20.01251561040885
 30
0.0
 40
0.0059
  0
CIRCLE
  5
252C
330
17
100
AcDbEntity
  8
0
100
AcDbCircle
 10
12.09650648735862
 20
20.00145353235849
 30
0.0
 40
0.0059
  0
CIRCLE
  5
252D
330
17
100
AcDbEntity
  8
0
100
AcDbCircle
 10
11.97662764840136
 20
19.97593057639267
 30
0.0
 40
0.0059
  0
LINE
  5
252E
330
17
100
AcDbEntity
  8
0
  6
HIDDEN
100
AcDbLine
 10
14.25324051154702
 20
15.60003498443906
 30
0.0
 11
11.75324051154702
 21
15.60003498443906
 31
0.0
  0
LINE
  5
252F
330
17
100
AcDbEntity
  8
0
  6
HIDDEN
100
AcDbLine
 10
14.25324051154702
 20
17.10003498443906
 30
0.0
 11
11.75324051154702
 21
17.10003498443906
 31
0.0
  0
LINE
  5
2530
330
17
100
AcDbEntity
  8
0
  6
HIDDEN
100
AcDbLine
 10
14.15324051154702
 20
17.20003498443906
 30
0.0
 11
11.85324051154702
 21
17.20003498443906
 31
0.0
  0
LINE
  5
2531
330
17
100
AcDbEntity
  8
0
  6
HIDDEN
100
AcDbLine
 10
14.15324051154702
 20
15.70003498443906
 30
0.0
 11
11.85324051154702
 21
15.70003498443906
 31
0.0
  0
TEXT
  5
2532
330
17
100
AcDbEntity
  8
KCADSLABEL
100
AcDbText
 10
12.71529409425746
 20
15.84948433401472
 30
0.0
 40
0.125
  1
822002
 72
     1
 11
13.00664811881408
 21
15.97448433401473
 31
0.0
100
AcDbText
 73
     3
  0
TEXT
  5
2533
330
17
100
AcDbEntity
  8
KCADSLABEL
100
AcDbText
 10
12.71529409425746
 20
17.34101314625398
 30
0.0
 40
0.125
  1
822003
 72
     1
 11
13.00664811881408
 21
17.46601314625398
 31
0.0
100
AcDbText
 73
     3
  0
LINE
  5
2534
330
17
100
AcDbEntity
  8
0
100
AcDbLine
 10
13.25291564675499
 20
21.75203498443905
 30
0.0
 11
13.25291564675499
 21
21.93903498443905
 31
0.0
  0
LINE
  5
2535
330
17
100
AcDbEntity
  8
0
100
AcDbLine
 10
13.25291564675499
 20
21.93903498443905
 30
0.0
 11
13.12791564675499
 21
21.93903498443905
 31
0.0
  0
LINE
  5
2536
330
17
100
AcDbEntity
  8
0
100
AcDbLine
 10
12.87791564675499
 20
21.93903498443905
 30
0.0
 11
12.75291564675499
 21
21.93903498443905
 31
0.0
  0
LINE
  5
2537
330
17
100
AcDbEntity
  8
0
100
AcDbLine
 10
12.75291564675499
 20
21.93903498443905
 30
0.0
 11
12.75291564675499
 21
21.75203498443906
 31
0.0
  0
LWPOLYLINE
  5
2538
330
17
100
AcDbEntity
  8
0
100
AcDbPolyline
 90
        4
 70
     0
 43
0.0
 10
13.12791564675499
 20
21.93903498443905
 10
13.12791564675499
 20
21.84553498443905
 10
12.87791564675499
 20
21.84553498443905
 10
12.87791564675499
 20
21.93903498443905
  0
LINE
  5
2539
330
17
100
AcDbEntity
  8
0
100
AcDbLine
 10
14.05661043775158
 20
21.93903498443906
 30
0.0
 11
14.05661043775158
 21
21.68953498443906
 31
0.0
  0
LINE
  5
253A
330
17
100
AcDbEntity
  8
0
100
AcDbLine
 10
14.32116006567991
 20
21.68953498443906
 30
0.0
 11
14.25291564675499
 21
21.93903498443906
 31
0.0
  0
LINE
  5
253B
330
17
100
AcDbEntity
  8
0
100
AcDbLine
 10
14.25291564675499
 20
21.93903498443906
 30
0.0
 11
14.21141564675499
 21
21.93903498443906
 31
0.0
  0
LINE
  5
253C
330
17
100
AcDbEntity
  8
0
100
AcDbLine
 10
14.18833872367807
 20
21.88903498443906
 30
0.0
 11
14.18141564675499
 21
21.87403498443906
 31
0.0
  0
LINE
  5
253D
330
17
100
AcDbEntity
  8
0
100
AcDbLine
 10
14.18141564675499
 20
21.87403498443906
 30
0.0
 11
14.16141564675499
 21
21.87403498443906
 31
0.0
  0
LINE
  5
253E
330
17
100
AcDbEntity
  8
0
100
AcDbLine
 10
14.16141564675499
 20
21.87403498443906
 30
0.0
 11
14.16141564675499
 21
21.88903498443906
 31
0.0
  0
LINE
  5
253F
330
17
100
AcDbEntity
  8
0
100
AcDbLine
 10
13.75661043775158
 20
21.68953498443906
 30
0.0
 11
13.75661043775158
 21
21.93903498443906
 31
0.0
  0
INSERT
  5
2B59
330
17
100
AcDbEntity
  8
0
100
AcDbBlockReference
  2
Kawneer Logo English
 10
-8.822498266376307
 20
-3.520862690213913
 30
0.0
 41
5.337
 42
5.337
 43
5.337
  0
ENDSEC
  0
SECTION
  2
OBJECTS
  0
DICTIONARY
  5
C
330
0
100
AcDbDictionary
281
     1
  3
ACAD_CIP_PREVIOUS_PRODUCT_INFO
350
112D
  3
ACAD_COLOR
350
1090
  3
ACAD_FIELDLIST
350
1151
  3
ACAD_GROUP
350
D
  3
ACAD_LAYOUT
350
102D
  3
ACAD_MATERIAL
350
105E
  3
ACAD_MLEADERSTYLE
350
10A5
  3
ACAD_MLINESTYLE
350
1A
  3
ACAD_PLOTSETTINGS
350
102E
  3
ACAD_PLOTSTYLENAME
350
102B
  3
ACAD_SCALELIST
350
1093
  3
ACAD_TABLESTYLE
350
1091
  3
ACAD_VISUALSTYLE
350
1077
  3
ACDB_RECOMPOSE_DATA
350
2BB6
  3
ACDBVARIABLEDICTIONARY
350
24
  3
DWGPROPS
350
2BB7
  0
DICTIONARY
  5
10E8
330
8
100
AcDbDictionary
280
     1
281
     1
  0
DICTIONARY
  5
10C4
330
2
100
AcDbDictionary
280
     1
281
     1
  3
ACAD_LAYERSTATES
360
10C5
  0
DICTIONARY
  5
10DF
330
E
100
AcDbDictionary
280
     1
281
     1
  3
ADSK_XREC_LAYER_RECONCILED
360
10E0
  0
DICTIONARY
  5
10E1
330
1E
100
AcDbDictionary
280
     1
281
     1
  3
ADSK_XREC_LAYER_RECONCILED
360
10E2
  0
DICTIONARY
  5
1142
330
1141
100
AcDbDictionary
280
     1
281
     1
  0
DICTIONARY
  5
125C
330
125B
100
AcDbDictionary
280
     1
281
     1
  0
DICTIONARY
  5
1059
330
17
100
AcDbDictionary
280
     1
281
     1
  3
ACAD_LAYOUTSELFREF
360
105A
  3
ACAD_SORTENTS
360
1A74
  0
DICTIONARY
  5
1057
330
14
100
AcDbDictionary
280
     1
281
     1
  3
ACAD_LAYOUTSELFREF
360
1058
  0
DICTIONARY
  5
2B55
330
2B4B
100
AcDbDictionary
280
     1
281
     1
  3
ACAD_SORTENTS
360
2B56
  0
DICTIONARY
  5
2BB4
330
2B4C
100
AcDbDictionary
280
     1
281
     1
  3
ACAD_MTEXT_2008_RT
360
2BB5
  0
DICTIONARY
  5
1154
330
1153
100
AcDbDictionary
280
     1
281
     1
  0
XRECORD
  5
112D
102
{ACAD_REACTORS
330
C
102
}
330
C
100
AcDbXrecord
280
     1
300
ACD
300
2012
300
85730ACD_2012_0F
  0
DICTIONARY
  5
1090
102
{ACAD_REACTORS
330
C
102
}
330
C
100
AcDbDictionary
281
     1
  0
FIELDLIST
  5
1151
102
{ACAD_REACTORS
330
C
102
}
330
C
100
AcDbIdSet
 90
        0
100
AcDbFieldList
  0
DICTIONARY
  5
D
102
{ACAD_REACTORS
330
C
102
}
330
C
100
AcDbDictionary
281
     1
  0
DICTIONARY
  5
102D
102
{ACAD_REACTORS
330
C
102
}
330
C
100
AcDbDictionary
281
     1
  3
Layout1
350
1030
  3
Model
350
102F
  0
DICTIONARY
  5
105E
102
{ACAD_REACTORS
330
C
102
}
330
C
100
AcDbDictionary
281
     1
  3
ByBlock
350
1067
  3
ByLayer
350
105F
  3
Global
350
106F
  0
DICTIONARY
  5
10A5
102
{ACAD_REACTORS
330
C
102
}
330
C
100
AcDbDictionary
281
     1
  3
Standard
350
10A6
  0
DICTIONARY
  5
1A
102
{ACAD_REACTORS
330
C
102
}
330
C
100
AcDbDictionary
281
     1
  3
STANDARD
350
1B
  0
DICTIONARY
  5
102E
102
{ACAD_REACTORS
330
C
102
}
330
C
100
AcDbDictionary
281
     1
  0
ACDBDICTIONARYWDFLT
  5
102B
102
{ACAD_REACTORS
330
C
102
}
330
C
100
AcDbDictionary
281
     1
  3
Normal
350
102C
100
AcDbDictionaryWithDefault
340
102C
  0
DICTIONARY
  5
1093
102
{ACAD_REACTORS
330
C
102
}
330
C
100
AcDbDictionary
281
     1
  3
A0
350
1094
  3
A1
350
2B29
  3
A2
350
2B2A
  3
A3
350
2B2B
  3
A4
350
2B2C
  3
A5
350
2B2D
  3
A6
350
2B2E
  3
A7
350
2B2F
  3
A8
350
2B30
  3
A9
350
2B31
  3
B0
350
2B32
  3
B1
350
2B33
  3
B2
350
2B34
  3
B3
350
2B35
  3
B4
350
2B36
  3
B5
350
2B37
  3
B6
350
2B38
  0
DICTIONARY
  5
1091
102
{ACAD_REACTORS
330
C
102
}
330
C
100
AcDbDictionary
281
     1
  3
Standard
350
1092
  0
DICTIONARY
  5
1077
102
{ACAD_REACTORS
330
C
102
}
330
C
100
AcDbDictionary
281
     1
  3
2dWireframe
350
107D
  3
3D Hidden
350
2B49
  3
3dWireframe
350
2B4A
  3
Basic
350
107C
  3
Brighten
350
1083
  3
ColorChange
350
1087
  3
Conceptual
350
1080
  3
Dim
350
1082
  3
EdgeColorOff
350
108F
  3
Facepattern
350
1086
  3
Flat
350
1078
  3
FlatWithEdges
350
1079
  3
Gouraud
350
107A
  3
GouraudWithEdges
350
107B
  3
Hidden
350
107F
  3
JitterOff
350
108D
  3
Linepattern
350
1085
  3
OverhangOff
350
108E
  3
Realistic
350
1081
  3
Shaded
350
108C
  3
Shaded with edges
350
108B
  3
Shades of Gray
350
1088
  3
Sketchy
350
1089
  3
Thicken
350
1084
  3
Wireframe
350
107E
  3
X-Ray
350
108A
  0
XRECORD
  5
2BB6
102
{ACAD_REACTORS
330
C
102
}
330
C
100
AcDbXrecord
280
     1
 90
        1
330
1092
330
1153
330
2B4C
  0
DICTIONARY
  5
24
102
{ACAD_REACTORS
330
C
102
}
330
C
100
AcDbDictionary
281
     1
  3
CANNOSCALE
350
1125
  3
CMLEADERSTYLE
350
1124
  3
CTABLESTYLE
350
1123
  3
DIMADEC
350
25
  3
DIMASSOC
350
1128
  3
INDEXCTL
350
1127
  3
LAYEREVAL
350
2BA6
  3
LAYERNOTIFY
350
2BA7
  3
LIGHTINGUNITS
350
2BA5
  3
MSLTSCALE
350
2BA4
  3
SORTENTS
350
1126
  3
XCLIPFRAME
350
2BB2
  0
XRECORD
  5
2BB7
102
{ACAD_REACTORS
330
C
102
}
330
C
100
AcDbXrecord
280
     1
  1
DWGPROPS COOKIE
  2

  3

  4

  6

  7

  8
quadiss
  9

300
=
301
=
302
=
303
=
304
=
305
=
306
=
307
=
308
=
309
=
 40
0.1621151157407408
 41
2450140.523167593
 42
2457809.479641366
  1

 90
        0
  0
DICTIONARY
  5
10C5
102
{ACAD_REACTORS
330
10C4
102
}
330
10C4
100
AcDbDictionary
281
     1
  0
XRECORD
  5
10E0
102
{ACAD_REACTORS
330
10DF
102
}
330
10DF
100
AcDbXrecord
280
     1
290
     1
  0
XRECORD
  5
10E2
102
{ACAD_REACTORS
330
10E1
102
}
330
10E1
100
AcDbXrecord
280
     1
290
     1
  0
XRECORD
  5
105A
102
{ACAD_REACTORS
330
1059
102
}
330
1059
100
AcDbXrecord
280
     1
340
17
  0
SORTENTSTABLE
  5
1A74
102
{ACAD_REACTORS
330
1059
102
}
330
1059
100
AcDbSortentsTable
330
17
331
F73
  5
F73
331
C82
  5
C82
331
1001
  5
1001
331
E7D
  5
E7D
331
FFD
  5
FFD
331
19A
  5
19A
331
FF9
  5
FF9
331
208D
  5
208D
331
204E
  5
204E
331
2089
  5
2089
331
221C
  5
221C
331
2085
  5
2085
331
204A
  5
204A
331
2218
  5
2218
331
2081
  5
2081
331
139D
  5
139D
331
1399
  5
1399
331
225E
  5
225E
331
1395
  5
1395
331
225A
  5
225A
331
1391
  5
1391
331
2295
  5
2295
331
2256
  5
2256
331
252F
  5
252F
331
2291
  5
2291
331
2252
  5
2252
331
252B
  5
252B
331
F4F
  5
F4F
331
FF1
  5
FF1
331
D55
  5
D55
331
FED
  5
FED
331
D51
  5
D51
331
FE9
  5
FE9
331
2046
  5
2046
331
2214
  5
2214
331
207D
  5
207D
331
2042
  5
2042
331
2210
  5
2210
331
2079
  5
2079
331
203E
  5
203E
331
220C
  5
220C
331
2075
  5
2075
331
203A
  5
203A
331
2071
  5
2071
331
138D
  5
138D
331
1AFC
  5
19FC
331
228D
  5
228D
331
224E
  5
224E
331
2527
  5
2527
331
2289
  5
2289
331
224A
  5
224A
331
2523
  5
2523
331
2285
  5
2285
331
2246
  5
2246
331
251F
  5
251F
331
2281
  5
2281
331
2242
  5
2242
331
251B
  5
251B
331
F96
  5
F96
331
EA3
  5
EA3
331
F92
  5
F92
331
F8E
  5
F8E
331
D49
  5
D49
331
FE1
  5
FE1
331
E93
  5
E93
331
D45
  5
D45
331
FDD
  5
FDD
331
D41
  5
D41
331
2036
  5
2036
331
2032
  5
2032
331
206D
  5
206D
331
202E
  5
202E
331
2069
  5
2069
331
202A
  5
202A
331
2065
  5
2065
331
2061
  5
2061
331
18EC
  5
18EC
331
227D
  5
227D
331
223E
  5
223E
331
2517
  5
2517
331
11C5
  5
11C5
331
2279
  5
2279
331
223A
  5
223A
331
2513
  5
2513
331
2275
  5
2275
331
2236
  5
2236
331
250F
  5
250F
331
2271
  5
2271
331
2232
  5
2232
331
250B
  5
250B
331
E8F
  5
E8F
331
FCD
  5
FCD
331
1024
  5
1024
331
E8B
  5
E8B
331
D39
  5
D39
331
FC9
  5
FC9
331
E83
  5
E83
331
FC5
  5
FC5
331
253E
  5
253E
331
1018
  5
1018
331
253A
  5
253A
331
2536
  5
2536
331
2532
  5
2532
331
209C
  5
209C
331
205D
  5
205D
331
2098
  5
2098
331
2059
  5
2059
331
2055
  5
2055
331
2094
  5
2094
331
2051
  5
2051
331
2090
  5
2090
331
13AC
  5
13AC
331
13A8
  5
13A8
331
226D
  5
226D
331
222E
  5
222E
331
2507
  5
2507
331
13A4
  5
13A4
331
2269
  5
2269
331
222A
  5
222A
331
2503
  5
2503
331
13A0
  5
13A0
331
2265
  5
2265
331
2226
  5
2226
331
22A0
  5
22A0
331
24FF
  5
24FF
331
2261
  5
2261
331
2222
  5
2222
331
229C
  5
229C
331
2298
  5
2298
331
F76
  5
F76
331
F72
  5
F72
331
1004
  5
1004
331
C81
  5
C81
331
1000
  5
1000
331
E7C
  5
E7C
331
FFC
  5
FFC
331
FB9
  5
FB9
331
208C
  5
208C
331
221F
  5
221F
331
2088
  5
2088
331
204D
  5
204D
331
221B
  5
221B
331
2084
  5
2084
331
2049
  5
2049
331
2080
  5
2080
331
139C
  5
139C
331
1398
  5
1398
331
1394
  5
1394
331
225D
  5
225D
331
1390
  5
1390
331
2259
  5
2259
331
2294
  5
2294
331
2255
  5
2255
331
252E
  5
252E
331
2290
  5
2290
331
2251
  5
2251
331
252A
  5
252A
331
F4A
  5
F4A
331
F26
  5
F26
331
FF0
  5
FF0
331
D54
  5
D54
331
FEC
  5
FEC
331
2217
  5
2217
331
2045
  5
2045
331
2213
  5
2213
331
207C
  5
207C
331
2041
  5
2041
331
220F
  5
220F
331
2078
  5
2078
331
220B
  5
220B
331
2074
  5
2074
331
2039
  5
2039
331
2070
  5
2070
331
138C
  5
138C
331
12E4
  5
12E4
331
228C
  5
228C
331
224D
  5
224D
331
2526
  5
2526
331
2288
  5
2288
331
2249
  5
2249
331
2522
  5
2522
331
2284
  5
2284
331
2245
  5
2245
331
251E
  5
251E
331
2280
  5
2280
331
2241
  5
2241
331
251A
  5
251A
331
F95
  5
F95
331
EA2
  5
EA2
331
F91
  5
F91
331
F8D
  5
F8D
331
D48
  5
D48
331
FE0
  5
FE0
331
D44
  5
D44
331
E92
  5
E92
331
D40
  5
D40
331
2035
  5
2035
331
2031
  5
2031
331
206C
  5
206C
331
202D
  5
202D
331
2068
  5
2068
331
2029
  5
2029
331
2064
  5
2064
331
2060
  5
2060
331
11C4
  5
11C4
331
227C
  5
227C
331
223D
  5
223D
331
2516
  5
2516
331
2278
  5
2278
331
2239
  5
2239
331
2512
  5
2512
331
2274
  5
2274
331
2235
  5
2235
331
250E
  5
250E
331
2270
  5
2270
331
2231
  5
2231
331
250A
  5
250A
331
1027
  5
1027
331
E8E
  5
E8E
331
FCC
  5
FCC
331
1023
  5
1023
331
D38
  5
D38
331
FC8
  5
FC8
331
101B
  5
101B
331
E82
  5
E82
331
253D
  5
253D
331
2539
  5
2539
331
2535
  5
2535
331
2531
  5
2531
331
209B
  5
209B
331
205C
  5
205C
331
2097
  5
2097
331
2058
  5
2058
331
2093
  5
2093
331
2050
  5
2050
331
13AF
  5
13AF
331
13AB
  5
13AB
331
13A7
  5
13A7
331
1160
  5
1160
331
10D5
  5
10D5
331
13A3
  5
13A3
331
226C
  5
226C
331
222D
  5
222D
331
2506
  5
2506
331
2268
  5
2268
331
2229
  5
2229
331
2502
  5
2502
331
2264
  5
2264
331
2225
  5
2225
331
229F
  5
229F
331
24FE
  5
24FE
331
2260
  5
2260
331
2221
  5
2221
331
229B
  5
229B
331
F75
  5
F75
331
1003
  5
1003
331
FFF
  5
FFF
331
FB8
  5
FB8
331
E7B
  5
E7B
331
F51
  5
F51
331
208F
  5
208F
331
208B
  5
208B
331
221E
  5
221E
331
2087
  5
2087
331
204C
  5
204C
331
221A
  5
221A
331
2083
  5
2083
331
2048
  5
2048
331
139F
  5
139F
331
139B
  5
139B
331
1397
  5
1397
331
1393
  5
1393
331
225C
  5
225C
331
2297
  5
2297
331
2258
  5
2258
331
2293
  5
2293
331
252D
  5
252D
331
2254
  5
2254
331
2529
  5
2529
331
2250
  5
2250
331
D5B
  5
D5B
331
F49
  5
F49
331
FEF
  5
FEF
331
D53
  5
D53
331
2216
  5
2216
331
207F
  5
207F
331
2044
  5
2044
331
2212
  5
2212
331
207B
  5
207B
331
2040
  5
2040
331
220E
  5
220E
331
2077
  5
2077
331
203C
  5
203C
331
2038
  5
2038
331
2073
  5
2073
331
138F
  5
138F
331
138B
  5
138B
331
228F
  5
228F
331
228B
  5
228B
331
2525
  5
2525
331
224C
  5
224C
331
2287
  5
2287
331
2521
  5
2521
331
2248
  5
2248
331
2283
  5
2283
331
251D
  5
251D
331
2244
  5
2244
331
2519
  5
2519
331
2240
  5
2240
331
EA1
  5
EA1
331
F90
  5
F90
331
E95
  5
E95
331
D47
  5
D47
331
FDF
  5
FDF
331
D43
  5
D43
331
E91
  5
E91
331
2034
  5
2034
331
206F
  5
206F
331
2030
  5
2030
331
206B
  5
206B
331
202C
  5
202C
331
2067
  5
2067
331
2063
  5
2063
331
18EE
  5
18EE
331
227F
  5
227F
331
13B2
  5
13B2
331
227B
  5
227B
331
2515
  5
2515
331
223C
  5
223C
331
2277
  5
2277
331
2511
  5
2511
331
2238
  5
2238
331
2273
  5
2273
331
250D
  5
250D
331
2234
  5
2234
331
2509
  5
2509
331
2230
  5
2230
331
F84
  5
F84
331
FCF
  5
FCF
331
1026
  5
1026
331
E8D
  5
E8D
331
FCB
  5
FCB
331
FC7
  5
FC7
331
101A
  5
101A
331
C9B
  5
C9B
331
FC3
  5
FC3
331
E81
  5
E81
331
F78
  5
F78
331
253C
  5
253C
331
2538
  5
2538
331
2534
  5
2534
331
2530
  5
2530
331
205F
  5
205F
331
209A
  5
209A
331
205B
  5
205B
331
2096
  5
2096
331
2057
  5
2057
331
2092
  5
2092
331
2053
  5
2053
331
13AE
  5
13AE
331
13AA
  5
13AA
331
13A6
  5
13A6
331
226F
  5
226F
331
1153
  5
1153
331
13A2
  5
13A2
331
226B
  5
226B
331
2505
  5
2505
331
222C
  5
222C
331
2267
  5
2267
331
2501
  5
2501
331
2228
  5
2228
331
2263
  5
2263
331
24FD
  5
24FD
331
229E
  5
229E
331
2224
  5
2224
331
2220
  5
2220
331
229A
  5
229A
331
F74
  5
F74
331
1002
  5
1002
331
FFE
  5
FFE
331
E7A
  5
E7A
331
FFA
  5
FFA
331
F50
  5
F50
331
208E
  5
208E
331
204F
  5
204F
331
208A
  5
208A
331
221D
  5
221D
331
2086
  5
2086
331
204B
  5
204B
331
2219
  5
2219
331
2082
  5
2082
331
139E
  5
139E
331
139A
  5
139A
331
1396
  5
1396
331
225F
  5
225F
331
1392
  5
1392
331
225B
  5
225B
331
2296
  5
2296
331
2257
  5
2257
331
2292
  5
2292
331
252C
  5
252C
331
2253
  5
2253
331
2528
  5
2528
331
FB7
  5
FB7
331
D5A
  5
D5A
331
FEE
  5
FEE
331
D52
  5
D52
331
FEA
  5
FEA
331
2047
  5
2047
331
2215
  5
2215
331
207E
  5
207E
331
2043
  5
2043
331
2211
  5
2211
331
207A
  5
207A
331
203F
  5
203F
331
220D
  5
220D
331
2076
  5
2076
331
203B
  5
203B
331
2072
  5
2072
331
138E
  5
138E
331
138A
  5
138A
331
228E
  5
228E
331
224F
  5
224F
331
228A
  5
228A
331
2524
  5
2524
331
224B
  5
224B
331
2286
  5
2286
331
2520
  5
2520
331
2247
  5
2247
331
2282
  5
2282
331
251C
  5
251C
331
2243
  5
2243
331
2518
  5
2518
331
F93
  5
F93
331
D4A
  5
D4A
331
EA0
  5
EA0
331
F8F
  5
F8F
331
E94
  5
E94
331
D46
  5
D46
331
FDE
  5
FDE
331
D42
  5
D42
331
E90
  5
E90
331
2037
  5
2037
331
2033
  5
2033
331
206E
  5
206E
331
202F
  5
202F
331
206A
  5
206A
331
202B
  5
202B
331
2066
  5
2066
331
2062
  5
2062
331
227E
  5
227E
331
223F
  5
223F
331
227A
  5
227A
331
2514
  5
2514
331
223B
  5
223B
331
2276
  5
2276
331
2510
  5
2510
331
2237
  5
2237
331
2272
  5
2272
331
250C
  5
250C
331
2233
  5
2233
331
2508
  5
2508
331
F87
  5
F87
331
FCE
  5
FCE
331
E8C
  5
E8C
331
FCA
  5
FCA
331
E84
  5
E84
331
253F
  5
253F
331
FC6
  5
FC6
331
253B
  5
253B
331
C9A
  5
C9A
331
FC2
  5
FC2
331
1019
  5
1019
331
E80
  5
E80
331
2537
  5
2537
331
2533
  5
2533
331
209D
  5
209D
331
205E
  5
205E
331
2099
  5
2099
331
205A
  5
205A
331
2095
  5
2095
331
2056
  5
2056
331
2091
  5
2091
331
2052
  5
2052
331
13AD
  5
13AD
331
13A9
  5
13A9
331
13A5
  5
13A5
331
226E
  5
226E
331
222F
  5
222F
331
13A1
  5
13A1
331
226A
  5
226A
331
2504
  5
2504
331
222B
  5
222B
331
2227
  5
2227
331
2500
  5
2500
331
2266
  5
2266
331
2223
  5
2223
331
229D
  5
229D
331
24FC
  5
24FC
331
2262
  5
2262
331
2299
  5
2299
  0
XRECORD
  5
1058
102
{ACAD_REACTORS
330
1057
102
}
330
1057
100
AcDbXrecord
280
     1
340
14
  0
SORTENTSTABLE
  5
2B56
102
{ACAD_REACTORS
330
2B55
102
}
330
2B55
100
AcDbSortentsTable
330
2B4B
  0
XRECORD
  5
2BB5
102
{ACAD_REACTORS
330
2BB4
102
}
330
2BB4
100
AcDbXrecord
280
     1
 40
102645.0
  1
\pxqr;{\fArial TUR|b0|i0|c0|p34;\T1.05;AN ARCONIC COMPANY}
  0
LAYOUT
  5
1030
102
{ACAD_XDICTIONARY
360
2BBA
102
}
102
{ACAD_REACTORS
330
102D
102
}
330
102D
100
AcDbPlotSettings
  1

  2
HP LaserJet 4MV
  4

  6

 40
0.0
 41
0.0
 42
0.0
 43
0.0
 44
0.0
 45
0.0
 46
0.0
 47
0.0
 48
0.0
 49
0.0
140
0.0
141
0.0
142
1.0
143
1.0
 70
   688
 72
     0
 73
     0
 74
     5
  7

 75
    16
147
1.0
148
0.0
149
0.0
100
AcDbLayout
  1
Layout1
 70
     1
 71
     1
 10
0.0
 20
0.0
 11
12.0
 21
9.0
 12
0.0
 22
0.0
 32
0.0
 14
1.000000000000000E+20
 24
1.000000000000000E+20
 34
1.000000000000000E+20
 15
-1.000000000000000E+20
 25
-1.000000000000000E+20
 35
-1.000000000000000E+20
146
0.0
 13
0.0
 23
0.0
 33
0.0
 16
1.0
 26
0.0
 36
0.0
 17
0.0
 27
1.0
 37
0.0
 76
     0
330
14
  0
LAYOUT
  5
102F
102
{ACAD_XDICTIONARY
360
2BB8
102
}
102
{ACAD_REACTORS
330
102D
102
}
330
102D
100
AcDbPlotSettings
  1

  2
HP LaserJet 4MV
  4

  6

 40
0.0
 41
0.0
 42
0.0
 43
0.0
 44
0.0
 45
0.0
 46
0.0
 47
0.0
 48
0.0
 49
0.0
140
0.0
141
0.0
142
1.0
143
1.0
 70
  1712
 72
     0
 73
     0
 74
     0
  7

 75
     0
147
1.0
148
0.0
149
0.0
100
AcDbLayout
  1
Model
 70
     1
 71
     0
 10
0.0
 20
0.0
 11
12.0
 21
9.0
 12
0.0
 22
0.0
 32
0.0
 14
0.0
 24
0.0
 34
0.0
 15
0.0
 25
0.0
 35
0.0
146
0.0
 13
0.0
 23
0.0
 33
0.0
 16
1.0
 26
0.0
 36
0.0
 17
0.0
 27
1.0
 37
0.0
 76
     0
330
17
331
1033
  0
MATERIAL
  5
1067
102
{ACAD_XDICTIONARY
360
1068
102
}
102
{ACAD_REACTORS
330
105E
102
}
330
105E
100
AcDbMaterial
  1
ByBlock
 72
     0
 43
0.0208333333333333
 43
0.0
 43
0.0
 43
0.0
 43
0.0
 43
0.0208333333333333
 43
0.0
 43
0.0
 43
0.0
 43
0.0
 43
1.0
 43
0.0
 43
0.0
 43
0.0
 43
0.0
 43
1.0
 77
     0
 47
0.0208333333333333
 47
0.0
 47
0.0
 47
0.0
 47
0.0
 47
0.0208333333333333
 47
0.0
 47
0.0
 47
0.0
 47
0.0
 47
1.0
 47
0.0
 47
0.0
 47
0.0
 47
0.0
 47
1.0
171
     0
 49
0.0208333333333333
 49
0.0
 49
0.0
 49
0.0
 49
0.0
 49
0.0208333333333333
 49
0.0
 49
0.0
 49
0.0
 49
0.0
 49
1.0
 49
0.0
 49
0.0
 49
0.0
 49
0.0
 49
1.0
175
     0
142
0.0208333333333333
142
0.0
142
0.0
142
0.0
142
0.0
142
0.0208333333333333
142
0.0
142
0.0
142
0.0
142
0.0
142
1.0
142
0.0
142
0.0
142
0.0
142
0.0
142
1.0
179
     0
144
0.0208333333333333
144
0.0
144
0.0
144
0.0
144
0.0
144
0.0208333333333333
144
0.0
144
0.0
144
0.0
144
0.0
144
1.0
144
0.0
144
0.0
144
0.0
144
0.0
144
1.0
147
0.0208333333333333
147
0.0
147
0.0
147
0.0
147
0.0
147
0.0208333333333333
147
0.0
147
0.0
147
0.0
147
0.0
147
1.0
147
0.0
147
0.0
147
0.0
147
0.0
147
1.0
  0
MATERIAL
  5
105F
102
{ACAD_XDICTIONARY
360
1060
102
}
102
{ACAD_REACTORS
330
105E
102
}
330
105E
100
AcDbMaterial
  1
ByLayer
 72
     0
 43
0.0208333333333333
 43
0.0
 43
0.0
 43
0.0
 43
0.0
 43
0.0208333333333333
 43
0.0
 43
0.0
 43
0.0
 43
0.0
 43
1.0
 43
0.0
 43
0.0
 43
0.0
 43
0.0
 43
1.0
 77
     0
 47
0.0208333333333333
 47
0.0
 47
0.0
 47
0.0
 47
0.0
 47
0.0208333333333333
 47
0.0
 47
0.0
 47
0.0
 47
0.0
 47
1.0
 47
0.0
 47
0.0
 47
0.0
 47
0.0
 47
1.0
171
     0
 49
0.0208333333333333
 49
0.0
 49
0.0
 49
0.0
 49
0.0
 49
0.0208333333333333
 49
0.0
 49
0.0
 49
0.0
 49
0.0
 49
1.0
 49
0.0
 49
0.0
 49
0.0
 49
0.0
 49
1.0
175
     0
142
0.0208333333333333
142
0.0
142
0.0
142
0.0
142
0.0
142
0.0208333333333333
142
0.0
142
0.0
142
0.0
142
0.0
142
1.0
142
0.0
142
0.0
142
0.0
142
0.0
142
1.0
179
     0
144
0.0208333333333333
144
0.0
144
0.0
144
0.0
144
0.0
144
0.0208333333333333
144
0.0
144
0.0
144
0.0
144
0.0
144
1.0
144
0.0
144
0.0
144
0.0
144
0.0
144
1.0
147
0.0208333333333333
147
0.0
147
0.0
147
0.0
147
0.0
147
0.0208333333333333
147
0.0
147
0.0
147
0.0
147
0.0
147
1.0
147
0.0
147
0.0
147
0.0
147
0.0
147
1.0
  0
MATERIAL
  5
106F
102
{ACAD_XDICTIONARY
360
1070
102
}
102
{ACAD_REACTORS
330
105E
102
}
330
105E
100
AcDbMaterial
  1
Global
 72
     0
 43
0.0208333333333333
 43
0.0
 43
0.0
 43
0.0
 43
0.0
 43
0.0208333333333333
 43
0.0
 43
0.0
 43
0.0
 43
0.0
 43
1.0
 43
0.0
 43
0.0
 43
0.0
 43
0.0
 43
1.0
 77
     0
 47
0.0208333333333333
 47
0.0
 47
0.0
 47
0.0
 47
0.0
 47
0.0208333333333333
 47
0.0
 47
0.0
 47
0.0
 47
0.0
 47
1.0
 47
0.0
 47
0.0
 47
0.0
 47
0.0
 47
1.0
171
     0
 49
0.0208333333333333
 49
0.0
 49
0.0
 49
0.0
 49
0.0
 49
0.0208333333333333
 49
0.0
 49
0.0
 49
0.0
 49
0.0
 49
1.0
 49
0.0
 49
0.0
 49
0.0
 49
0.0
 49
1.0
175
     0
142
0.0208333333333333
142
0.0
142
0.0
142
0.0
142
0.0
142
0.0208333333333333
142
0.0
142
0.0
142
0.0
142
0.0
142
1.0
142
0.0
142
0.0
142
0.0
142
0.0
142
1.0
179
     0
144
0.0208333333333333
144
0.0
144
0.0
144
0.0
144
0.0
144
0.0208333333333333
144
0.0
144
0.0
144
0.0
144
0.0
144
1.0
144
0.0
144
0.0
144
0.0
144
0.0
144
1.0
147
0.0208333333333333
147
0.0
147
0.0
147
0.0
147
0.0
147
0.0208333333333333
147
0.0
147
0.0
147
0.0
147
0.0
147
1.0
147
0.0
147
0.0
147
0.0
147
0.0
147
1.0
  0
MLEADERSTYLE
  5
10A6
102
{ACAD_REACTORS
330
10A5
102
}
330
10A5
100
AcDbMLeaderStyle
170
     2
171
     1
172
     0
 90
        2
 40
0.0
 41
0.0
173
     1
 91
-1056964608
340
11
 92
       -2
290
     1
 42
0.09
291
     1
 43
0.36
  3
Standard
 44
0.18
300

342
F
174
     1
178
     6
175
     1
176
     0
 93
-1056964608
 45
0.18
292
     0
297
     0
 46
0.18
 94
-1056964608
 47
1.0
 49
1.0
140
1.0
293
     1
141
0.0
294
     1
177
     0
142
1.0
295
     0
296
     0
143
0.125
1001
ACAD_MLEADERVER
1070
     2
  0
MLINESTYLE
  5
1B
102
{ACAD_REACTORS
330
1A
102
}
330
1A
100
AcDbMlineStyle
  2
STANDARD
 70
     0
  3

 62
   256
 51
90.0
 52
90.0
 71
     2
 49
0.5
 62
   256
  6
BYLAYER
 49
-0.5
 62
   256
  6
BYLAYER
  0
ACDBPLACEHOLDER
  5
102C
102
{ACAD_REACTORS
330
102B
102
}
330
102B
  0
SCALE
  5
1094
102
{ACAD_REACTORS
330
1093
102
}
330
1093
100
AcDbScale
 70
     0
300
1:1
140
1.0
141
1.0
290
     1
  0
SCALE
  5
2B29
102
{ACAD_REACTORS
330
1093
102
}
330
1093
100
AcDbScale
 70
     0
300
1/128" = 1'-0"
140
0.0078125
141
12.0
290
     0
  0
SCALE
  5
2B2A
102
{ACAD_REACTORS
330
1093
102
}
330
1093
100
AcDbScale
 70
     0
300
1/64" = 1'-0"
140
0.015625
141
12.0
290
     0
  0
SCALE
  5
2B2B
102
{ACAD_REACTORS
330
1093
102
}
330
1093
100
AcDbScale
 70
     0
300
1/32" = 1'-0"
140
0.03125
141
12.0
290
     0
  0
SCALE
  5
2B2C
102
{ACAD_REACTORS
330
1093
102
}
330
1093
100
AcDbScale
 70
     0
300
1/16" = 1'-0"
140
0.0625
141
12.0
290
     0
  0
SCALE
  5
2B2D
102
{ACAD_REACTORS
330
1093
102
}
330
1093
100
AcDbScale
 70
     0
300
3/32" = 1'-0"
140
0.09375
141
12.0
290
     0
  0
SCALE
  5
2B2E
102
{ACAD_REACTORS
330
1093
102
}
330
1093
100
AcDbScale
 70
     0
300
1/8" = 1'-0"
140
0.125
141
12.0
290
     0
  0
SCALE
  5
2B2F
102
{ACAD_REACTORS
330
1093
102
}
330
1093
100
AcDbScale
 70
     0
300
3/16" = 1'-0"
140
0.1875
141
12.0
290
     0
  0
SCALE
  5
2B30
102
{ACAD_REACTORS
330
1093
102
}
330
1093
100
AcDbScale
 70
     0
300
1/4" = 1'-0"
140
0.25
141
12.0
290
     0
  0
SCALE
  5
2B31
102
{ACAD_REACTORS
330
1093
102
}
330
1093
100
AcDbScale
 70
     0
300
3/8" = 1'-0"
140
0.375
141
12.0
290
     0
  0
SCALE
  5
2B32
102
{ACAD_REACTORS
330
1093
102
}
330
1093
100
AcDbScale
 70
     0
300
1/2" = 1'-0"
140
0.5
141
12.0
290
     0
  0
SCALE
  5
2B33
102
{ACAD_REACTORS
330
1093
102
}
330
1093
100
AcDbScale
 70
     0
300
3/4" = 1'-0"
140
0.75
141
12.0
290
     0
  0
SCALE
  5
2B34
102
{ACAD_REACTORS
330
1093
102
}
330
1093
100
AcDbScale
 70
     0
300
1" = 1'-0"
140
1.0
141
12.0
290
     0
  0
SCALE
  5
2B35
102
{ACAD_REACTORS
330
1093
102
}
330
1093
100
AcDbScale
 70
     0
300
1-1/2" = 1'-0"
140
1.5
141
12.0
290
     0
  0
SCALE
  5
2B36
102
{ACAD_REACTORS
330
1093
102
}
330
1093
100
AcDbScale
 70
     0
300
3" = 1'-0"
140
3.0
141
12.0
290
     0
  0
SCALE
  5
2B37
102
{ACAD_REACTORS
330
1093
102
}
330
1093
100
AcDbScale
 70
     0
300
6" = 1'-0"
140
6.0
141
12.0
290
     0
  0
SCALE
  5
2B38
102
{ACAD_REACTORS
330
1093
102
}
330
1093
100
AcDbScale
 70
     0
300
1'-0" = 1'-0"
140
12.0
141
12.0
290
     0
  0
TABLESTYLE
  5
1092
102
{ACAD_XDICTIONARY
360
10E4
102
}
102
{ACAD_REACTORS
330
1091
102
}
330
1091
100
AcDbTableStyle
  3
Standard
 70
     0
 71
     0
 40
0.06
 41
0.06
280
     0
281
     0
  7
STANDARD
140
0.18
170
     2
 62
     0
 63
     7
283
     0
274
    -2
284
     1
 64
     0
275
    -2
285
     1
 65
     0
276
    -2
286
     1
 66
     0
277
    -2
287
     1
 67
     0
278
    -2
288
     1
 68
     0
279
    -2
289
     1
 69
     0
  7
STANDARD
140
0.25
170
     5
 62
     0
 63
     7
283
     0
274
    -2
284
     1
 64
     0
275
    -2
285
     1
 65
     0
276
    -2
286
     1
 66
     0
277
    -2
287
     1
 67
     0
278
    -2
288
     1
 68
     0
279
    -2
289
     1
 69
     0
  7
STANDARD
140
0.18
170
     5
 62
     0
 63
     7
283
     0
274
    -2
284
     1
 64
     0
275
    -2
285
     1
 65
     0
276
    -2
286
     1
 66
     0
277
    -2
287
     1
 67
     0
278
    -2
288
     1
 68
     0
279
    -2
289
     1
 69
     0
  0
VISUALSTYLE
  5
107D
102
{ACAD_XDICTIONARY
360
2BC9
102
}
102
{ACAD_REACTORS
330
1077
102
}
330
1077
100
AcDbVisualStyle
  2
2dWireframe
 70
     4
 71
     0
 72
     2
 73
     0
 90
        0
 40
-0.6
 41
-30.0
 62
     5
 63
     7
 74
     1
 91
        4
 64
     7
 65
   257
 75
     1
175
     1
 42
1.0
 92
        0
 66
   257
 43
1.0
 76
     1
 77
     6
 78
     2
 67
     7
 79
     5
170
     0
171
     0
290
     0
174
     0
 93
        1
 44
0.0
173
     0
291
     0
 45
0.0
1001
ACAD
1000
AcDbSavedByObjectVersion
1070
     0
  0
VISUALSTYLE
  5
2B49
102
{ACAD_XDICTIONARY
360
2BF0
102
}
102
{ACAD_REACTORS
330
1077
102
}
330
1077
100
AcDbVisualStyle
  2
3D Hidden
 70
     6
 71
     1
 72
     2
 73
     2
 90
        0
 40
-0.6
 41
-30.0
 62
     5
 63
     7
 74
     2
 91
        2
 64
     7
 65
   257
 75
     2
175
     1
 42
40.0
 92
        0
 66
   257
 43
1.0
 76
     1
 77
     6
 78
     2
 67
     7
 79
     3
170
     0
171
     0
290
     0
174
     0
 93
        1
 44
0.0
173
     0
291
     0
 45
0.0
1001
ACAD
1000
AcDbSavedByObjectVersion
1070
     0
  0
VISUALSTYLE
  5
2B4A
102
{ACAD_XDICTIONARY
360
2BF2
102
}
102
{ACAD_REACTORS
330
1077
102
}
330
1077
100
AcDbVisualStyle
  2
3dWireframe
 70
     5
 71
     0
 72
     2
 73
     0
 90
        0
 40
-0.6
 41
-30.0
 62
     5
 63
     7
 74
     1
 91
        4
 64
     7
 65
   257
 75
     1
175
     1
 42
1.0
 92
        0
 66
   257
 43
1.0
 76
     1
 77
     6
 78
     2
 67
     7
 79
     5
170
     0
171
     0
290
     0
174
     0
 93
        1
 44
0.0
173
     0
291
     0
 45
0.0
1001
ACAD
1000
AcDbSavedByObjectVersion
1070
     0
  0
VISUALSTYLE
  5
107C
102
{ACAD_XDICTIONARY
360
2BC7
102
}
102
{ACAD_REACTORS
330
1077
102
}
330
1077
100
AcDbVisualStyle
  2
Basic
 70
     7
 71
     1
 72
     0
 73
     1
 90
        0
 40
-0.6
 41
-30.0
 62
     5
 63
     7
 74
     0
 91
        4
 64
     7
 65
   257
 75
     1
175
     1
 42
1.0
 92
        8
 66
     7
 43
1.0
 76
     1
 77
     6
 78
     2
 67
     7
 79
     5
170
     0
171
     0
290
     0
174
     0
 93
        1
 44
0.0
173
     0
291
     1
 45
0.0
1001
ACAD
1000
AcDbSavedByObjectVersion
1070
     0
  0
VISUALSTYLE
  5
1083
102
{ACAD_XDICTIONARY
360
2BD5
102
}
102
{ACAD_REACTORS
330
1077
102
}
330
1077
100
AcDbVisualStyle
  2
Brighten
 70
    12
 71
     2
 72
     2
 73
     0
 90
        0
 40
-0.6
 41
-30.0
 62
     5
 63
     7
 74
     1
 91
        4
 64
     7
 65
   257
 75
     1
175
     1
 42
1.0
 92
        8
 66
     7
 43
1.0
 76
     1
 77
     6
 78
     2
 67
     7
 79
     5
170
     0
171
     0
290
     0
174
     0
 93
        1
 44
50.0
173
     0
291
     1
 45
0.0
1001
ACAD
1000
AcDbSavedByObjectVersion
1070
     0
  0
VISUALSTYLE
  5
1087
102
{ACAD_XDICTIONARY
360
2BDD
102
}
102
{ACAD_REACTORS
330
1077
102
}
330
1077
100
AcDbVisualStyle
  2
ColorChange
 70
    16
 71
     2
 72
     2
 73
     3
 90
        0
 40
-0.6
 41
-30.0
 62
     5
 63
     8
 74
     1
 91
        4
 64
     7
 65
   257
 75
     1
175
     1
 42
1.0
 92
        8
 66
     8
 43
1.0
 76
     1
 77
     6
 78
     2
 67
     7
 79
     5
170
     0
171
     0
290
     0
174
     0
 93
        1
 44
0.0
173
     0
291
     1
 45
0.0
1001
ACAD
1000
AcDbSavedByObjectVersion
1070
     0
  0
VISUALSTYLE
  5
1080
102
{ACAD_XDICTIONARY
360
2BCF
102
}
102
{ACAD_REACTORS
330
1077
102
}
330
1077
100
AcDbVisualStyle
  2
Conceptual
 70
     9
 71
     3
 72
     2
 73
     0
 90
        0
 40
-0.6
 41
-30.0
 62
     5
 63
     7
 74
     2
 91
        2
 64
     7
 65
   257
 75
     1
175
     1
 42
179.0
 92
        8
 66
     7
 43
1.0
 76
     1
 77
     6
 78
     2
 67
     7
 79
     3
170
     0
171
     0
290
     0
174
     0
 93
        1
 44
0.0
173
     0
291
     0
 45
0.0
1001
ACAD
1000
AcDbSavedByObjectVersion
1070
     0
  0
VISUALSTYLE
  5
1082
102
{ACAD_XDICTIONARY
360
2BD3
102
}
102
{ACAD_REACTORS
330
1077
102
}
330
1077
100
AcDbVisualStyle
  2
Dim
 70
    11
 71
     2
 72
     2
 73
     0
 90
        0
 40
-0.6
 41
-30.0
 62
     5
 63
     7
 74
     1
 91
        4
 64
     7
 65
   257
 75
     1
175
     1
 42
1.0
 92
        8
 66
     7
 43
1.0
 76
     1
 77
     6
 78
     2
 67
     7
 79
     5
170
     0
171
     0
290
     0
174
     0
 93
        1
 44
-50.0
173
     0
291
     1
 45
0.0
1001
ACAD
1000
AcDbSavedByObjectVersion
1070
     0
  0
VISUALSTYLE
  5
108F
102
{ACAD_XDICTIONARY
360
2BED
102
}
102
{ACAD_REACTORS
330
1077
102
}
330
1077
100
AcDbVisualStyle
  2
EdgeColorOff
 70
    22
 71
     2
 72
     2
 73
     0
 90
        0
 40
-0.6
 41
-30.0
 62
     5
 63
     7
 74
     1
 91
        4
 64
     7
 65
   257
 75
     1
175
     1
 42
1.0
 92
        8
 66
     7
 43
1.0
 76
     1
 77
     6
 78
     2
 67
     7
 79
     5
170
     0
171
     0
290
     0
174
     0
 93
        1
 44
0.0
173
     0
291
     1
 45
0.0
1001
ACAD
1000
AcDbSavedByObjectVersion
1070
     0
  0
VISUALSTYLE
  5
1086
102
{ACAD_XDICTIONARY
360
2BDB
102
}
102
{ACAD_REACTORS
330
1077
102
}
330
1077
100
AcDbVisualStyle
  2
Facepattern
 70
    15
 71
     2
 72
     2
 73
     0
 90
        0
 40
-0.6
 41
-30.0
 62
     5
 63
     7
 74
     1
 91
        4
 64
     7
 65
   257
 75
     1
175
     1
 42
1.0
 92
        8
 66
     7
 43
1.0
 76
     1
 77
     6
 78
     2
 67
     7
 79
     5
170
     0
171
     0
290
     0
174
     0
 93
        1
 44
0.0
173
     0
291
     1
 45
0.0
1001
ACAD
1000
AcDbSavedByObjectVersion
1070
     0
  0
VISUALSTYLE
  5
1078
102
{ACAD_XDICTIONARY
360
2BBF
102
}
102
{ACAD_REACTORS
330
1077
102
}
330
1077
100
AcDbVisualStyle
  2
Flat
 70
     0
 71
     2
 72
     1
 73
     1
 90
        2
 40
-0.6
 41
30.0
 62
     5
 63
     7
 74
     0
 91
        0
 64
     7
 65
   257
 75
     1
175
     1
 42
1.0
 92
        8
 66
     7
 43
1.0
 76
     1
 77
     6
 78
     2
 67
     7
 79
     5
170
     0
171
     0
290
     0
174
     0
 93
       13
 44
0.0
173
     0
291
     1
 45
0.0
1001
ACAD
1000
AcDbSavedByObjectVersion
1070
     0
  0
VISUALSTYLE
  5
1079
102
{ACAD_XDICTIONARY
360
2BC1
102
}
102
{ACAD_REACTORS
330
1077
102
}
330
1077
100
AcDbVisualStyle
  2
FlatWithEdges
 70
     1
 71
     2
 72
     1
 73
     1
 90
        2
 40
-0.6
 41
30.0
 62
     5
 63
     7
 74
     1
 91
        0
 64
     7
 65
   257
 75
     1
175
     1
 42
1.0
 92
        0
 66
   257
 43
1.0
 76
     1
 77
     6
 78
     2
 67
     7
 79
     5
170
     0
171
     0
290
     0
174
     0
 93
       13
 44
0.0
173
     0
291
     1
 45
0.0
1001
ACAD
1000
AcDbSavedByObjectVersion
1070
     0
  0
VISUALSTYLE
  5
107A
102
{ACAD_XDICTIONARY
360
2BC3
102
}
102
{ACAD_REACTORS
330
1077
102
}
330
1077
100
AcDbVisualStyle
  2
Gouraud
 70
     2
 71
     2
 72
     2
 73
     1
 90
        2
 40
-0.6
 41
30.0
 62
     5
 63
     7
 74
     0
 91
        0
 64
     7
 65
   257
 75
     1
175
     1
 42
1.0
 92
        0
 66
     7
 43
1.0
 76
     1
 77
     6
 78
     2
 67
     7
 79
     5
170
     0
171
     0
290
     0
174
     0
 93
       13
 44
0.0
173
     0
291
     1
 45
0.0
1001
ACAD
1000
AcDbSavedByObjectVersion
1070
     0
  0
VISUALSTYLE
  5
107B
102
{ACAD_XDICTIONARY
360
2BC5
102
}
102
{ACAD_REACTORS
330
1077
102
}
330
1077
100
AcDbVisualStyle
  2
GouraudWithEdges
 70
     3
 71
     2
 72
     2
 73
     1
 90
        2
 40
-0.6
 41
30.0
 62
     5
 63
     7
 74
     1
 91
        0
 64
     7
 65
   257
 75
     1
175
     1
 42
1.0
 92
        0
 66
   257
 43
1.0
 76
     1
 77
     6
 78
     2
 67
     7
 79
     5
170
     0
171
     0
290
     0
174
     0
 93
       13
 44
0.0
173
     0
291
     1
 45
0.0
1001
ACAD
1000
AcDbSavedByObjectVersion
1070
     0
  0
VISUALSTYLE
  5
107F
102
{ACAD_XDICTIONARY
360
2BCD
102
}
102
{ACAD_REACTORS
330
1077
102
}
330
1077
100
AcDbVisualStyle
  2
Hidden
 70
     6
 71
     1
 72
     2
 73
     2
 90
        0
 40
-0.6
 41
-30.0
 62
     5
 63
     7
 74
     2
 91
        2
 64
     7
 65
   257
 75
     2
175
     1
 42
40.0
 92
        0
 66
   257
 43
1.0
 76
     1
 77
     6
 78
     2
 67
     7
 79
     3
170
     0
171
     0
290
     0
174
     0
 93
        1
 44
0.0
173
     0
291
     0
 45
0.0
1001
ACAD
1000
AcDbSavedByObjectVersion
1070
     0
  0
VISUALSTYLE
  5
108D
102
{ACAD_XDICTIONARY
360
2BE9
102
}
102
{ACAD_REACTORS
330
1077
102
}
330
1077
100
AcDbVisualStyle
  2
JitterOff
 70
    20
 71
     2
 72
     2
 73
     0
 90
        0
 40
-0.6
 41
-30.0
 62
     5
 63
     7
 74
     1
 91
        4
 64
     7
 65
   257
 75
     1
175
     1
 42
1.0
 92
       10
 66
     7
 43
1.0
 76
     1
 77
     6
 78
     2
 67
     7
 79
     5
170
     0
171
     0
290
     0
174
     0
 93
        1
 44
0.0
173
     0
291
     1
 45
0.0
1001
ACAD
1000
AcDbSavedByObjectVersion
1070
     0
  0
VISUALSTYLE
  5
1085
102
{ACAD_XDICTIONARY
360
2BD9
102
}
102
{ACAD_REACTORS
330
1077
102
}
330
1077
100
AcDbVisualStyle
  2
Linepattern
 70
    14
 71
     2
 72
     2
 73
     0
 90
        0
 40
-0.6
 41
-30.0
 62
     5
 63
     7
 74
     1
 91
        4
 64
     7
 65
   257
 75
     7
175
     7
 42
1.0
 92
        8
 66
     7
 43
1.0
 76
     1
 77
     6
 78
     2
 67
     7
 79
     5
170
     0
171
     0
290
     0
174
     0
 93
        1
 44
0.0
173
     0
291
     1
 45
0.0
1001
ACAD
1000
AcDbSavedByObjectVersion
1070
     0
  0
VISUALSTYLE
  5
108E
102
{ACAD_XDICTIONARY
360
2BEB
102
}
102
{ACAD_REACTORS
330
1077
102
}
330
1077
100
AcDbVisualStyle
  2
OverhangOff
 70
    21
 71
     2
 72
     2
 73
     0
 90
        0
 40
-0.6
 41
-30.0
 62
     5
 63
     7
 74
     1
 91
        4
 64
     7
 65
   257
 75
     1
175
     1
 42
1.0
 92
        9
 66
     7
 43
1.0
 76
     1
 77
     6
 78
     2
 67
     7
 79
     5
170
     0
171
     0
290
     0
174
     0
 93
        1
 44
0.0
173
     0
291
     1
 45
0.0
1001
ACAD
1000
AcDbSavedByObjectVersion
1070
     0
  0
VISUALSTYLE
  5
1081
102
{ACAD_XDICTIONARY
360
2BD1
102
}
102
{ACAD_REACTORS
330
1077
102
}
330
1077
100
AcDbVisualStyle
  2
Realistic
 70
     8
 71
     2
 72
     2
 73
     0
 90
        2
 40
-0.6
 41
30.0
 62
     5
 63
     7
 74
     0
 91
        0
 64
     7
 65
   257
 75
     1
175
     1
 42
1.0
 92
        8
 66
   257
 43
1.0
 76
     1
 77
     6
 78
     2
 67
     7
 79
     3
170
     0
171
     0
290
     0
174
     0
 93
       13
 44
0.0
173
     0
291
     0
 45
0.0
1001
ACAD
1000
AcDbSavedByObjectVersion
1070
     0
  0
VISUALSTYLE
  5
108C
102
{ACAD_XDICTIONARY
360
2BE7
102
}
102
{ACAD_REACTORS
330
1077
102
}
330
1077
100
AcDbVisualStyle
  2
Shaded
 70
    27
 71
     2
 72
     2
 73
     1
 90
        2
 40
-0.6
 41
30.0
 62
     5
 63
     7
 74
     0
 91
        4
 64
     7
 65
   257
 75
     1
175
     1
 42
1.0
 92
        8
 66
   257
 43
1.0
 76
     1
 77
     6
 78
     2
 67
     8
 79
     3
170
     0
171
     0
290
     0
174
     0
 93
        5
 44
0.0
173
     0
291
     0
 45
0.0
1001
ACAD
1000
AcDbSavedByObjectVersion
1070
     0
  0
VISUALSTYLE
  5
108B
102
{ACAD_XDICTIONARY
360
2BE5
102
}
102
{ACAD_REACTORS
330
1077
102
}
330
1077
100
AcDbVisualStyle
  2
Shaded with edges
 70
    26
 71
     2
 72
     2
 73
     1
 90
        2
 40
-0.6
 41
30.0
 62
     5
 63
     7
 74
     1
 91
       10
 64
     7
 65
   257
 75
     2
175
     1
 42
1.0
 92
        8
 66
   257
 43
1.0
 76
     1
 77
     6
 78
     2
 67
     7
 79
     3
170
     0
171
     0
290
     0
174
     0
 93
        5
 44
0.0
173
     0
291
     0
 45
0.0
1001
ACAD
1000
AcDbSavedByObjectVersion
1070
     0
  0
VISUALSTYLE
  5
1088
102
{ACAD_XDICTIONARY
360
2BDF
102
}
102
{ACAD_REACTORS
330
1077
102
}
330
1077
100
AcDbVisualStyle
  2
Shades of Gray
 70
    23
 71
     2
 72
     2
 73
     3
 90
        0
 40
-0.6
 41
-30.0
 62
     5
 63
     7
 74
     2
 91
        2
 64
     7
 65
     7
 75
     1
175
     1
 42
40.0
 92
        8
 66
     7
 43
1.0
 76
     1
 77
     6
 78
     2
 67
     7
 79
     3
170
     0
171
     0
290
     0
174
     0
 93
        1
 44
0.0
173
     0
291
     0
 45
0.0
1001
ACAD
1000
AcDbSavedByObjectVersion
1070
     0
  0
VISUALSTYLE
  5
1089
102
{ACAD_XDICTIONARY
360
2BE1
102
}
102
{ACAD_REACTORS
330
1077
102
}
330
1077
100
AcDbVisualStyle
  2
Sketchy
 70
    24
 71
     1
 72
     2
 73
     2
 90
        0
 40
-0.6
 41
-30.0
 62
     5
 63
     7
 74
     2
 91
        2
 64
     7
 65
     7
 75
     1
175
     1
 42
40.0
 92
       11
 66
     7
 43
1.0
 76
     1
 77
     6
 78
     2
 67
     7
 79
     6
170
     0
171
     0
290
     0
174
     0
 93
        1
 44
0.0
173
     0
291
     0
 45
0.0
1001
ACAD
1000
AcDbSavedByObjectVersion
1070
     0
  0
VISUALSTYLE
  5
1084
102
{ACAD_XDICTIONARY
360
2BD7
102
}
102
{ACAD_REACTORS
330
1077
102
}
330
1077
100
AcDbVisualStyle
  2
Thicken
 70
    13
 71
     2
 72
     2
 73
     0
 90
        0
 40
-0.6
 41
-30.0
 62
     5
 63
     7
 74
     1
 91
        4
 64
     7
 65
   257
 75
     1
175
     1
 42
1.0
 92
       12
 66
     7
 43
1.0
 76
     1
 77
     6
 78
     2
 67
     7
 79
     5
170
     0
171
     0
290
     0
174
     0
 93
        1
 44
0.0
173
     0
291
     1
 45
0.0
1001
ACAD
1000
AcDbSavedByObjectVersion
1070
     0
  0
VISUALSTYLE
  5
107E
102
{ACAD_XDICTIONARY
360
2BCB
102
}
102
{ACAD_REACTORS
330
1077
102
}
330
1077
100
AcDbVisualStyle
  2
Wireframe
 70
     5
 71
     0
 72
     2
 73
     0
 90
        0
 40
-0.6
 41
-30.0
 62
     5
 63
     7
 74
     1
 91
        4
 64
     7
 65
   257
 75
     1
175
     1
 42
1.0
 92
        0
 66
   257
 43
1.0
 76
     1
 77
     6
 78
     2
 67
     7
 79
     3
170
     0
171
     0
290
     0
174
     0
 93
        1
 44
0.0
173
     0
291
     0
 45
0.0
1001
ACAD
1000
AcDbSavedByObjectVersion
1070
     0
  0
VISUALSTYLE
  5
108A
102
{ACAD_XDICTIONARY
360
2BE3
102
}
102
{ACAD_REACTORS
330
1077
102
}
330
1077
100
AcDbVisualStyle
  2
X-Ray
 70
    25
 71
     2
 72
     2
 73
     1
 90
        1
 40
0.5
 41
-30.0
 62
     5
 63
     7
 74
     1
 91
        0
 64
     7
 65
   257
 75
     1
175
     1
 42
1.0
 92
        8
 66
     7
 43
1.0
 76
     1
 77
     6
 78
     2
 67
     7
 79
     3
170
     0
171
     0
290
     0
174
     0
 93
       13
 44
0.0
173
     0
291
     0
 45
0.0
1001
ACAD
1000
AcDbSavedByObjectVersion
1070
     0
  0
DICTIONARYVAR
  5
1125
102
{ACAD_REACTORS
330
24
102
}
330
24
100
DictionaryVariables
280
     0
  1
1:1
  0
DICTIONARYVAR
  5
1124
102
{ACAD_REACTORS
330
24
102
}
330
24
100
DictionaryVariables
280
     0
  1
STANDARD
  0
DICTIONARYVAR
  5
1123
102
{ACAD_REACTORS
330
24
102
}
330
24
100
DictionaryVariables
280
     0
  1
STANDARD
  0
DICTIONARYVAR
  5
25
102
{ACAD_REACTORS
330
24
102
}
330
24
100
DictionaryVariables
280
     0
  1
0
  0
DICTIONARYVAR
  5
1128
102
{ACAD_REACTORS
330
24
102
}
330
24
100
DictionaryVariables
280
     0
  1
0
  0
DICTIONARYVAR
  5
1127
102
{ACAD_REACTORS
330
24
102
}
330
24
100
DictionaryVariables
280
     0
  1
0
  0
DICTIONARYVAR
  5
2BA6
102
{ACAD_REACTORS
330
24
102
}
330
24
100
DictionaryVariables
280
     0
  1
1
  0
DICTIONARYVAR
  5
2BA7
102
{ACAD_REACTORS
330
24
102
}
330
24
100
DictionaryVariables
280
     0
  1
15
  0
DICTIONARYVAR
  5
2BA5
102
{ACAD_REACTORS
330
24
102
}
330
24
100
DictionaryVariables
280
     0
  1
0
  0
DICTIONARYVAR
  5
2BA4
102
{ACAD_REACTORS
330
24
102
}
330
24
100
DictionaryVariables
280
     0
  1
0
  0
DICTIONARYVAR
  5
1126
102
{ACAD_REACTORS
330
24
102
}
330
24
100
DictionaryVariables
280
     0
  1
127
  0
DICTIONARYVAR
  5
2BB2
102
{ACAD_REACTORS
330
24
102
}
330
24
100
DictionaryVariables
280
     0
  1
2
  0
DICTIONARY
  5
2BBA
330
1030
100
AcDbDictionary
280
     1
281
     1
  3
ACAD_XREC_ROUNDTRIP
360
2BBB
  0
DICTIONARY
  5
2BB8
330
102F
100
AcDbDictionary
280
     1
281
     1
  3
ACAD_XREC_ROUNDTRIP
360
2BB9
  0
DICTIONARY
  5
1068
330
1067
100
AcDbDictionary
280
     1
281
     1
  3
ACAD_XREC_ROUNDTRIP
360
2BBD
  3
BUMPTILE
360
106A
  3
DIFFUSETILE
360
1069
  3
OPACITYTILE
360
106D
  3
REFLECTIONTILE
360
106C
  3
REFRACTIONTILE
360
106E
  3
SPECULARTILE
360
106B
  0
DICTIONARY
  5
1060
330
105F
100
AcDbDictionary
280
     1
281
     1
  3
ACAD_XREC_ROUNDTRIP
360
2BBC
  3
BUMPTILE
360
1062
  3
DIFFUSETILE
360
1061
  3
OPACITYTILE
360
1065
  3
REFLECTIONTILE
360
1064
  3
REFRACTIONTILE
360
1066
  3
SPECULARTILE
360
1063
  0
DICTIONARY
  5
1070
330
106F
100
AcDbDictionary
280
     1
281
     1
  3
ACAD_XREC_ROUNDTRIP
360
2BBE
  3
BUMPTILE
360
1072
  3
DIFFUSETILE
360
1071
  3
OPACITYTILE
360
1075
  3
REFLECTIONTILE
360
1074
  3
REFRACTIONTILE
360
1076
  3
SPECULARTILE
360
1073
  0
DICTIONARY
  5
10E4
330
1092
100
AcDbDictionary
280
     1
281
     1
  3
ACAD_ROUNDTRIP_2008_TABLESTYLE_CELLSTYLEMAP
360
2BB3
  3
ACAD_XREC_ROUNDTRIP
360
2BEF
  0
DICTIONARY
  5
2BC9
330
107D
100
AcDbDictionary
280
     1
281
     1
  3
ACAD_XREC_ROUNDTRIP
360
2BCA
  0
DICTIONARY
  5
2BF0
330
2B49
100
AcDbDictionary
280
     1
281
     1
  3
ACAD_XREC_ROUNDTRIP
360
2BF1
  0
DICTIONARY
  5
2BF2
330
2B4A
100
AcDbDictionary
280
     1
281
     1
  3
ACAD_XREC_ROUNDTRIP
360
2BF3
  0
DICTIONARY
  5
2BC7
330
107C
100
AcDbDictionary
280
     1
281
     1
  3
ACAD_XREC_ROUNDTRIP
360
2BC8
  0
DICTIONARY
  5
2BD5
330
1083
100
AcDbDictionary
280
     1
281
     1
  3
ACAD_XREC_ROUNDTRIP
360
2BD6
  0
DICTIONARY
  5
2BDD
330
1087
100
AcDbDictionary
280
     1
281
     1
  3
ACAD_XREC_ROUNDTRIP
360
2BDE
  0
DICTIONARY
  5
2BCF
330
1080
100
AcDbDictionary
280
     1
281
     1
  3
ACAD_XREC_ROUNDTRIP
360
2BD0
  0
DICTIONARY
  5
2BD3
330
1082
100
AcDbDictionary
280
     1
281
     1
  3
ACAD_XREC_ROUNDTRIP
360
2BD4
  0
DICTIONARY
  5
2BED
330
108F
100
AcDbDictionary
280
     1
281
     1
  3
ACAD_XREC_ROUNDTRIP
360
2BEE
  0
DICTIONARY
  5
2BDB
330
1086
100
AcDbDictionary
280
     1
281
     1
  3
ACAD_XREC_ROUNDTRIP
360
2BDC
  0
DICTIONARY
  5
2BBF
330
1078
100
AcDbDictionary
280
     1
281
     1
  3
ACAD_XREC_ROUNDTRIP
360
2BC0
  0
DICTIONARY
  5
2BC1
330
1079
100
AcDbDictionary
280
     1
281
     1
  3
ACAD_XREC_ROUNDTRIP
360
2BC2
  0
DICTIONARY
  5
2BC3
330
107A
100
AcDbDictionary
280
     1
281
     1
  3
ACAD_XREC_ROUNDTRIP
360
2BC4
  0
DICTIONARY
  5
2BC5
330
107B
100
AcDbDictionary
280
     1
281
     1
  3
ACAD_XREC_ROUNDTRIP
360
2BC6
  0
DICTIONARY
  5
2BCD
330
107F
100
AcDbDictionary
280
     1
281
     1
  3
ACAD_XREC_ROUNDTRIP
360
2BCE
  0
DICTIONARY
  5
2BE9
330
108D
100
AcDbDictionary
280
     1
281
     1
  3
ACAD_XREC_ROUNDTRIP
360
2BEA
  0
DICTIONARY
  5
2BD9
330
1085
100
AcDbDictionary
280
     1
281
     1
  3
ACAD_XREC_ROUNDTRIP
360
2BDA
  0
DICTIONARY
  5
2BEB
330
108E
100
AcDbDictionary
280
     1
281
     1
  3
ACAD_XREC_ROUNDTRIP
360
2BEC
  0
DICTIONARY
  5
2BD1
330
1081
100
AcDbDictionary
280
     1
281
     1
  3
ACAD_XREC_ROUNDTRIP
360
2BD2
  0
DICTIONARY
  5
2BE7
330
108C
100
AcDbDictionary
280
     1
281
     1
  3
ACAD_XREC_ROUNDTRIP
360
2BE8
  0
DICTIONARY
  5
2BE5
330
108B
100
AcDbDictionary
280
     1
281
     1
  3
ACAD_XREC_ROUNDTRIP
360
2BE6
  0
DICTIONARY
  5
2BDF
330
1088
100
AcDbDictionary
280
     1
281
     1
  3
ACAD_XREC_ROUNDTRIP
360
2BE0
  0
DICTIONARY
  5
2BE1
330
1089
100
AcDbDictionary
280
     1
281
     1
  3
ACAD_XREC_ROUNDTRIP
360
2BE2
  0
DICTIONARY
  5
2BD7
330
1084
100
AcDbDictionary
280
     1
281
     1
  3
ACAD_XREC_ROUNDTRIP
360
2BD8
  0
DICTIONARY
  5
2BCB
330
107E
100
AcDbDictionary
280
     1
281
     1
  3
ACAD_XREC_ROUNDTRIP
360
2BCC
  0
DICTIONARY
  5
2BE3
330
108A
100
AcDbDictionary
280
     1
281
     1
  3
ACAD_XREC_ROUNDTRIP
360
2BE4
  0
XRECORD
  5
2BBB
102
{ACAD_REACTORS
330
2BBA
102
}
330
2BBA
100
AcDbXrecord
280
     1
102
SHADEPLOT
 70
     0
102
SHADEPLOTRESLEVEL
 70
     2
102
SHADEPLOTCUSTOMDPI
 70
   300
  0
XRECORD
  5
2BB9
102
{ACAD_REACTORS
330
2BB8
102
}
330
2BB8
100
AcDbXrecord
280
     1
102
SHADEPLOT
 70
     0
102
SHADEPLOTRESLEVEL
 70
     2
102
SHADEPLOTCUSTOMDPI
 70
   300
  0
XRECORD
  5
2BBD
102
{ACAD_REACTORS
330
1068
102
}
330
1068
100
AcDbXrecord
280
     1
102
MATERIAL
148
0.0
149
0.0
149
0.0
 93
        0
 94
      127
282
     0
 72
     0
 77
     0
171
     0
175
     0
179
     0
273
     0
  0
XRECORD
  5
106A
102
{ACAD_REACTORS
330
1068
102
}
330
1068
100
AcDbXrecord
280
     1
270
     1
271
     1
  0
XRECORD
  5
1069
102
{ACAD_REACTORS
330
1068
102
}
330
1068
100
AcDbXrecord
280
     1
270
     1
271
     1
  0
XRECORD
  5
106D
102
{ACAD_REACTORS
330
1068
102
}
330
1068
100
AcDbXrecord
280
     1
270
     1
271
     1
  0
XRECORD
  5
106C
102
{ACAD_REACTORS
330
1068
102
}
330
1068
100
AcDbXrecord
280
     1
270
     1
271
     1
  0
XRECORD
  5
106E
102
{ACAD_REACTORS
330
1068
102
}
330
1068
100
AcDbXrecord
280
     1
270
     1
271
     1
  0
XRECORD
  5
106B
102
{ACAD_REACTORS
330
1068
102
}
330
1068
100
AcDbXrecord
280
     1
270
     1
271
     1
  0
XRECORD
  5
2BBC
102
{ACAD_REACTORS
330
1060
102
}
330
1060
100
AcDbXrecord
280
     1
102
MATERIAL
148
0.0
149
0.0
149
0.0
 93
        0
 94
      127
282
     0
 72
     0
 77
     0
171
     0
175
     0
179
     0
273
     0
  0
XRECORD
  5
1062
102
{ACAD_REACTORS
330
1060
102
}
330
1060
100
AcDbXrecord
280
     1
270
     1
271
     1
  0
XRECORD
  5
1061
102
{ACAD_REACTORS
330
1060
102
}
330
1060
100
AcDbXrecord
280
     1
270
     1
271
     1
  0
XRECORD
  5
1065
102
{ACAD_REACTORS
330
1060
102
}
330
1060
100
AcDbXrecord
280
     1
270
     1
271
     1
  0
XRECORD
  5
1064
102
{ACAD_REACTORS
330
1060
102
}
330
1060
100
AcDbXrecord
280
     1
270
     1
271
     1
  0
XRECORD
  5
1066
102
{ACAD_REACTORS
330
1060
102
}
330
1060
100
AcDbXrecord
280
     1
270
     1
271
     1
  0
XRECORD
  5
1063
102
{ACAD_REACTORS
330
1060
102
}
330
1060
100
AcDbXrecord
280
     1
270
     1
271
     1
  0
XRECORD
  5
2BBE
102
{ACAD_REACTORS
330
1070
102
}
330
1070
100
AcDbXrecord
280
     1
102
MATERIAL
148
0.0
149
0.0
149
0.0
 93
        0
 94
      127
282
     0
 72
     0
 77
     0
171
     0
175
     0
179
     0
273
     0
  0
XRECORD
  5
1072
102
{ACAD_REACTORS
330
1070
102
}
330
1070
100
AcDbXrecord
280
     1
270
     1
271
     1
  0
XRECORD
  5
1071
102
{ACAD_REACTORS
330
1070
102
}
330
1070
100
AcDbXrecord
280
     1
270
     1
271
     1
  0
XRECORD
  5
1075
102
{ACAD_REACTORS
330
1070
102
}
330
1070
100
AcDbXrecord
280
     1
270
     1
271
     1
  0
XRECORD
  5
1074
102
{ACAD_REACTORS
330
1070
102
}
330
1070
100
AcDbXrecord
280
     1
270
     1
271
     1
  0
XRECORD
  5
1076
102
{ACAD_REACTORS
330
1070
102
}
330
1070
100
AcDbXrecord
280
     1
270
     1
271
     1
  0
XRECORD
  5
1073
102
{ACAD_REACTORS
330
1070
102
}
330
1070
100
AcDbXrecord
280
     1
270
     1
271
     1
  0
CELLSTYLEMAP
  5
2BB3
102
{ACAD_REACTORS
330
10E4
102
}
330
10E4
100
AcDbCellStyleMap
 90
        3
300
CELLSTYLE
  1
TABLEFORMAT_BEGIN
 90
        5
170
     1
 91
        0
 92
    32768
 62
   257
 93
        1
300
CONTENTFORMAT
  1
CONTENTFORMAT_BEGIN
 90
        0
 91
        0
 92
      512
 93
        0
300

 40
0.0
140
1.0
 94
        5
 62
     0
340
F
144
0.25
309
CONTENTFORMAT_END
171
     0
 94
        0
309
TABLEFORMAT_END
  1
CELLSTYLE_BEGIN
 90
        1
 91
        1
300
_TITLE
309
CELLSTYLE_END
300
CELLSTYLE
  1
TABLEFORMAT_BEGIN
 90
        5
170
     1
 91
        0
 92
        0
 62
   257
 93
        1
300
CONTENTFORMAT
  1
CONTENTFORMAT_BEGIN
 90
        0
 91
        0
 92
      512
 93
        0
300

 40
0.0
140
1.0
 94
        5
 62
     0
340
F
144
0.18
309
CONTENTFORMAT_END
171
     0
 94
        0
309
TABLEFORMAT_END
  1
CELLSTYLE_BEGIN
 90
        2
 91
        1
300
_HEADER
309
CELLSTYLE_END
300
CELLSTYLE
  1
TABLEFORMAT_BEGIN
 90
        5
170
     1
 91
        0
 92
        0
 62
   257
 93
        1
300
CONTENTFORMAT
  1
CONTENTFORMAT_BEGIN
 90
        0
 91
        0
 92
      512
 93
        0
300

 40
0.0
140
1.0
 94
        2
 62
     0
340
F
144
0.18
309
CONTENTFORMAT_END
171
     0
 94
        0
309
TABLEFORMAT_END
  1
CELLSTYLE_BEGIN
 90
        3
 91
        2
300
_DATA
309
CELLSTYLE_END
  0
XRECORD
  5
2BEF
102
{ACAD_REACTORS
330
10E4
102
}
330
10E4
100
AcDbXrecord
280
     1
102
ACAD_ROUNDTRIP_PRE2007_TABLESTYLE
 90
      512
 91
        0
  1

 92
      512
 93
        0
  2

 94
      512
 95
        0
  3

  0
XRECORD
  5
2BCA
102
{ACAD_REACTORS
330
2BC9
102
}
330
2BC9
100
AcDbXrecord
280
     1
102
RTVSPropertyOp0
 70
     1
102
RTVSPropertyOp1
 70
     1
102
RTVSPropertyOp2
 70
     1
102
RTVSPropertyOp3
 70
     1
102
RTVSPropertyOp4
 70
     1
102
RTVSPropertyOp5
 70
     1
102
RTVSPropertyOp6
 70
     1
102
RTVSPropertyOp7
 70
     1
102
RTVSPropertyOp8
 70
     1
102
RTVSPropertyOp9
 70
     1
102
RTVSPropertyOp10
 70
     1
102
RTVSPropertyOp11
 70
     1
102
RTVSPropertyOp12
 70
     1
102
RTVSPropertyOp13
 70
     1
102
RTVSPropertyOp14
 70
     1
102
RTVSPropertyOp15
 70
     1
102
RTVSPropertyOp16
 70
     1
102
RTVSPropertyOp17
 70
     1
102
RTVSPropertyOp18
 70
     1
102
RTVSPropertyOp19
 70
     1
102
RTVSPropertyOp20
 70
     1
102
RTVSPropertyOp21
 70
     1
102
RTVSPropertyOp22
 70
     1
102
RTVSPropertyOp23
 70
     1
102
RTVSPropertyOp24
 70
     1
102
RTVSPropertyOp25
 70
     1
102
RTVSPropertyOp26
 70
     1
102
RTVSPropertyOp27
 70
     1
102
RTVSPropertyOp28
 70
     1
102
RTVSPropertyOp29
 70
     1
102
RTVSPropertyOp30
 70
     1
102
RTVSPropertyOp31
 70
     1
102
RTVSPropertyOp32
 70
     1
  0
XRECORD
  5
2BF1
102
{ACAD_REACTORS
330
2BF0
102
}
330
2BF0
100
AcDbXrecord
280
     1
102
RTVSPropertyOp0
 70
     1
102
RTVSPropertyOp1
 70
     1
102
RTVSPropertyOp2
 70
     1
102
RTVSPropertyOp3
 70
     1
102
RTVSPropertyOp4
 70
     1
102
RTVSPropertyOp5
 70
     1
102
RTVSPropertyOp6
 70
     1
102
RTVSPropertyOp7
 70
     1
102
RTVSPropertyOp8
 70
     1
102
RTVSPropertyOp9
 70
     1
102
RTVSPropertyOp10
 70
     1
102
RTVSPropertyOp11
 70
     1
102
RTVSPropertyOp12
 70
     1
102
RTVSPropertyOp13
 70
     1
102
RTVSPropertyOp14
 70
     1
102
RTVSPropertyOp15
 70
     1
102
RTVSPropertyOp16
 70
     1
102
RTVSPropertyOp17
 70
     1
102
RTVSPropertyOp18
 70
     1
102
RTVSPropertyOp19
 70
     1
102
RTVSPropertyOp20
 70
     1
102
RTVSPropertyOp21
 70
     1
102
RTVSPropertyOp22
 70
     1
102
RTVSPropertyOp23
 70
     1
102
RTVSPropertyOp24
 70
     1
102
RTVSPropertyOp25
 70
     1
102
RTVSPropertyOp26
 70
     1
102
RTVSPropertyOp27
 70
     1
102
RTVSPropertyOp28
 70
     1
102
RTVSPropertyOp29
 70
     1
102
RTVSPropertyOp30
 70
     1
102
RTVSPropertyOp31
 70
     1
102
RTVSPropertyOp32
 70
     1
  0
XRECORD
  5
2BF3
102
{ACAD_REACTORS
330
2BF2
102
}
330
2BF2
100
AcDbXrecord
280
     1
102
RTVSPropertyOp0
 70
     1
102
RTVSPropertyOp1
 70
     1
102
RTVSPropertyOp2
 70
     1
102
RTVSPropertyOp3
 70
     1
102
RTVSPropertyOp4
 70
     1
102
RTVSPropertyOp5
 70
     1
102
RTVSPropertyOp6
 70
     1
102
RTVSPropertyOp7
 70
     1
102
RTVSPropertyOp8
 70
     1
102
RTVSPropertyOp9
 70
     1
102
RTVSPropertyOp10
 70
     1
102
RTVSPropertyOp11
 70
     1
102
RTVSPropertyOp12
 70
     1
102
RTVSPropertyOp13
 70
     1
102
RTVSPropertyOp14
 70
     1
102
RTVSPropertyOp15
 70
     1
102
RTVSPropertyOp16
 70
     1
102
RTVSPropertyOp17
 70
     1
102
RTVSPropertyOp18
 70
     1
102
RTVSPropertyOp19
 70
     1
102
RTVSPropertyOp20
 70
     1
102
RTVSPropertyOp21
 70
     1
102
RTVSPropertyOp22
 70
     1
102
RTVSPropertyOp23
 70
     1
102
RTVSPropertyOp24
 70
     1
102
RTVSPropertyOp25
 70
     1
102
RTVSPropertyOp26
 70
     1
102
RTVSPropertyOp27
 70
     1
102
RTVSPropertyOp28
 70
     1
102
RTVSPropertyOp29
 70
     1
102
RTVSPropertyOp30
 70
     1
102
RTVSPropertyOp31
 70
     1
102
RTVSPropertyOp32
 70
     1
  0
XRECORD
  5
2BC8
102
{ACAD_REACTORS
330
2BC7
102
}
330
2BC7
100
AcDbXrecord
280
     1
102
RTVSPropertyOp0
 70
     1
102
RTVSPropertyOp1
 70
     1
102
RTVSPropertyOp2
 70
     1
102
RTVSPropertyOp3
 70
     1
102
RTVSPropertyOp4
 70
     1
102
RTVSPropertyOp5
 70
     1
102
RTVSPropertyOp6
 70
     1
102
RTVSPropertyOp7
 70
     1
102
RTVSPropertyOp8
 70
     1
102
RTVSPropertyOp9
 70
     1
102
RTVSPropertyOp10
 70
     1
102
RTVSPropertyOp11
 70
     1
102
RTVSPropertyOp12
 70
     1
102
RTVSPropertyOp13
 70
     1
102
RTVSPropertyOp14
 70
     1
102
RTVSPropertyOp15
 70
     1
102
RTVSPropertyOp16
 70
     1
102
RTVSPropertyOp17
 70
     1
102
RTVSPropertyOp18
 70
     1
102
RTVSPropertyOp19
 70
     1
102
RTVSPropertyOp20
 70
     1
102
RTVSPropertyOp21
 70
     1
102
RTVSPropertyOp22
 70
     1
102
RTVSPropertyOp23
 70
     1
102
RTVSPropertyOp24
 70
     1
102
RTVSPropertyOp25
 70
     1
102
RTVSPropertyOp26
 70
     1
102
RTVSPropertyOp27
 70
     1
102
RTVSPropertyOp28
 70
     1
102
RTVSPropertyOp29
 70
     1
102
RTVSPropertyOp30
 70
     1
102
RTVSPropertyOp31
 70
     1
102
RTVSPropertyOp32
 70
     1
  0
XRECORD
  5
2BD6
102
{ACAD_REACTORS
330
2BD5
102
}
330
2BD5
100
AcDbXrecord
280
     1
102
RTVSPropertyOp0
 70
     1
102
RTVSPropertyOp1
 70
     1
102
RTVSPropertyOp2
 70
     1
102
RTVSPropertyOp3
 70
     1
102
RTVSPropertyOp4
 70
     1
102
RTVSPropertyOp5
 70
     1
102
RTVSPropertyOp6
 70
     1
102
RTVSPropertyOp7
 70
     1
102
RTVSPropertyOp8
 70
     1
102
RTVSPropertyOp9
 70
     1
102
RTVSPropertyOp10
 70
     1
102
RTVSPropertyOp11
 70
     1
102
RTVSPropertyOp12
 70
     1
102
RTVSPropertyOp13
 70
     1
102
RTVSPropertyOp14
 70
     1
102
RTVSPropertyOp15
 70
     1
102
RTVSPropertyOp16
 70
     1
102
RTVSPropertyOp17
 70
     1
102
RTVSPropertyOp18
 70
     1
102
RTVSPropertyOp19
 70
     1
102
RTVSPropertyOp20
 70
     1
102
RTVSPropertyOp21
 70
     1
102
RTVSPropertyOp22
 70
     1
102
RTVSPropertyOp23
 70
     1
102
RTVSPropertyOp24
 70
     1
102
RTVSPropertyOp25
 70
     1
102
RTVSPropertyOp26
 70
     1
102
RTVSPropertyOp27
 70
     1
102
RTVSPropertyOp28
 70
     1
102
RTVSPropertyOp29
 70
     1
102
RTVSPropertyOp30
 70
     1
102
RTVSPropertyOp31
 70
     1
102
RTVSPropertyOp32
 70
     1
  0
XRECORD
  5
2BDE
102
{ACAD_REACTORS
330
2BDD
102
}
330
2BDD
100
AcDbXrecord
280
     1
102
RTVSPropertyOp0
 70
     1
102
RTVSPropertyOp1
 70
     1
102
RTVSPropertyOp2
 70
     1
102
RTVSPropertyOp3
 70
     1
102
RTVSPropertyOp4
 70
     1
102
RTVSPropertyOp5
 70
     1
102
RTVSPropertyOp6
 70
     1
102
RTVSPropertyOp7
 70
     1
102
RTVSPropertyOp8
 70
     1
102
RTVSPropertyOp9
 70
     1
102
RTVSPropertyOp10
 70
     1
102
RTVSPropertyOp11
 70
     1
102
RTVSPropertyOp12
 70
     1
102
RTVSPropertyOp13
 70
     1
102
RTVSPropertyOp14
 70
     1
102
RTVSPropertyOp15
 70
     1
102
RTVSPropertyOp16
 70
     1
102
RTVSPropertyOp17
 70
     1
102
RTVSPropertyOp18
 70
     1
102
RTVSPropertyOp19
 70
     1
102
RTVSPropertyOp20
 70
     1
102
RTVSPropertyOp21
 70
     1
102
RTVSPropertyOp22
 70
     1
102
RTVSPropertyOp23
 70
     1
102
RTVSPropertyOp24
 70
     1
102
RTVSPropertyOp25
 70
     1
102
RTVSPropertyOp26
 70
     1
102
RTVSPropertyOp27
 70
     1
102
RTVSPropertyOp28
 70
     1
102
RTVSPropertyOp29
 70
     1
102
RTVSPropertyOp30
 70
     1
102
RTVSPropertyOp31
 70
     1
102
RTVSPropertyOp32
 70
     1
  0
XRECORD
  5
2BD0
102
{ACAD_REACTORS
330
2BCF
102
}
330
2BCF
100
AcDbXrecord
280
     1
102
RTVSPropertyOp0
 70
     1
102
RTVSPropertyOp1
 70
     1
102
RTVSPropertyOp2
 70
     1
102
RTVSPropertyOp3
 70
     1
102
RTVSPropertyOp4
 70
     1
102
RTVSPropertyOp5
 70
     1
102
RTVSPropertyOp6
 70
     1
102
RTVSPropertyOp7
 70
     1
102
RTVSPropertyOp8
 70
     1
102
RTVSPropertyOp9
 70
     1
102
RTVSPropertyOp10
 70
     1
102
RTVSPropertyOp11
 70
     1
102
RTVSPropertyOp12
 70
     1
102
RTVSPropertyOp13
 70
     1
102
RTVSPropertyOp14
 70
     1
102
RTVSPropertyOp15
 70
     1
102
RTVSPropertyOp16
 70
     1
102
RTVSPropertyOp17
 70
     1
102
RTVSPropertyOp18
 70
     1
102
RTVSPropertyOp19
 70
     1
102
RTVSPropertyOp20
 70
     1
102
RTVSPropertyOp21
 70
     1
102
RTVSPropertyOp22
 70
     1
102
RTVSPropertyOp23
 70
     1
102
RTVSPropertyOp24
 70
     1
102
RTVSPropertyOp25
 70
     1
102
RTVSPropertyOp26
 70
     1
102
RTVSPropertyOp27
 70
     1
102
RTVSPropertyOp28
 70
     1
102
RTVSPropertyOp29
 70
     1
102
RTVSPropertyOp30
 70
     1
102
RTVSPropertyOp31
 70
     1
102
RTVSPropertyOp32
 70
     1
  0
XRECORD
  5
2BD4
102
{ACAD_REACTORS
330
2BD3
102
}
330
2BD3
100
AcDbXrecord
280
     1
102
RTVSPropertyOp0
 70
     1
102
RTVSPropertyOp1
 70
     1
102
RTVSPropertyOp2
 70
     1
102
RTVSPropertyOp3
 70
     1
102
RTVSPropertyOp4
 70
     1
102
RTVSPropertyOp5
 70
     1
102
RTVSPropertyOp6
 70
     1
102
RTVSPropertyOp7
 70
     1
102
RTVSPropertyOp8
 70
     1
102
RTVSPropertyOp9
 70
     1
102
RTVSPropertyOp10
 70
     1
102
RTVSPropertyOp11
 70
     1
102
RTVSPropertyOp12
 70
     1
102
RTVSPropertyOp13
 70
     1
102
RTVSPropertyOp14
 70
     1
102
RTVSPropertyOp15
 70
     1
102
RTVSPropertyOp16
 70
     1
102
RTVSPropertyOp17
 70
     1
102
RTVSPropertyOp18
 70
     1
102
RTVSPropertyOp19
 70
     1
102
RTVSPropertyOp20
 70
     1
102
RTVSPropertyOp21
 70
     1
102
RTVSPropertyOp22
 70
     1
102
RTVSPropertyOp23
 70
     1
102
RTVSPropertyOp24
 70
     1
102
RTVSPropertyOp25
 70
     1
102
RTVSPropertyOp26
 70
     1
102
RTVSPropertyOp27
 70
     1
102
RTVSPropertyOp28
 70
     1
102
RTVSPropertyOp29
 70
     1
102
RTVSPropertyOp30
 70
     1
102
RTVSPropertyOp31
 70
     1
102
RTVSPropertyOp32
 70
     1
  0
XRECORD
  5
2BEE
102
{ACAD_REACTORS
330
2BED
102
}
330
2BED
100
AcDbXrecord
280
     1
102
RTVSPropertyOp0
 70
     0
102
RTVSPropertyOp1
 70
     0
102
RTVSPropertyOp2
 70
     0
102
RTVSPropertyOp3
 70
     0
102
RTVSPropertyOp4
 70
     0
102
RTVSPropertyOp5
 70
     0
102
RTVSPropertyOp6
 70
     0
102
RTVSPropertyOp7
 70
     0
102
RTVSPropertyOp8
 70
     0
102
RTVSPropertyOp9
 70
     0
102
RTVSPropertyOp10
 70
     0
102
RTVSPropertyOp11
 70
     0
102
RTVSPropertyOp12
 70
     0
102
RTVSPropertyOp13
 70
     0
102
RTVSPropertyOp14
 70
     2
102
RTVSPropertyOp15
 70
     0
102
RTVSPropertyOp16
 70
     0
102
RTVSPropertyOp17
 70
     0
102
RTVSPropertyOp18
 70
     0
102
RTVSPropertyOp19
 70
     0
102
RTVSPropertyOp20
 70
     0
102
RTVSPropertyOp21
 70
     0
102
RTVSPropertyOp22
 70
     0
102
RTVSPropertyOp23
 70
     0
102
RTVSPropertyOp24
 70
     0
102
RTVSPropertyOp25
 70
     0
102
RTVSPropertyOp26
 70
     0
102
RTVSPropertyOp27
 70
     0
102
RTVSPropertyOp28
 70
     1
102
RTVSPropertyOp29
 70
     1
102
RTVSPropertyOp30
 70
     1
102
RTVSPropertyOp31
 70
     1
102
RTVSPropertyOp32
 70
     1
  0
XRECORD
  5
2BDC
102
{ACAD_REACTORS
330
2BDB
102
}
330
2BDB
100
AcDbXrecord
280
     1
102
RTVSPropertyOp0
 70
     1
102
RTVSPropertyOp1
 70
     1
102
RTVSPropertyOp2
 70
     1
102
RTVSPropertyOp3
 70
     1
102
RTVSPropertyOp4
 70
     1
102
RTVSPropertyOp5
 70
     1
102
RTVSPropertyOp6
 70
     1
102
RTVSPropertyOp7
 70
     1
102
RTVSPropertyOp8
 70
     1
102
RTVSPropertyOp9
 70
     1
102
RTVSPropertyOp10
 70
     1
102
RTVSPropertyOp11
 70
     1
102
RTVSPropertyOp12
 70
     1
102
RTVSPropertyOp13
 70
     1
102
RTVSPropertyOp14
 70
     1
102
RTVSPropertyOp15
 70
     1
102
RTVSPropertyOp16
 70
     1
102
RTVSPropertyOp17
 70
     1
102
RTVSPropertyOp18
 70
     1
102
RTVSPropertyOp19
 70
     1
102
RTVSPropertyOp20
 70
     1
102
RTVSPropertyOp21
 70
     1
102
RTVSPropertyOp22
 70
     1
102
RTVSPropertyOp23
 70
     1
102
RTVSPropertyOp24
 70
     1
102
RTVSPropertyOp25
 70
     1
102
RTVSPropertyOp26
 70
     1
102
RTVSPropertyOp27
 70
     1
102
RTVSPropertyOp28
 70
     1
102
RTVSPropertyOp29
 70
     1
102
RTVSPropertyOp30
 70
     1
102
RTVSPropertyOp31
 70
     1
102
RTVSPropertyOp32
 70
     1
  0
XRECORD
  5
2BC0
102
{ACAD_REACTORS
330
2BBF
102
}
330
2BBF
100
AcDbXrecord
280
     1
102
RTVSPropertyOp0
 70
     1
102
RTVSPropertyOp1
 70
     1
102
RTVSPropertyOp2
 70
     1
102
RTVSPropertyOp3
 70
     1
102
RTVSPropertyOp4
 70
     1
102
RTVSPropertyOp5
 70
     1
102
RTVSPropertyOp6
 70
     1
102
RTVSPropertyOp7
 70
     1
102
RTVSPropertyOp8
 70
     1
102
RTVSPropertyOp9
 70
     1
102
RTVSPropertyOp10
 70
     1
102
RTVSPropertyOp11
 70
     1
102
RTVSPropertyOp12
 70
     1
102
RTVSPropertyOp13
 70
     1
102
RTVSPropertyOp14
 70
     1
102
RTVSPropertyOp15
 70
     1
102
RTVSPropertyOp16
 70
     1
102
RTVSPropertyOp17
 70
     1
102
RTVSPropertyOp18
 70
     1
102
RTVSPropertyOp19
 70
     1
102
RTVSPropertyOp20
 70
     1
102
RTVSPropertyOp21
 70
     1
102
RTVSPropertyOp22
 70
     1
102
RTVSPropertyOp23
 70
     1
102
RTVSPropertyOp24
 70
     1
102
RTVSPropertyOp25
 70
     1
102
RTVSPropertyOp26
 70
     1
102
RTVSPropertyOp27
 70
     1
102
RTVSPropertyOp28
 70
     1
102
RTVSPropertyOp29
 70
     1
102
RTVSPropertyOp30
 70
     1
102
RTVSPropertyOp31
 70
     1
102
RTVSPropertyOp32
 70
     1
  0
XRECORD
  5
2BC2
102
{ACAD_REACTORS
330
2BC1
102
}
330
2BC1
100
AcDbXrecord
280
     1
102
RTVSPropertyOp0
 70
     1
102
RTVSPropertyOp1
 70
     1
102
RTVSPropertyOp2
 70
     1
102
RTVSPropertyOp3
 70
     1
102
RTVSPropertyOp4
 70
     1
102
RTVSPropertyOp5
 70
     1
102
RTVSPropertyOp6
 70
     1
102
RTVSPropertyOp7
 70
     1
102
RTVSPropertyOp8
 70
     1
102
RTVSPropertyOp9
 70
     1
102
RTVSPropertyOp10
 70
     1
102
RTVSPropertyOp11
 70
     1
102
RTVSPropertyOp12
 70
     1
102
RTVSPropertyOp13
 70
     1
102
RTVSPropertyOp14
 70
     1
102
RTVSPropertyOp15
 70
     1
102
RTVSPropertyOp16
 70
     1
102
RTVSPropertyOp17
 70
     1
102
RTVSPropertyOp18
 70
     1
102
RTVSPropertyOp19
 70
     1
102
RTVSPropertyOp20
 70
     1
102
RTVSPropertyOp21
 70
     1
102
RTVSPropertyOp22
 70
     1
102
RTVSPropertyOp23
 70
     1
102
RTVSPropertyOp24
 70
     1
102
RTVSPropertyOp25
 70
     1
102
RTVSPropertyOp26
 70
     1
102
RTVSPropertyOp27
 70
     1
102
RTVSPropertyOp28
 70
     1
102
RTVSPropertyOp29
 70
     1
102
RTVSPropertyOp30
 70
     1
102
RTVSPropertyOp31
 70
     1
102
RTVSPropertyOp32
 70
     1
  0
XRECORD
  5
2BC4
102
{ACAD_REACTORS
330
2BC3
102
}
330
2BC3
100
AcDbXrecord
280
     1
102
RTVSPropertyOp0
 70
     1
102
RTVSPropertyOp1
 70
     1
102
RTVSPropertyOp2
 70
     1
102
RTVSPropertyOp3
 70
     1
102
RTVSPropertyOp4
 70
     1
102
RTVSPropertyOp5
 70
     1
102
RTVSPropertyOp6
 70
     1
102
RTVSPropertyOp7
 70
     1
102
RTVSPropertyOp8
 70
     1
102
RTVSPropertyOp9
 70
     1
102
RTVSPropertyOp10
 70
     1
102
RTVSPropertyOp11
 70
     1
102
RTVSPropertyOp12
 70
     1
102
RTVSPropertyOp13
 70
     1
102
RTVSPropertyOp14
 70
     1
102
RTVSPropertyOp15
 70
     1
102
RTVSPropertyOp16
 70
     1
102
RTVSPropertyOp17
 70
     1
102
RTVSPropertyOp18
 70
     1
102
RTVSPropertyOp19
 70
     1
102
RTVSPropertyOp20
 70
     1
102
RTVSPropertyOp21
 70
     1
102
RTVSPropertyOp22
 70
     1
102
RTVSPropertyOp23
 70
     1
102
RTVSPropertyOp24
 70
     1
102
RTVSPropertyOp25
 70
     1
102
RTVSPropertyOp26
 70
     1
102
RTVSPropertyOp27
 70
     1
102
RTVSPropertyOp28
 70
     1
102
RTVSPropertyOp29
 70
     1
102
RTVSPropertyOp30
 70
     1
102
RTVSPropertyOp31
 70
     1
102
RTVSPropertyOp32
 70
     1
  0
XRECORD
  5
2BC6
102
{ACAD_REACTORS
330
2BC5
102
}
330
2BC5
100
AcDbXrecord
280
     1
102
RTVSPropertyOp0
 70
     1
102
RTVSPropertyOp1
 70
     1
102
RTVSPropertyOp2
 70
     1
102
RTVSPropertyOp3
 70
     1
102
RTVSPropertyOp4
 70
     1
102
RTVSPropertyOp5
 70
     1
102
RTVSPropertyOp6
 70
     1
102
RTVSPropertyOp7
 70
     1
102
RTVSPropertyOp8
 70
     1
102
RTVSPropertyOp9
 70
     1
102
RTVSPropertyOp10
 70
     1
102
RTVSPropertyOp11
 70
     1
102
RTVSPropertyOp12
 70
     1
102
RTVSPropertyOp13
 70
     1
102
RTVSPropertyOp14
 70
     1
102
RTVSPropertyOp15
 70
     1
102
RTVSPropertyOp16
 70
     1
102
RTVSPropertyOp17
 70
     1
102
RTVSPropertyOp18
 70
     1
102
RTVSPropertyOp19
 70
     1
102
RTVSPropertyOp20
 70
     1
102
RTVSPropertyOp21
 70
     1
102
RTVSPropertyOp22
 70
     1
102
RTVSPropertyOp23
 70
     1
102
RTVSPropertyOp24
 70
     1
102
RTVSPropertyOp25
 70
     1
102
RTVSPropertyOp26
 70
     1
102
RTVSPropertyOp27
 70
     1
102
RTVSPropertyOp28
 70
     1
102
RTVSPropertyOp29
 70
     1
102
RTVSPropertyOp30
 70
     1
102
RTVSPropertyOp31
 70
     1
102
RTVSPropertyOp32
 70
     1
  0
XRECORD
  5
2BCE
102
{ACAD_REACTORS
330
2BCD
102
}
330
2BCD
100
AcDbXrecord
280
     1
102
RTVSPropertyOp0
 70
     1
102
RTVSPropertyOp1
 70
     1
102
RTVSPropertyOp2
 70
     1
102
RTVSPropertyOp3
 70
     1
102
RTVSPropertyOp4
 70
     1
102
RTVSPropertyOp5
 70
     1
102
RTVSPropertyOp6
 70
     1
102
RTVSPropertyOp7
 70
     1
102
RTVSPropertyOp8
 70
     1
102
RTVSPropertyOp9
 70
     1
102
RTVSPropertyOp10
 70
     1
102
RTVSPropertyOp11
 70
     1
102
RTVSPropertyOp12
 70
     1
102
RTVSPropertyOp13
 70
     1
102
RTVSPropertyOp14
 70
     1
102
RTVSPropertyOp15
 70
     1
102
RTVSPropertyOp16
 70
     1
102
RTVSPropertyOp17
 70
     1
102
RTVSPropertyOp18
 70
     1
102
RTVSPropertyOp19
 70
     1
102
RTVSPropertyOp20
 70
     1
102
RTVSPropertyOp21
 70
     1
102
RTVSPropertyOp22
 70
     1
102
RTVSPropertyOp23
 70
     1
102
RTVSPropertyOp24
 70
     1
102
RTVSPropertyOp25
 70
     1
102
RTVSPropertyOp26
 70
     1
102
RTVSPropertyOp27
 70
     1
102
RTVSPropertyOp28
 70
     1
102
RTVSPropertyOp29
 70
     1
102
RTVSPropertyOp30
 70
     1
102
RTVSPropertyOp31
 70
     1
102
RTVSPropertyOp32
 70
     1
  0
XRECORD
  5
2BEA
102
{ACAD_REACTORS
330
2BE9
102
}
330
2BE9
100
AcDbXrecord
280
     1
102
RTVSPropertyOp0
 70
     0
102
RTVSPropertyOp1
 70
     0
102
RTVSPropertyOp2
 70
     0
102
RTVSPropertyOp3
 70
     0
102
RTVSPropertyOp4
 70
     0
102
RTVSPropertyOp5
 70
     0
102
RTVSPropertyOp6
 70
     0
102
RTVSPropertyOp7
 70
     0
102
RTVSPropertyOp8
 70
     0
102
RTVSPropertyOp9
 70
     0
102
RTVSPropertyOp10
 70
     0
102
RTVSPropertyOp11
 70
     0
102
RTVSPropertyOp12
 70
     0
102
RTVSPropertyOp13
 70
     0
102
RTVSPropertyOp14
 70
     2
102
RTVSPropertyOp15
 70
     0
102
RTVSPropertyOp16
 70
     0
102
RTVSPropertyOp17
 70
     0
102
RTVSPropertyOp18
 70
     0
102
RTVSPropertyOp19
 70
     0
102
RTVSPropertyOp20
 70
     0
102
RTVSPropertyOp21
 70
     0
102
RTVSPropertyOp22
 70
     0
102
RTVSPropertyOp23
 70
     0
102
RTVSPropertyOp24
 70
     0
102
RTVSPropertyOp25
 70
     0
102
RTVSPropertyOp26
 70
     0
102
RTVSPropertyOp27
 70
     0
102
RTVSPropertyOp28
 70
     1
102
RTVSPropertyOp29
 70
     1
102
RTVSPropertyOp30
 70
     1
102
RTVSPropertyOp31
 70
     1
102
RTVSPropertyOp32
 70
     1
  0
XRECORD
  5
2BDA
102
{ACAD_REACTORS
330
2BD9
102
}
330
2BD9
100
AcDbXrecord
280
     1
102
RTVSPropertyOp0
 70
     1
102
RTVSPropertyOp1
 70
     1
102
RTVSPropertyOp2
 70
     1
102
RTVSPropertyOp3
 70
     1
102
RTVSPropertyOp4
 70
     1
102
RTVSPropertyOp5
 70
     1
102
RTVSPropertyOp6
 70
     1
102
RTVSPropertyOp7
 70
     1
102
RTVSPropertyOp8
 70
     1
102
RTVSPropertyOp9
 70
     1
102
RTVSPropertyOp10
 70
     1
102
RTVSPropertyOp11
 70
     1
102
RTVSPropertyOp12
 70
     1
102
RTVSPropertyOp13
 70
     1
102
RTVSPropertyOp14
 70
     1
102
RTVSPropertyOp15
 70
     1
102
RTVSPropertyOp16
 70
     1
102
RTVSPropertyOp17
 70
     1
102
RTVSPropertyOp18
 70
     1
102
RTVSPropertyOp19
 70
     1
102
RTVSPropertyOp20
 70
     1
102
RTVSPropertyOp21
 70
     1
102
RTVSPropertyOp22
 70
     1
102
RTVSPropertyOp23
 70
     1
102
RTVSPropertyOp24
 70
     1
102
RTVSPropertyOp25
 70
     1
102
RTVSPropertyOp26
 70
     1
102
RTVSPropertyOp27
 70
     1
102
RTVSPropertyOp28
 70
     1
102
RTVSPropertyOp29
 70
     1
102
RTVSPropertyOp30
 70
     1
102
RTVSPropertyOp31
 70
     1
102
RTVSPropertyOp32
 70
     1
  0
XRECORD
  5
2BEC
102
{ACAD_REACTORS
330
2BEB
102
}
330
2BEB
100
AcDbXrecord
280
     1
102
RTVSPropertyOp0
 70
     0
102
RTVSPropertyOp1
 70
     0
102
RTVSPropertyOp2
 70
     0
102
RTVSPropertyOp3
 70
     0
102
RTVSPropertyOp4
 70
     0
102
RTVSPropertyOp5
 70
     0
102
RTVSPropertyOp6
 70
     0
102
RTVSPropertyOp7
 70
     0
102
RTVSPropertyOp8
 70
     0
102
RTVSPropertyOp9
 70
     0
102
RTVSPropertyOp10
 70
     0
102
RTVSPropertyOp11
 70
     0
102
RTVSPropertyOp12
 70
     0
102
RTVSPropertyOp13
 70
     0
102
RTVSPropertyOp14
 70
     2
102
RTVSPropertyOp15
 70
     0
102
RTVSPropertyOp16
 70
     0
102
RTVSPropertyOp17
 70
     0
102
RTVSPropertyOp18
 70
     0
102
RTVSPropertyOp19
 70
     0
102
RTVSPropertyOp20
 70
     0
102
RTVSPropertyOp21
 70
     0
102
RTVSPropertyOp22
 70
     0
102
RTVSPropertyOp23
 70
     0
102
RTVSPropertyOp24
 70
     0
102
RTVSPropertyOp25
 70
     0
102
RTVSPropertyOp26
 70
     0
102
RTVSPropertyOp27
 70
     0
102
RTVSPropertyOp28
 70
     1
102
RTVSPropertyOp29
 70
     1
102
RTVSPropertyOp30
 70
     1
102
RTVSPropertyOp31
 70
     1
102
RTVSPropertyOp32
 70
     1
  0
XRECORD
  5
2BD2
102
{ACAD_REACTORS
330
2BD1
102
}
330
2BD1
100
AcDbXrecord
280
     1
102
RTVSPropertyOp0
 70
     1
102
RTVSPropertyOp1
 70
     1
102
RTVSPropertyOp2
 70
     1
102
RTVSPropertyOp3
 70
     1
102
RTVSPropertyOp4
 70
     1
102
RTVSPropertyOp5
 70
     1
102
RTVSPropertyOp6
 70
     1
102
RTVSPropertyOp7
 70
     1
102
RTVSPropertyOp8
 70
     1
102
RTVSPropertyOp9
 70
     1
102
RTVSPropertyOp10
 70
     1
102
RTVSPropertyOp11
 70
     1
102
RTVSPropertyOp12
 70
     1
102
RTVSPropertyOp13
 70
     1
102
RTVSPropertyOp14
 70
     1
102
RTVSPropertyOp15
 70
     1
102
RTVSPropertyOp16
 70
     1
102
RTVSPropertyOp17
 70
     1
102
RTVSPropertyOp18
 70
     1
102
RTVSPropertyOp19
 70
     1
102
RTVSPropertyOp20
 70
     1
102
RTVSPropertyOp21
 70
     1
102
RTVSPropertyOp22
 70
     1
102
RTVSPropertyOp23
 70
     1
102
RTVSPropertyOp24
 70
     1
102
RTVSPropertyOp25
 70
     1
102
RTVSPropertyOp26
 70
     1
102
RTVSPropertyOp27
 70
     1
102
RTVSPropertyOp28
 70
     1
102
RTVSPropertyOp29
 70
     1
102
RTVSPropertyOp30
 70
     1
102
RTVSPropertyOp31
 70
     1
102
RTVSPropertyOp32
 70
     1
  0
XRECORD
  5
2BE8
102
{ACAD_REACTORS
330
2BE7
102
}
330
2BE7
100
AcDbXrecord
280
     1
102
RTVSPropertyOp0
 70
     1
102
RTVSPropertyOp1
 70
     1
102
RTVSPropertyOp2
 70
     1
102
RTVSPropertyOp3
 70
     1
102
RTVSPropertyOp4
 70
     1
102
RTVSPropertyOp5
 70
     1
102
RTVSPropertyOp6
 70
     1
102
RTVSPropertyOp7
 70
     1
102
RTVSPropertyOp8
 70
     1
102
RTVSPropertyOp9
 70
     1
102
RTVSPropertyOp10
 70
     1
102
RTVSPropertyOp11
 70
     1
102
RTVSPropertyOp12
 70
     1
102
RTVSPropertyOp13
 70
     1
102
RTVSPropertyOp14
 70
     1
102
RTVSPropertyOp15
 70
     1
102
RTVSPropertyOp16
 70
     1
102
RTVSPropertyOp17
 70
     1
102
RTVSPropertyOp18
 70
     1
102
RTVSPropertyOp19
 70
     1
102
RTVSPropertyOp20
 70
     1
102
RTVSPropertyOp21
 70
     1
102
RTVSPropertyOp22
 70
     1
102
RTVSPropertyOp23
 70
     1
102
RTVSPropertyOp24
 70
     1
102
RTVSPropertyOp25
 70
     1
102
RTVSPropertyOp26
 70
     1
102
RTVSPropertyOp27
 70
     1
102
RTVSPropertyOp28
 70
     1
102
RTVSPropertyOp29
 70
     1
102
RTVSPropertyOp30
 70
     1
102
RTVSPropertyOp31
 70
     1
102
RTVSPropertyOp32
 70
     1
  0
XRECORD
  5
2BE6
102
{ACAD_REACTORS
330
2BE5
102
}
330
2BE5
100
AcDbXrecord
280
     1
102
RTVSPropertyOp0
 70
     1
102
RTVSPropertyOp1
 70
     1
102
RTVSPropertyOp2
 70
     1
102
RTVSPropertyOp3
 70
     1
102
RTVSPropertyOp4
 70
     1
102
RTVSPropertyOp5
 70
     1
102
RTVSPropertyOp6
 70
     1
102
RTVSPropertyOp7
 70
     1
102
RTVSPropertyOp8
 70
     1
102
RTVSPropertyOp9
 70
     1
102
RTVSPropertyOp10
 70
     1
102
RTVSPropertyOp11
 70
     1
102
RTVSPropertyOp12
 70
     1
102
RTVSPropertyOp13
 70
     1
102
RTVSPropertyOp14
 70
     1
102
RTVSPropertyOp15
 70
     1
102
RTVSPropertyOp16
 70
     1
102
RTVSPropertyOp17
 70
     1
102
RTVSPropertyOp18
 70
     1
102
RTVSPropertyOp19
 70
     1
102
RTVSPropertyOp20
 70
     1
102
RTVSPropertyOp21
 70
     1
102
RTVSPropertyOp22
 70
     1
102
RTVSPropertyOp23
 70
     1
102
RTVSPropertyOp24
 70
     1
102
RTVSPropertyOp25
 70
     1
102
RTVSPropertyOp26
 70
     1
102
RTVSPropertyOp27
 70
     1
102
RTVSPropertyOp28
 70
     1
102
RTVSPropertyOp29
 70
     1
102
RTVSPropertyOp30
 70
     1
102
RTVSPropertyOp31
 70
     1
102
RTVSPropertyOp32
 70
     1
  0
XRECORD
  5
2BE0
102
{ACAD_REACTORS
330
2BDF
102
}
330
2BDF
100
AcDbXrecord
280
     1
102
RTVSPropertyOp0
 70
     1
102
RTVSPropertyOp1
 70
     1
102
RTVSPropertyOp2
 70
     1
102
RTVSPropertyOp3
 70
     1
102
RTVSPropertyOp4
 70
     1
102
RTVSPropertyOp5
 70
     1
102
RTVSPropertyOp6
 70
     1
102
RTVSPropertyOp7
 70
     1
102
RTVSPropertyOp8
 70
     1
102
RTVSPropertyOp9
 70
     1
102
RTVSPropertyOp10
 70
     1
102
RTVSPropertyOp11
 70
     1
102
RTVSPropertyOp12
 70
     1
102
RTVSPropertyOp13
 70
     1
102
RTVSPropertyOp14
 70
     1
102
RTVSPropertyOp15
 70
     1
102
RTVSPropertyOp16
 70
     1
102
RTVSPropertyOp17
 70
     1
102
RTVSPropertyOp18
 70
     1
102
RTVSPropertyOp19
 70
     1
102
RTVSPropertyOp20
 70
     1
102
RTVSPropertyOp21
 70
     1
102
RTVSPropertyOp22
 70
     1
102
RTVSPropertyOp23
 70
     1
102
RTVSPropertyOp24
 70
     1
102
RTVSPropertyOp25
 70
     1
102
RTVSPropertyOp26
 70
     1
102
RTVSPropertyOp27
 70
     1
102
RTVSPropertyOp28
 70
     1
102
RTVSPropertyOp29
 70
     1
102
RTVSPropertyOp30
 70
     1
102
RTVSPropertyOp31
 70
     1
102
RTVSPropertyOp32
 70
     1
  0
XRECORD
  5
2BE2
102
{ACAD_REACTORS
330
2BE1
102
}
330
2BE1
100
AcDbXrecord
280
     1
102
RTVSPropertyOp0
 70
     1
102
RTVSPropertyOp1
 70
     1
102
RTVSPropertyOp2
 70
     1
102
RTVSPropertyOp3
 70
     1
102
RTVSPropertyOp4
 70
     1
102
RTVSPropertyOp5
 70
     1
102
RTVSPropertyOp6
 70
     1
102
RTVSPropertyOp7
 70
     1
102
RTVSPropertyOp8
 70
     1
102
RTVSPropertyOp9
 70
     1
102
RTVSPropertyOp10
 70
     1
102
RTVSPropertyOp11
 70
     1
102
RTVSPropertyOp12
 70
     1
102
RTVSPropertyOp13
 70
     1
102
RTVSPropertyOp14
 70
     1
102
RTVSPropertyOp15
 70
     1
102
RTVSPropertyOp16
 70
     1
102
RTVSPropertyOp17
 70
     1
102
RTVSPropertyOp18
 70
     1
102
RTVSPropertyOp19
 70
     1
102
RTVSPropertyOp20
 70
     1
102
RTVSPropertyOp21
 70
     1
102
RTVSPropertyOp22
 70
     1
102
RTVSPropertyOp23
 70
     1
102
RTVSPropertyOp24
 70
     1
102
RTVSPropertyOp25
 70
     1
102
RTVSPropertyOp26
 70
     1
102
RTVSPropertyOp27
 70
     1
102
RTVSPropertyOp28
 70
     1
102
RTVSPropertyOp29
 70
     1
102
RTVSPropertyOp30
 70
     1
102
RTVSPropertyOp31
 70
     1
102
RTVSPropertyOp32
 70
     1
  0
XRECORD
  5
2BD8
102
{ACAD_REACTORS
330
2BD7
102
}
330
2BD7
100
AcDbXrecord
280
     1
102
RTVSPropertyOp0
 70
     1
102
RTVSPropertyOp1
 70
     1
102
RTVSPropertyOp2
 70
     1
102
RTVSPropertyOp3
 70
     1
102
RTVSPropertyOp4
 70
     1
102
RTVSPropertyOp5
 70
     1
102
RTVSPropertyOp6
 70
     1
102
RTVSPropertyOp7
 70
     1
102
RTVSPropertyOp8
 70
     1
102
RTVSPropertyOp9
 70
     1
102
RTVSPropertyOp10
 70
     1
102
RTVSPropertyOp11
 70
     1
102
RTVSPropertyOp12
 70
     1
102
RTVSPropertyOp13
 70
     1
102
RTVSPropertyOp14
 70
     1
102
RTVSPropertyOp15
 70
     1
102
RTVSPropertyOp16
 70
     1
102
RTVSPropertyOp17
 70
     1
102
RTVSPropertyOp18
 70
     1
102
RTVSPropertyOp19
 70
     1
102
RTVSPropertyOp20
 70
     1
102
RTVSPropertyOp21
 70
     1
102
RTVSPropertyOp22
 70
     1
102
RTVSPropertyOp23
 70
     1
102
RTVSPropertyOp24
 70
     1
102
RTVSPropertyOp25
 70
     1
102
RTVSPropertyOp26
 70
     1
102
RTVSPropertyOp27
 70
     1
102
RTVSPropertyOp28
 70
     1
102
RTVSPropertyOp29
 70
     1
102
RTVSPropertyOp30
 70
     1
102
RTVSPropertyOp31
 70
     1
102
RTVSPropertyOp32
 70
     1
  0
XRECORD
  5
2BCC
102
{ACAD_REACTORS
330
2BCB
102
}
330
2BCB
100
AcDbXrecord
280
     1
102
RTVSPropertyOp0
 70
     1
102
RTVSPropertyOp1
 70
     1
102
RTVSPropertyOp2
 70
     1
102
RTVSPropertyOp3
 70
     1
102
RTVSPropertyOp4
 70
     1
102
RTVSPropertyOp5
 70
     1
102
RTVSPropertyOp6
 70
     1
102
RTVSPropertyOp7
 70
     1
102
RTVSPropertyOp8
 70
     1
102
RTVSPropertyOp9
 70
     1
102
RTVSPropertyOp10
 70
     1
102
RTVSPropertyOp11
 70
     1
102
RTVSPropertyOp12
 70
     1
102
RTVSPropertyOp13
 70
     1
102
RTVSPropertyOp14
 70
     1
102
RTVSPropertyOp15
 70
     1
102
RTVSPropertyOp16
 70
     1
102
RTVSPropertyOp17
 70
     1
102
RTVSPropertyOp18
 70
     1
102
RTVSPropertyOp19
 70
     1
102
RTVSPropertyOp20
 70
     1
102
RTVSPropertyOp21
 70
     1
102
RTVSPropertyOp22
 70
     1
102
RTVSPropertyOp23
 70
     1
102
RTVSPropertyOp24
 70
     1
102
RTVSPropertyOp25
 70
     1
102
RTVSPropertyOp26
 70
     1
102
RTVSPropertyOp27
 70
     1
102
RTVSPropertyOp28
 70
     1
102
RTVSPropertyOp29
 70
     1
102
RTVSPropertyOp30
 70
     1
102
RTVSPropertyOp31
 70
     1
102
RTVSPropertyOp32
 70
     1
  0
XRECORD
  5
2BE4
102
{ACAD_REACTORS
330
2BE3
102
}
330
2BE3
100
AcDbXrecord
280
     1
102
RTVSPropertyOp0
 70
     1
102
RTVSPropertyOp1
 70
     1
102
RTVSPropertyOp2
 70
     1
102
RTVSPropertyOp3
 70
     1
102
RTVSPropertyOp4
 70
     1
102
RTVSPropertyOp5
 70
     1
102
RTVSPropertyOp6
 70
     1
102
RTVSPropertyOp7
 70
     1
102
RTVSPropertyOp8
 70
     1
102
RTVSPropertyOp9
 70
     1
102
RTVSPropertyOp10
 70
     1
102
RTVSPropertyOp11
 70
     1
102
RTVSPropertyOp12
 70
     1
102
RTVSPropertyOp13
 70
     1
102
RTVSPropertyOp14
 70
     1
102
RTVSPropertyOp15
 70
     1
102
RTVSPropertyOp16
 70
     1
102
RTVSPropertyOp17
 70
     1
102
RTVSPropertyOp18
 70
     1
102
RTVSPropertyOp19
 70
     1
102
RTVSPropertyOp20
 70
     1
102
RTVSPropertyOp21
 70
     1
102
RTVSPropertyOp22
 70
     1
102
RTVSPropertyOp23
 70
     1
102
RTVSPropertyOp24
 70
     1
102
RTVSPropertyOp25
 70
     1
102
RTVSPropertyOp26
 70
     1
102
RTVSPropertyOp27
 70
     1
102
RTVSPropertyOp28
 70
     1
102
RTVSPropertyOp29
 70
     1
102
RTVSPropertyOp30
 70
     1
102
RTVSPropertyOp31
 70
     1
102
RTVSPropertyOp32
 70
     1
  0
ENDSEC
  0
EOF
