  0
SECTION
  2
HEADER
  9
$ACADVER
  1
AC1015
  9
$ACADMAINTVER
 70
    20
  9
$DWGCODEPAGE
  3
ANSI_1252
  9
$INSBASE
 10
9.464814862643089
 20
4.206281095300671
 30
0.0
  9
$EXTMIN
 10
-9.822498266376307
 20
-6.020862690213913
 30
0.0
  9
$EXTMAX
 10
39.87180980926172
 20
25.69048118937661
 30
0.0
  9
$LIMMIN
 10
0.0
 20
0.0
  9
$LIMMAX
 10
15.8
 20
9.8
  9
$ORTHOMODE
 70
     0
  9
$REGENMODE
 70
     1
  9
$FILLMODE
 70
     1
  9
$QTEXTMODE
 70
     0
  9
$MIRRTEXT
 70
     1
  9
$LTSCALE
 40
1.0
  9
$ATTMODE
 70
     1
  9
$TEXTSIZE
 40
0.1875
  9
$TRACEWID
 40
0.05
  9
$TEXTSTYLE
  7
STANDARD
  9
$CLAYER
  8
0
  9
$CELTYPE
  6
BYLAYER
  9
$CECOLOR
 62
   256
  9
$CELTSCALE
 40
1.0
  9
$DISPSILH
 70
     0
  9
$DIMSCALE
 40
0.0
  9
$DIMASZ
 40
0.125
  9
$DIMEXO
 40
0.25
  9
$DIMDLI
 40
0.3828125
  9
$DIMRND
 40
0.0
  9
$DIMDLE
 40
0.0
  9
$DIMEXE
 40
0.125
  9
$DIMTP
 40
0.0
  9
$DIMTM
 40
0.0
  9
$DIMTXT
 40
0.1875
  9
$DIMCEN
 40
0.09375
  9
$DIMTSZ
 40
0.0
  9
$DIMTOL
 70
     0
  9
$DIMLIM
 70
     0
  9
$DIMTIH
 70
     0
  9
$DIMTOH
 70
     0
  9
$DIMSE1
 70
     0
  9
$DIMSE2
 70
     0
  9
$DIMTAD
 70
     1
  9
$DIMZIN
 70
     0
  9
$DIMBLK
  1

  9
$DIMASO
 70
     0
  9
$DIMSHO
 70
     1
  9
$DIMPOST
  1

  9
$DIMAPOST
  1

  9
$DIMALT
 70
     0
  9
$DIMALTD
 70
     2
  9
$DIMALTF
 40
25.4
  9
$DIMLFAC
 40
1.0
  9
$DIMTOFL
 70
     0
  9
$DIMTVP
 40
1.0
  9
$DIMTIX
 70
     0
  9
$DIMSOXD
 70
     0
  9
$DIMSAH
 70
     0
  9
$DIMBLK1
  1

  9
$DIMBLK2
  1

  9
$DIMSTYLE
  2
STANDARD
  9
$DIMCLRD
 70
     0
  9
$DIMCLRE
 70
     0
  9
$DIMCLRT
 70
     0
  9
$DIMTFAC
 40
1.0
  9
$DIMGAP
 40
0.09
  9
$DIMJUST
 70
     0
  9
$DIMSD1
 70
     0
  9
$DIMSD2
 70
     0
  9
$DIMTOLJ
 70
     1
  9
$DIMTZIN
 70
     0
  9
$DIMALTZ
 70
     0
  9
$DIMALTTZ
 70
     0
  9
$DIMUPT
 70
     0
  9
$DIMDEC
 70
     5
  9
$DIMTDEC
 70
     5
  9
$DIMALTU
 70
     4
  9
$DIMALTTD
 70
     2
  9
$DIMTXSTY
  7
STANDARD
  9
$DIMAUNIT
 70
     0
  9
$DIMADEC
 70
     0
  9
$DIMALTRND
 40
0.0
  9
$DIMAZIN
 70
     0
  9
$DIMDSEP
 70
    46
  9
$DIMATFIT
 70
     3
  9
$DIMFRAC
 70
     0
  9
$DIMLDRBLK
  1

  9
$DIMLUNIT
 70
     4
  9
$DIMLWD
 70
    -2
  9
$DIMLWE
 70
    -2
  9
$DIMTMOVE
 70
     2
  9
$LUNITS
 70
     2
  9
$LUPREC
 70
     5
  9
$SKETCHINC
 40
0.1
  9
$FILLETRAD
 40
0.0
  9
$AUNITS
 70
     1
  9
$AUPREC
 70
     4
  9
$MENU
  1
acad
  9
$ELEVATION
 40
0.0
  9
$PELEVATION
 40
0.0
  9
$THICKNESS
 40
0.0
  9
$LIMCHECK
 70
     0
  9
$CHAMFERA
 40
0.0
  9
$CHAMFERB
 40
0.0
  9
$CHAMFERC
 40
0.0
  9
$CHAMFERD
 40
0.0
  9
$SKPOLY
 70
     0
  9
$TDCREATE
 40
2450140.523167593
  9
$TDUCREATE
 40
2450140.731500926
  9
$TDUPDATE
 40
2457809.479790209
  9
$TDUUPDATE
 40
2457809.688123542
  9
$TDINDWG
 40
0.1513267940
  9
$TDUSRTIMER
 40
0.1513267940
  9
$USRTIMER
 70
     1
  9
$ANGBASE
 50
0.0
  9
$ANGDIR
 70
     0
  9
$PDMODE
 70
    34
  9
$PDSIZE
 40
0.3
  9
$PLINEWID
 40
0.0
  9
$SPLFRAME
 70
     0
  9
$SPLINETYPE
 70
     6
  9
$SPLINESEGS
 70
     8
  9
$HANDSEED
  5
22F9
  9
$SURFTAB1
 70
     6
  9
$SURFTAB2
 70
     6
  9
$SURFTYPE
 70
     6
  9
$SURFU
 70
     6
  9
$SURFV
 70
     6
  9
$UCSBASE
  2

  9
$UCSNAME
  2

  9
$UCSORG
 10
-9.822498266376307
 20
-6.020862690213913
 30
0.0
  9
$UCSXDIR
 10
1.0
 20
0.0
 30
0.0
  9
$UCSYDIR
 10
0.0
 20
1.0
 30
0.0
  9
$UCSORTHOREF
  2

  9
$UCSORTHOVIEW
 70
     0
  9
$UCSORGTOP
 10
0.0
 20
0.0
 30
0.0
  9
$UCSORGBOTTOM
 10
0.0
 20
0.0
 30
0.0
  9
$UCSORGLEFT
 10
0.0
 20
0.0
 30
0.0
  9
$UCSORGRIGHT
 10
0.0
 20
0.0
 30
0.0
  9
$UCSORGFRONT
 10
0.0
 20
0.0
 30
0.0
  9
$UCSORGBACK
 10
0.0
 20
0.0
 30
0.0
  9
$PUCSBASE
  2

  9
$PUCSNAME
  2

  9
$PUCSORG
 10
0.0
 20
0.0
 30
0.0
  9
$PUCSXDIR
 10
1.0
 20
0.0
 30
0.0
  9
$PUCSYDIR
 10
0.0
 20
1.0
 30
0.0
  9
$PUCSORTHOREF
  2

  9
$PUCSORTHOVIEW
 70
     0
  9
$PUCSORGTOP
 10
0.0
 20
0.0
 30
0.0
  9
$PUCSORGBOTTOM
 10
0.0
 20
0.0
 30
0.0
  9
$PUCSORGLEFT
 10
0.0
 20
0.0
 30
0.0
  9
$PUCSORGRIGHT
 10
0.0
 20
0.0
 30
0.0
  9
$PUCSORGFRONT
 10
0.0
 20
0.0
 30
0.0
  9
$PUCSORGBACK
 10
0.0
 20
0.0
 30
0.0
  9
$USERI1
 70
     0
  9
$USERI2
 70
     0
  9
$USERI3
 70
     0
  9
$USERI4
 70
     0
  9
$USERI5
 70
     0
  9
$USERR1
 40
0.0
  9
$USERR2
 40
0.0
  9
$USERR3
 40
0.0
  9
$USERR4
 40
0.0
  9
$USERR5
 40
0.0
  9
$WORLDVIEW
 70
     1
  9
$SHADEDGE
 70
     3
  9
$SHADEDIF
 70
    70
  9
$TILEMODE
 70
     1
  9
$MAXACTVP
 70
    16
  9
$PINSBASE
 10
0.0
 20
0.0
 30
0.0
  9
$PLIMCHECK
 70
     0
  9
$PEXTMIN
 10
1.000000000000000E+20
 20
1.000000000000000E+20
 30
1.000000000000000E+20
  9
$PEXTMAX
 10
-1.000000000000000E+20
 20
-1.000000000000000E+20
 30
-1.000000000000000E+20
  9
$PLIMMIN
 10
0.0
 20
0.0
  9
$PLIMMAX
 10
12.0
 20
9.0
  9
$UNITMODE
 70
     0
  9
$VISRETAIN
 70
     0
  9
$PLINEGEN
 70
     0
  9
$PSLTSCALE
 70
     1
  9
$TREEDEPTH
 70
  3020
  9
$CMLSTYLE
  2
STANDARD
  9
$CMLJUST
 70
     0
  9
$CMLSCALE
 40
1.0
  9
$PROXYGRAPHICS
 70
     1
  9
$MEASUREMENT
 70
     0
  9
$CELWEIGHT
370
    -1
  9
$ENDCAPS
280
     0
  9
$JOINSTYLE
280
     0
  9
$LWDISPLAY
290
     0
  9
$INSUNITS
 70
     0
  9
$HYPERLINKBASE
  1

  9
$STYLESHEET
  1

  9
$XEDIT
290
     1
  9
$CEPSNTYPE
380
     0
  9
$PSTYLEMODE
290
     1
  9
$FINGERPRINTGUID
  2
{B9A079D0-CE13-11D5-B0F0-00B0D0DA680F}
  9
$VERSIONGUID
  2
{B0FA6482-6DFF-4189-AC7F-86986C63E7C8}
  9
$EXTNAMES
290
     1
  9
$PSVPSCALE
 40
0.0
  9
$OLESTARTUP
290
     0
  0
ENDSEC
  0
SECTION
  2
CLASSES
  0
CLASS
  1
DICTIONARYVAR
  2
AcDbDictionaryVar
  3
ObjectDBX Classes
 90
        0
280
     0
281
     0
  0
CLASS
  1
ACDBDICTIONARYWDFLT
  2
AcDbDictionaryWithDefault
  3
ObjectDBX Classes
 90
        0
280
     0
281
     0
  0
CLASS
  1
ACDBPLACEHOLDER
  2
AcDbPlaceHolder
  3
ObjectDBX Classes
 90
        0
280
     0
281
     0
  0
CLASS
  1
LAYOUT
  2
AcDbLayout
  3
ObjectDBX Classes
 90
        0
280
     0
281
     0
  0
CLASS
  1
MATERIAL
  2
AcDbMaterial
  3
ObjectDBX Classes
 90
     1153
280
     0
281
     0
  0
CLASS
  1
VISUALSTYLE
  2
AcDbVisualStyle
  3
ObjectDBX Classes
 90
     4095
280
     0
281
     0
  0
CLASS
  1
TABLESTYLE
  2
AcDbTableStyle
  3
ObjectDBX Classes
 90
     4095
280
     0
281
     0
  0
CLASS
  1
SCALE
  2
AcDbScale
  3
ObjectDBX Classes
 90
     1153
280
     0
281
     0
  0
CLASS
  1
MLEADERSTYLE
  2
AcDbMLeaderStyle
  3
ACDB_MLEADERSTYLE_CLASS
 90
     4095
280
     0
281
     0
  0
CLASS
  1
SORTENTSTABLE
  2
AcDbSortentsTable
  3
ObjectDBX Classes
 90
        0
280
     0
281
     0
  0
CLASS
  1
CELLSTYLEMAP
  2
AcDbCellStyleMap
  3
ObjectDBX Classes
 90
     1152
280
     0
281
     0
  0
CLASS
  1
EXACXREFPANELOBJECT
  2
ExAcXREFPanelObject
  3
EXAC_ESW
 90
     1025
280
     0
281
     0
  0
CLASS
  1
NPOCOLLECTION
  2
AcDbImpNonPersistentObjectsCollection
  3
ObjectDBX Classes
 90
     1153
280
     0
281
     0
  0
CLASS
  1
FIELD
  2
AcDbField
  3
ObjectDBX Classes
 90
    33920
280
     0
281
     0
  0
CLASS
  1
FIELDLIST
  2
AcDbFieldList
  3
ObjectDBX Classes
 90
     1152
280
     0
281
     0
  0
ENDSEC
  0
SECTION
  2
TABLES
  0
TABLE
  2
VPORT
  5
8
102
{ACAD_XDICTIONARY
360
10E8
102
}
330
0
100
AcDbSymbolTable
 70
     1
  0
VPORT
  5
1033
330
8
100
AcDbSymbolTableRecord
100
AcDbViewportTableRecord
  2
*Active
 70
     0
 10
0.0
 20
0.0
 11
1.0
 21
1.0
 12
52.00047964454799
 22
13.04191696268007
 13
0.0
 23
0.0
 14
1.0
 24
1.0
 15
0.0
 25
0.0
 16
0.0
 26
0.0
 36
1.0
 17
0.0
 27
0.0
 37
0.0
 40
38.34688105940902
 41
3.716019417475728
 42
50.0
 43
0.0
 44
0.0
 50
0.0
 51
0.0
 71
     0
 72
   100
 73
     1
 74
     0
 75
     0
 76
     0
 77
     0
 78
     0
281
     0
 65
     1
110
-9.822498266376307
120
-6.020862690213913
130
0.0
111
1.0
121
0.0
131
0.0
112
0.0
122
1.0
132
0.0
 79
     0
146
0.0
1001
ACAD_NAV_VCDISPLAY
1070
     3
  0
ENDTAB
  0
TABLE
  2
LTYPE
  5
5
330
0
100
AcDbSymbolTable
 70
     4
  0
LTYPE
  5
11
330
5
100
AcDbSymbolTableRecord
100
AcDbLinetypeTableRecord
  2
BYBLOCK
 70
     0
  3

 72
    65
 73
     0
 40
0.0
  0
LTYPE
  5
12
330
5
100
AcDbSymbolTableRecord
100
AcDbLinetypeTableRecord
  2
BYLAYER
 70
     0
  3

 72
    65
 73
     0
 40
0.0
  0
LTYPE
  5
13
330
5
100
AcDbSymbolTableRecord
100
AcDbLinetypeTableRecord
  2
CONTINUOUS
 70
     0
  3
Solid line
 72
    65
 73
     0
 40
0.0
  0
LTYPE
  5
FA3
330
5
100
AcDbSymbolTableRecord
100
AcDbLinetypeTableRecord
  2
HIDDEN
 70
     0
  3
Hidden __ __ __ __ __ __ __ __ __ __ __ __ __ _
 72
    65
 73
     2
 40
0.375
 49
0.25
 74
     0
 49
-0.125
 74
     0
  0
LTYPE
  5
223E
330
5
100
AcDbSymbolTableRecord
100
AcDbLinetypeTableRecord
  2
DASHED
 70
     0
  3
Dashed __ __ __ __ __ __ __ __ __ __ __ __ __ _
 72
    65
 73
     2
 40
0.75
 49
0.5
 74
     0
 49
-0.25
 74
     0
  0
LTYPE
  5
223F
330
5
100
AcDbSymbolTableRecord
100
AcDbLinetypeTableRecord
  2
DOT
 70
     0
  3
Dot . . . . . . . . . . . . . . . . . . . . . .
 72
    65
 73
     2
 40
0.25
 49
0.0
 74
     0
 49
-0.25
 74
     0
  0
ENDTAB
  0
TABLE
  2
LAYER
  5
2
102
{ACAD_XDICTIONARY
360
10C4
102
}
330
0
100
AcDbSymbolTable
 70
     6
  0
LAYER
  5
E
102
{ACAD_XDICTIONARY
360
10DF
102
}
330
2
100
AcDbSymbolTableRecord
100
AcDbLayerTableRecord
  2
0
 70
     0
 62
     4
  6
CONTINUOUS
370
    -3
390
102C
  0
LAYER
  5
1E
102
{ACAD_XDICTIONARY
360
10E1
102
}
330
2
100
AcDbSymbolTableRecord
100
AcDbLayerTableRecord
  2
KCADSLABEL
 70
     0
 62
     3
  6
CONTINUOUS
370
    -3
390
102C
  0
LAYER
  5
1141
102
{ACAD_XDICTIONARY
360
1142
102
}
330
2
100
AcDbSymbolTableRecord
100
AcDbLayerTableRecord
  2
TEXT
 70
     0
 62
     3
  6
CONTINUOUS
370
    -3
390
102C
  0
LAYER
  5
125B
102
{ACAD_XDICTIONARY
360
125C
102
}
330
2
100
AcDbSymbolTableRecord
100
AcDbLayerTableRecord
  2
KCADSMISC
 70
     0
 62
     1
  6
CONTINUOUS
370
    -3
390
102C
  0
LAYER
  5
1EA3
330
2
100
AcDbSymbolTableRecord
100
AcDbLayerTableRecord
  2
KCADSMICS
 70
     0
 62
     1
  6
CONTINUOUS
370
    -3
390
102C
  0
LAYER
  5
2240
330
2
100
AcDbSymbolTableRecord
100
AcDbLayerTableRecord
  2
Kawneer Logo-English
 70
     0
 62
     7
  6
CONTINUOUS
370
    -3
390
102C
1001
AcAecLayerStandard
1000

1000

1001
AcCmTransparency
1071
        0
  0
ENDTAB
  0
TABLE
  2
STYLE
  5
3
330
0
100
AcDbSymbolTable
 70
     1
  0
STYLE
  5
F
330
3
100
AcDbSymbolTableRecord
100
AcDbTextStyleTableRecord
  2
STANDARD
 70
     0
 40
0.125
 41
1.0
 50
0.0
 71
     0
 42
0.1875
  3
arial.ttf
  4

1001
ACAD
1000
Arial
1071
       34
  0
ENDTAB
  0
TABLE
  2
VIEW
  5
6
330
0
100
AcDbSymbolTable
 70
     0
  0
ENDTAB
  0
TABLE
  2
UCS
  5
7
330
0
100
AcDbSymbolTable
 70
     0
  0
ENDTAB
  0
TABLE
  2
APPID
  5
9
330
0
100
AcDbSymbolTable
 70
    15
  0
APPID
  5
10
330
9
100
AcDbSymbolTableRecord
100
AcDbRegAppTableRecord
  2
ACAD
 70
     0
  0
APPID
  5
1145
330
9
100
AcDbSymbolTableRecord
100
AcDbRegAppTableRecord
  2
ACAD_NAV_VCDISPLAY
 70
     0
  0
APPID
  5
2241
330
9
100
AcDbSymbolTableRecord
100
AcDbRegAppTableRecord
  2
ACAD_EXEMPT_FROM_CAD_STANDARDS
 70
     0
  0
APPID
  5
2242
330
9
100
AcDbSymbolTableRecord
100
AcDbRegAppTableRecord
  2
GradientColor1ACI
 70
     0
  0
APPID
  5
2243
330
9
100
AcDbSymbolTableRecord
100
AcDbRegAppTableRecord
  2
GradientColor2ACI
 70
     0
  0
APPID
  5
2244
330
9
100
AcDbSymbolTableRecord
100
AcDbRegAppTableRecord
  2
ACAD_MLEADERVER
 70
     0
  0
APPID
  5
2245
330
9
100
AcDbSymbolTableRecord
100
AcDbRegAppTableRecord
  2
ACAD_PSEXT
 70
     0
  0
APPID
  5
2246
330
9
100
AcDbSymbolTableRecord
100
AcDbRegAppTableRecord
  2
ACAD_DSTYLE_DIMJAG
 70
     0
  0
APPID
  5
2247
330
9
100
AcDbSymbolTableRecord
100
AcDbRegAppTableRecord
  2
ACAD_DSTYLE_DIMTALN
 70
     0
  0
APPID
  5
2248
330
9
100
AcDbSymbolTableRecord
100
AcDbRegAppTableRecord
  2
ACAD_DSTYLE_DIMBREAK
 70
     0
  0
APPID
  5
2249
330
9
100
AcDbSymbolTableRecord
100
AcDbRegAppTableRecord
  2
AcDbDynamicBlockGUID
 70
     0
  0
APPID
  5
224A
330
9
100
AcDbSymbolTableRecord
100
AcDbRegAppTableRecord
  2
ACAUTHENVIRON
 70
     0
  0
APPID
  5
224B
330
9
100
AcDbSymbolTableRecord
100
AcDbRegAppTableRecord
  2
AcDbDynamicBlockTrueName
 70
     0
  0
APPID
  5
224C
330
9
100
AcDbSymbolTableRecord
100
AcDbRegAppTableRecord
  2
AcAecLayerStandard
 70
     0
  0
APPID
  5
224D
330
9
100
AcDbSymbolTableRecord
100
AcDbRegAppTableRecord
  2
AcCmTransparency
 70
     0
  0
ENDTAB
  0
TABLE
  2
DIMSTYLE
  5
A
330
0
100
AcDbSymbolTable
 70
     1
100
AcDbDimStyleTable
 71
     1
340
138
  0
DIMSTYLE
105
138
330
A
100
AcDbSymbolTableRecord
100
AcDbDimStyleTableRecord
  2
STANDARD
 70
     0
340
F
  0
ENDTAB
  0
TABLE
  2
BLOCK_RECORD
  5
1
330
0
100
AcDbSymbolTable
 70
     3
  0
BLOCK_RECORD
  5
17
102
{ACAD_XDICTIONARY
360
1059
102
}
330
1
100
AcDbSymbolTableRecord
100
AcDbBlockTableRecord
  2
*MODEL_SPACE
340
102F
  0
BLOCK_RECORD
  5
14
102
{ACAD_XDICTIONARY
360
1057
102
}
330
1
100
AcDbSymbolTableRecord
100
AcDbBlockTableRecord
  2
*PAPER_SPACE
340
1030
  0
BLOCK_RECORD
  5
1240
330
1
100
AcDbSymbolTableRecord
100
AcDbBlockTableRecord
  2
*X0
340
0
102
{BLKREFS
331
12A7
102
}
  0
BLOCK_RECORD
  5
142D
330
1
100
AcDbSymbolTableRecord
100
AcDbBlockTableRecord
  2
*X1
340
0
102
{BLKREFS
331
14C0
331
14C6
102
}
  0
BLOCK_RECORD
  5
2250
102
{ACAD_XDICTIONARY
360
225A
102
}
330
1
100
AcDbSymbolTableRecord
100
AcDbBlockTableRecord
  2
Kawneer Logo English
340
0
102
{BLKREFS
331
225E
102
}
1001
ACAD
1000
DesignCenter Data
1002
{
1070
     1
1070
     1
1002
}
  0
ENDTAB
  0
ENDSEC
  0
SECTION
  2
BLOCKS
  0
BLOCK
  5
22
330
17
100
AcDbEntity
  8
0
100
AcDbBlockBegin
  2
*MODEL_SPACE
 70
     0
 10
0.0
 20
0.0
 30
0.0
  3
*MODEL_SPACE
  1

  0
ENDBLK
  5
23
330
17
100
AcDbEntity
  8
0
100
AcDbBlockEnd
  0
BLOCK
  5
20
330
14
100
AcDbEntity
 67
     1
  8
0
100
AcDbBlockBegin
  2
*PAPER_SPACE
 70
     0
 10
0.0
 20
0.0
 30
0.0
  3
*PAPER_SPACE
  1

  0
ENDBLK
  5
21
330
14
100
AcDbEntity
 67
     1
  8
0
100
AcDbBlockEnd
  0
BLOCK
  5
1241
330
1240
100
AcDbEntity
  8
0
100
AcDbBlockBegin
  2
*X0
 70
     1
 10
0.0
 20
0.0
 30
0.0
  3
*X0
  1

  0
LINE
  5
1242
330
1240
100
AcDbEntity
  8
0
 62
     0
100
AcDbLine
 10
2.132999999999999
 20
2.132999999999999
 30
0.0
 11
2.168899999999999
 21
2.168899999999999
 31
0.0
  0
LINE
  5
1243
330
1240
100
AcDbEntity
  8
0
 62
     0
100
AcDbLine
 10
2.132999999999999
 20
2.398165042944954
 30
0.0
 11
2.168899999999999
 21
2.434065042944955
 31
0.0
  0
LINE
  5
1244
330
1240
100
AcDbEntity
  8
0
 62
     0
100
AcDbLine
 10
2.132999999999999
 20
2.663330085889909
 30
0.0
 11
2.168899999999999
 21
2.69923008588991
 31
0.0
  0
LINE
  5
1245
330
1240
100
AcDbEntity
  8
0
 62
     0
100
AcDbLine
 10
2.132999999999998
 20
2.928495128834864
 30
0.0
 11
2.168899999999999
 21
2.964395128834865
 31
0.0
  0
LINE
  5
1246
330
1240
100
AcDbEntity
  8
0
 62
     0
100
AcDbLine
 10
2.132999999999998
 20
3.19366017177982
 30
0.0
 11
2.168899999999999
 21
3.22956017177982
 31
0.0
  0
LINE
  5
1247
330
1240
100
AcDbEntity
  8
0
 62
     0
100
AcDbLine
 10
3.138403850866441
 20
4.199064022646262
 30
0.0
 11
3.247685883169215
 21
4.308346054949036
 31
0.0
  0
LINE
  5
1248
330
1240
100
AcDbEntity
  8
0
 62
     0
100
AcDbLine
 10
2.132999999999998
 20
3.458825214724775
 30
0.0
 11
2.168899999999998
 21
3.494725214724775
 31
0.0
  0
LINE
  5
1249
330
1240
100
AcDbEntity
  8
0
 62
     0
100
AcDbLine
 10
2.511016623063086
 20
3.836841837787862
 30
0.0
 11
2.620298655365857
 21
3.946123870090633
 31
0.0
  0
LINE
  5
124A
330
1240
100
AcDbEntity
  8
0
 62
     0
100
AcDbLine
 10
2.132999999999999
 20
1.867834957055044
 30
0.0
 11
2.1689
 21
1.903734957055044
 31
0.0
  0
LINE
  5
124B
330
1240
100
AcDbEntity
  8
0
 62
     0
100
AcDbLine
 10
2.132999999999999
 20
1.602669914110089
 30
0.0
 11
2.1689
 21
1.638569914110089
 31
0.0
  0
LINE
  5
124C
330
1240
100
AcDbEntity
  8
0
 62
     0
100
AcDbLine
 10
2.133
 20
1.337504871165134
 30
0.0
 11
2.1689
 21
1.373404871165134
 31
0.0
  0
LINE
  5
124D
330
1240
100
AcDbEntity
  8
0
 62
     0
100
AcDbLine
 10
2.133
 20
1.072339828220178
 30
0.0
 11
2.1689
 21
1.108239828220179
 31
0.0
  0
LINE
  5
124E
330
1240
100
AcDbEntity
  8
0
 62
     0
100
AcDbLine
 10
2.132999999999999
 20
2.226749999999999
 30
0.0
 11
2.168899999999999
 21
2.262649999999999
 31
0.0
  0
LINE
  5
124F
330
1240
100
AcDbEntity
  8
0
 62
     0
100
AcDbLine
 10
2.132999999999999
 20
2.491915042944954
 30
0.0
 11
2.168899999999999
 21
2.527815042944955
 31
0.0
  0
LINE
  5
1250
330
1240
100
AcDbEntity
  8
0
 62
     0
100
AcDbLine
 10
2.132999999999999
 20
2.757080085889909
 30
0.0
 11
2.168899999999999
 21
2.79298008588991
 31
0.0
  0
LINE
  5
1251
330
1240
100
AcDbEntity
  8
0
 62
     0
100
AcDbLine
 10
2.132999999999998
 20
3.022245128834864
 30
0.0
 11
2.168899999999999
 21
3.058145128834865
 31
0.0
  0
LINE
  5
1252
330
1240
100
AcDbEntity
  8
0
 62
     0
100
AcDbLine
 10
2.132999999999998
 20
3.287410171779819
 30
0.0
 11
2.168899999999999
 21
3.32331017177982
 31
0.0
  0
LINE
  5
1253
330
1240
100
AcDbEntity
  8
0
 62
     0
100
AcDbLine
 10
2.91658896926165
 20
4.070999141041472
 30
0.0
 11
3.025871001564423
 21
4.180281173344244
 31
0.0
  0
LINE
  5
1254
330
1240
100
AcDbEntity
  8
0
 62
     0
100
AcDbLine
 10
2.132999999999998
 20
3.552575214724774
 30
0.0
 11
2.168899999999998
 21
3.588475214724775
 31
0.0
  0
LINE
  5
1255
330
1240
100
AcDbEntity
  8
0
 62
     0
100
AcDbLine
 10
2.289201741458295
 20
3.708776956183072
 30
0.0
 11
2.398483773761065
 21
3.818058988485842
 31
0.0
  0
LINE
  5
1256
330
1240
100
AcDbEntity
  8
0
 62
     0
100
AcDbLine
 10
2.132999999999999
 20
1.961584957055044
 30
0.0
 11
2.1689
 21
1.997484957055044
 31
0.0
  0
LINE
  5
1257
330
1240
100
AcDbEntity
  8
0
 62
     0
100
AcDbLine
 10
2.132999999999999
 20
1.696419914110089
 30
0.0
 11
2.1689
 21
1.732319914110089
 31
0.0
  0
LINE
  5
1258
330
1240
100
AcDbEntity
  8
0
 62
     0
100
AcDbLine
 10
2.133
 20
1.431254871165133
 30
0.0
 11
2.1689
 21
1.467154871165134
 31
0.0
  0
LINE
  5
1259
330
1240
100
AcDbEntity
  8
0
 62
     0
100
AcDbLine
 10
2.133
 20
1.166089828220178
 30
0.0
 11
2.1689
 21
1.201989828220179
 31
0.0
  0
ENDBLK
  5
125A
330
1240
100
AcDbEntity
  8
0
100
AcDbBlockEnd
  0
BLOCK
  5
142E
330
142D
100
AcDbEntity
  8
0
100
AcDbBlockBegin
  2
*X1
 70
     1
 10
0.0
 20
0.0
 30
0.0
  3
*X1
  1

  0
LINE
  5
142F
330
142D
100
AcDbEntity
  8
0
 62
     0
100
AcDbLine
 10
13.12154147234569
 20
5.503597265408173
 30
0.0
 11
13.13471838688374
 21
5.55277417995116
 31
0.0
  0
LINE
  5
1430
330
142D
100
AcDbEntity
  8
0
 62
     0
100
AcDbLine
 10
12.89190180896114
 20
5.371014743940798
 30
0.0
 11
12.90507872349782
 21
5.420191658478683
 31
0.0
  0
LINE
  5
1431
330
142D
100
AcDbEntity
  8
0
 62
     0
100
AcDbLine
 10
13.35118113573025
 20
5.636179786875548
 30
0.0
 11
13.36435805026966
 21
5.685356701423637
 31
0.0
  0
LINE
  5
1432
330
142D
100
AcDbEntity
  8
0
 62
     0
100
AcDbLine
 10
13.5808207991148
 20
5.768762308342922
 30
0.0
 11
13.59399771365559
 21
5.817939222896115
 31
0.0
  0
LINE
  5
1433
330
142D
100
AcDbEntity
  8
0
 62
     0
100
AcDbLine
 10
13.19808802667876
 20
5.547791439156471
 30
0.0
 11
13.21126494121727
 21
5.59696835370116
 31
0.0
  0
LINE
  5
1434
330
142D
100
AcDbEntity
  8
0
 62
     0
100
AcDbLine
 10
12.96844836329421
 20
5.415208917689096
 30
0.0
 11
12.98162527783134
 21
5.464385832228682
 31
0.0
  0
LINE
  5
1435
330
142D
100
AcDbEntity
  8
0
 62
     0
100
AcDbLine
 10
13.42772769006332
 20
5.680373960623845
 30
0.0
 11
13.44090460460319
 21
5.729550875173637
 31
0.0
  0
ENDBLK
  5
1436
330
142D
100
AcDbEntity
  8
0
100
AcDbBlockEnd
  0
BLOCK
  5
225C
330
2250
100
AcDbEntity
  8
0
100
AcDbBlockBegin
  2
Kawneer Logo English
 70
     0
 10
0.0
 20
0.0
 30
0.0
  3
Kawneer Logo English
  1

  0
MTEXT
  5
2251
102
{ACAD_XDICTIONARY
360
22B9
102
}
330
2250
100
AcDbEntity
  8
Kawneer Logo-English
100
AcDbMText
 10
1.510096758583198
 20
0.0372523876656778
 30
0.0
 40
0.036
 41
0.6125900866323382
 71
     3
 72
     5
  1
{\fArial TUR|b0|i0|c0|p34;\T1.05;AN ARCONIC COMPANY}
 73
     1
 44
1.0
1001
ACAD
1000
ACAD_MTEXT_COLUMN_INFO_BEGIN
1070
    75
1070
     2
1070
    79
1070
     0
1070
    76
1070
     1
1070
    78
1070
     0
1070
    48
1040
0.6125900866323382
1070
    49
1040
1.0
1070
    50
1070
     1
1040
0.0
1000
ACAD_MTEXT_COLUMN_INFO_END
1000
MTEXTBEGIN
1070
    73
1070
     1
1070
    44
1040
1.0
1070
    74
1070
     0
1000
MTEXTEND
  0
HATCH
  5
2252
330
2250
100
AcDbEntity
  8
Kawneer Logo-English
100
AcDbHatch
 10
0.0
 20
0.0
 30
0.0
210
0.0
220
0.0
230
1.0
  2
SOLID
 70
     1
 71
     0
 91
        1
 92
        1
 93
       81
 72
     1
 10
0.2706169776412204
 20
0.0336337282279411
 11
0.2687512969786691
 21
0.0350329887248546
 72
     1
 10
0.2687512969786696
 20
0.0350329887248547
 11
0.2633408230572721
 21
0.039137486182467
 72
     1
 10
0.2633408230572729
 20
0.0391374861824669
 11
0.2550385441089194
 21
0.0453875164020133
 72
     1
 10
0.2550385441089191
 20
0.0453875164020132
 11
0.2442175962661241
 21
0.053596511317238
 72
     1
 10
0.2442175962661235
 20
0.0535965113172379
 11
0.2314376837276472
 21
0.0632980507625037
 72
     1
 10
0.2314376837276479
 20
0.0632980507625037
 11
0.2172585106922595
 21
0.0741189986052996
 72
     1
 10
0.2172585106922598
 20
0.0741189986052996
 11
0.2019599292593419
 21
0.0856862187131167
 72
     1
 10
0.201959929259341
 20
0.0856862187131167
 11
0.1862882116939105
 21
0.0976265749534437
 72
     1
 10
0.1862882116939102
 20
0.0976265749534437
 11
0.1706164941284813
 21
0.1095669311937706
 72
     1
 10
0.1706164941284811
 20
0.1095669311937709
 11
0.1553179126955632
 21
0.1211341513015875
 72
     1
 10
0.1553179126955642
 20
0.1211341513015876
 11
0.1411387396601757
 21
0.131955099144384
 72
     1
 10
0.1411387396601755
 20
0.1319550991443839
 11
0.1284521111548274
 21
0.141749922622777
 72
     1
 10
0.1284521111548278
 20
0.1417499226227768
 11
0.117631163312031
 21
0.1499589175380016
 72
     1
 10
0.1176311633120304
 20
0.1499589175380017
 11
0.1094221683968068
 21
0.1563022317906752
 72
     1
 10
0.1094221683968062
 20
0.1563022317906754
 11
0.1041049785085351
 21
0.1604067292482882
 72
     1
 10
0.1041049785085351
 20
0.1604067292482878
 11
0.1023325818791119
 21
0.1618992737783286
 72
     1
 10
0.1023325818791116
 20
0.1618992737783289
 11
0.1043848306079176
 21
0.1636716704077524
 72
     1
 10
0.1043848306079194
 20
0.1636716704077524
 11
0.1100751566286996
 21
0.1683358720641301
 72
     1
 10
0.1100751566286986
 20
0.1683358720641301
 11
0.1189371397758159
 21
0.1757053106812067
 72
     1
 10
0.1189371397758161
 20
0.1757053106812067
 11
0.1304110758505067
 21
0.1851269980270901
 72
     1
 10
0.1304110758505059
 20
0.1851269980270902
 11
0.1439372606540007
 21
0.1963210820023967
 72
     1
 10
0.1439372606540017
 20
0.1963210820023967
 11
0.1589559899875385
 21
0.2087278584083611
 72
     1
 10
0.1589559899875379
 20
0.2087278584083611
 11
0.1750941277186041
 21
0.2220674751456017
 72
     1
 10
0.1750941277186047
 20
0.2220674751456017
 11
0.19169868561531
 21
0.2358735120484796
 72
     1
 10
0.1916986856153105
 20
0.2358735120484796
 11
0.208303243512014
 21
0.2495862649182301
 72
     1
 10
0.2083032435120131
 20
0.2495862649182304
 11
0.2244413812430811
 21
0.2628325976223432
 72
     1
 10
0.2244413812430812
 20
0.2628325976223429
 11
0.239460110576618
 21
0.2753326580614352
 72
     1
 10
0.2394601105766174
 20
0.2753326580614351
 11
0.2529862953801122
 21
0.2864334580036143
 72
     1
 10
0.2529862953801132
 20
0.2864334580036143
 11
0.2643669474216756
 21
0.2958551453494973
 72
     1
 10
0.2643669474216757
 20
0.2958551453494973
 11
0.2731356465356649
 21
0.3031312999334466
 72
     1
 10
0.273135646535664
 20
0.3031312999334466
 11
0.2788259725564443
 21
0.3077955015898243
 72
     1
 10
0.278825972556445
 20
0.3077955015898246
 11
0.2807849372521245
 21
0.3094746141861208
 72
     1
 10
0.2807849372521249
 20
0.3094746141861205
 11
0.2798520969208501
 21
0.3094746141861205
 72
     1
 10
0.2798520969208496
 20
0.3094746141861205
 11
0.2769602918938953
 21
0.3095678982192478
 72
     1
 10
0.2769602918938943
 20
0.3095678982192481
 11
0.2724826583037715
 21
0.3095678982192481
 72
     1
 10
0.2724826583037729
 20
0.3095678982192481
 11
0.2666057642167363
 21
0.3095678982192481
 72
     1
 10
0.266605764216735
 20
0.3095678982192481
 11
0.2597027457652953
 21
0.3095678982192481
 72
     1
 10
0.2597027457652956
 20
0.3095678982192481
 11
0.2519601710157094
 21
0.3095678982192481
 72
     1
 10
0.2519601710157104
 20
0.3095678982192481
 11
0.2437511761004851
 21
0.3095678982192481
 72
     1
 10
0.243751176100484
 20
0.3095678982192481
 11
0.2351690450527495
 21
0.3095678982192481
 72
     1
 10
0.2351690450527495
 20
0.3095678982192481
 11
0.2266801980381413
 21
0.3095678982192481
 72
     1
 10
0.2266801980381423
 20
0.3095678982192481
 11
0.2183779190897905
 21
0.3094746141861208
 72
     1
 10
0.2183779190897899
 20
0.3094746141861205
 11
0.2106353443402037
 21
0.3094746141861205
 72
     1
 10
0.2106353443402029
 20
0.3094746141861205
 11
0.2037323258887632
 21
0.3094746141861205
 72
     1
 10
0.203732325888764
 20
0.3094746141861205
 11
0.1978554318017273
 21
0.3094746141861205
 72
     1
 10
0.1978554318017278
 20
0.3094746141861205
 11
0.1932845141784786
 21
0.3094746141861205
 72
     1
 10
0.1932845141784787
 20
0.3094746141861205
 11
0.1903927091515244
 21
0.3094746141861205
 72
     1
 10
0.1903927091515234
 20
0.3094746141861205
 11
0.1893665847871204
 21
0.3094746141861205
 72
     1
 10
0.1893665847871206
 20
0.3094746141861205
 11
0.1879673242902067
 21
0.3077955015898243
 72
     1
 10
0.1879673242902076
 20
0.3077955015898246
 11
0.1841426789319786
 21
0.3030380159003196
 72
     1
 10
0.1841426789319787
 20
0.3030380159003192
 11
0.1780792167786874
 21
0.29576186131637
 72
     1
 10
0.1780792167786873
 20
0.29576186131637
 11
0.170243357995973
 21
0.2862468899373593
 72
     1
 10
0.170243357995973
 20
0.2862468899373593
 11
0.1610082387163447
 21
0.2750528059620528
 72
     1
 10
0.1610082387163438
 20
0.2750528059620528
 11
0.1507469950723126
 21
0.2624594614898328
 72
     1
 10
0.1507469950723133
 20
0.2624594614898328
 11
0.1396461951301336
 21
0.2491198447525922
 72
     1
 10
0.1396461951301333
 20
0.2491198447525922
 11
0.1282655430885727
 21
0.2352205238165866
 72
     1
 10
0.1282655430885726
 20
0.2352205238165868
 11
0.1168848910470102
 21
0.2214144869137089
 72
     1
 10
0.1168848910470102
 20
0.2214144869137087
 11
0.1058773751379587
 21
0.2079815861433408
 72
     1
 10
0.105877375137958
 20
0.2079815861433408
 11
0.0955228474608004
 21
0.1954815257042486
 72
     1
 10
0.0955228474608019
 20
0.1954815257042488
 11
0.0862877281811736
 21
0.1842874417289424
 72
     1
 10
0.0862877281811727
 20
0.1842874417289424
 11
0.0784518693984583
 21
0.1747724703499316
 72
     1
 10
0.0784518693984584
 20
0.1747724703499314
 11
0.0723884072451672
 21
0.1674963157659821
 72
     1
 10
0.0723884072451671
 20
0.1674963157659822
 11
0.0685637618869363
 21
0.1627388300764767
 72
     1
 10
0.0685637618869364
 20
0.1627388300764767
 11
0.0671645013900242
 21
0.1611530015133082
 72
     1
 10
0.0671645013900251
 20
0.1611530015133082
 11
0.0680040576881734
 21
0.1596604569832674
 72
     1
 10
0.0680040576881726
 20
0.1596604569832674
 11
0.0704294425494878
 21
0.1556492435587824
 72
     1
 10
0.0704294425494871
 20
0.1556492435587824
 11
0.0742540879077179
 21
0.1493059293061089
 72
     1
 10
0.0742540879077192
 20
0.1493059293061089
 11
0.0791048576303511
 21
0.1411902184240116
 72
     1
 10
0.0791048576303508
 20
0.1411902184240116
 11
0.0848884676842594
 21
0.1314886789787458
 72
     1
 10
0.0848884676842596
 20
0.1314886789787459
 11
0.0913250659700619
 21
0.1207610151690772
 72
     1
 10
0.0913250659700613
 20
0.1207610151690775
 11
0.0982280844214992
 21
0.1091937950612604
 72
     1
 10
0.0982280844214985
 20
0.1091937950612603
 11
0.1053176709391927
 21
0.0973467228540611
 72
     1
 10
0.105317670939193
 20
0.0973467228540612
 11
0.1124072574568872
 21
0.0854996506468619
 72
     1
 10
0.1124072574568871
 20
0.0854996506468617
 11
0.1193102759083267
 21
0.0739324305390446
 72
     1
 10
0.1193102759083278
 20
0.0739324305390448
 11
0.1257468741941283
 21
0.0632047667293762
 72
     1
 10
0.1257468741941277
 20
0.063204766729376
 11
0.1315304842480362
 21
0.0535032272841102
 72
     1
 10
0.1315304842480365
 20
0.0535032272841104
 11
0.1363812539706702
 21
0.0453875164020132
 72
     1
 10
0.1363812539706699
 20
0.0453875164020132
 11
0.1402058993288989
 21
0.0391374861824667
 72
     1
 10
0.1402058993288988
 20
0.0391374861824669
 11
0.1426312841902157
 21
0.0350329887248546
 72
     1
 10
0.1426312841902164
 20
0.0350329887248547
 11
0.1434708404883648
 21
0.0336337282279412
 72
     1
 10
0.143470840488364
 20
0.0336337282279411
 11
0.2706169776412211
 21
0.0336337282279411
 97
        0
 75
     0
 76
     1
 98
        1
 10
-0.3743130907707726
 20
-0.2500502867693841
1001
ACAD
1010
0.0
1020
0.0
1030
0.0
  0
HATCH
  5
2253
330
2250
100
AcDbEntity
  8
Kawneer Logo-English
100
AcDbHatch
 10
0.0
 20
0.0
 30
0.0
210
0.0
220
0.0
230
1.0
  2
SOLID
 70
     1
 71
     0
 91
        1
 92
        1
 93
       18
 72
     1
 10
0.0001865656044393
 20
0.2563959993365415
 11
-0.0000000024618153
 21
0.113671428651383
 72
     1
 10
-0.0000000024618159
 20
0.1136714286513832
 11
0.0012126899688416
 21
0.1152572572145516
 72
     1
 10
0.0012126899688421
 20
0.1152572572145516
 11
0.0045709151614355
 21
0.1197348908046738
 72
     1
 10
0.004570915161435
 20
0.119734890804674
 11
0.0098881050497044
 21
0.1268244773223682
 72
     1
 10
0.0098881050497044
 20
0.1268244773223682
 11
0.0166978394680158
 21
0.1359663125688683
 72
     1
 10
0.016697839468016
 20
0.1359663125688683
 11
0.0248135503501131
 21
0.1467872604116651
 72
     1
 10
0.024813550350113
 20
0.1467872604116652
 11
0.0338621015634867
 21
0.1588209006851195
 72
     1
 10
0.0338621015634872
 20
0.1588209006851194
 11
0.0434703569756247
 21
0.1716940972567221
 72
     1
 10
0.0434703569756247
 20
0.1716940972567224
 11
0.0534517485202732
 21
0.1850337139939626
 72
     1
 10
0.0534517485202724
 20
0.1850337139939624
 11
0.0634331400649208
 21
0.1983733307312025
 72
     1
 10
0.0634331400649222
 20
0.1983733307312024
 11
0.0730413954770597
 21
0.2112465273028051
 72
     1
 10
0.0730413954770595
 20
0.2112465273028053
 11
0.0820899466904331
 21
0.2233734516093873
 72
     1
 10
0.0820899466904321
 20
0.2233734516093873
 11
0.0902056575725293
 21
0.2341943994521837
 72
     1
 10
0.0902056575725308
 20
0.2341943994521837
 11
0.0970153919908422
 21
0.2433362346986839
 72
     1
 10
0.0970153919908405
 20
0.2433362346986839
 11
0.1022392978459834
 21
0.2503325371832507
 72
     1
 10
0.1022392978459843
 20
0.2503325371832508
 11
0.1056908070717041
 21
0.2549034548065008
 72
     1
 10
0.1056908070717046
 20
0.254903454806501
 11
0.1069034995023621
 21
0.2564892833696694
 72
     1
 10
0.1069034995023625
 20
0.2564892833696695
 11
0.0001865656044399
 21
0.2563959993365418
 97
        0
 75
     0
 76
     1
 98
        1
 10
-0.3743130907707726
 20
-0.2500502867693841
1001
ACAD
1010
0.0
1020
0.0
1030
0.0
  0
HATCH
  5
2254
330
2250
100
AcDbEntity
  8
Kawneer Logo-English
100
AcDbHatch
 10
0.0
 20
0.0
 30
0.0
210
0.0
220
0.0
230
1.0
  2
SOLID
 70
     1
 71
     0
 91
        2
 92
       16
 93
       76
 72
     1
 10
1.358402087941634
 20
0.1650709309046659
 11
1.358402087941634
 21
0.16796273593162
 72
     1
 10
1.358402087941634
 20
0.1679627359316202
 11
1.358402087941634
 21
0.1729067896873803
 72
     1
 10
1.358402087941634
 20
0.1729067896873803
 11
1.358402087941634
 21
0.1791568199069267
 72
     1
 10
1.358402087941634
 20
0.1791568199069267
 11
1.358402087941634
 21
0.1861531223914932
 72
     1
 10
1.358402087941634
 20
0.186153122391493
 11
1.358402087941634
 21
0.1931494248760595
 72
     1
 10
1.358402087941634
 20
0.1931494248760596
 11
1.358402087941634
 21
0.1994927391287338
 72
     1
 10
1.358402087941634
 20
0.1994927391287336
 11
1.358402087941634
 21
0.2044367928844937
 72
     1
 10
1.358402087941634
 20
0.2044367928844937
 11
1.358402087941634
 21
0.2072353138783208
 72
     1
 10
1.358402087941634
 20
0.2072353138783208
 11
1.359894632471676
 21
0.2072353138783208
 72
     1
 10
1.359894632471676
 20
0.2072353138783208
 11
1.362693153465502
 21
0.2072353138783208
 72
     1
 10
1.362693153465502
 20
0.2072353138783208
 11
1.366424514790605
 21
0.2072353138783208
 72
     1
 10
1.366424514790606
 20
0.2072353138783208
 11
1.371088716446983
 21
0.2072353138783208
 72
     1
 10
1.371088716446982
 20
0.2072353138783208
 11
1.376405906335254
 21
0.2072353138783208
 72
     1
 10
1.376405906335254
 20
0.2072353138783208
 11
1.382282800422289
 21
0.2072353138783208
 72
     1
 10
1.38228280042229
 20
0.2072353138783208
 11
1.388346262575581
 21
0.2072353138783208
 72
     1
 10
1.388346262575579
 20
0.2072353138783208
 11
1.394596292795125
 21
0.2072353138783208
 72
     1
 10
1.394596292795125
 20
0.2072353138783208
 11
1.400753038981545
 21
0.2072353138783208
 72
     1
 10
1.400753038981546
 20
0.2072353138783208
 11
1.406723217101709
 21
0.2072353138783208
 72
     1
 10
1.406723217101708
 20
0.2072353138783208
 11
1.412320259089362
 21
0.2072353138783208
 72
     1
 10
1.412320259089362
 20
0.2072353138783208
 11
1.417264312845122
 21
0.2072353138783208
 72
     1
 10
1.417264312845123
 20
0.2072353138783208
 11
1.421368810302735
 21
0.2072353138783208
 72
     1
 10
1.421368810302734
 20
0.2072353138783208
 11
1.424540467429071
 21
0.2072353138783208
 72
     1
 10
1.424540467429072
 20
0.2072353138783208
 11
1.426592716157878
 21
0.2072353138783208
 72
     1
 10
1.426592716157878
 20
0.2072353138783208
 11
1.427338988422898
 21
0.2072353138783208
 72
     1
 10
1.427338988422898
 20
0.2072353138783208
 11
1.430977065714873
 21
0.207142029845193
 72
     1
 10
1.430977065714872
 20
0.207142029845193
 11
1.434335290907465
 21
0.2068621777458102
 72
     1
 10
1.434335290907465
 20
0.2068621777458102
 11
1.435921119470633
 21
0.2066756096795552
 72
     1
 10
1.435921119470633
 20
0.206675609679555
 11
1.437413664000673
 21
0.2063957575801723
 72
     1
 10
1.437413664000674
 20
0.2063957575801723
 11
1.438906208530714
 21
0.2061159054807895
 72
     1
 10
1.438906208530714
 20
0.2061159054807898
 11
1.440398753060756
 21
0.2056494853151523
 72
     1
 10
1.440398753060756
 20
0.2056494853151521
 11
1.441704729524542
 21
0.2050897811163865
 72
     1
 10
1.441704729524542
 20
0.2050897811163866
 11
1.443010705988328
 21
0.204530076917621
 72
     1
 10
1.443010705988329
 20
0.204530076917621
 11
1.444223398418986
 21
0.2036905206194736
 72
     1
 10
1.444223398418985
 20
0.2036905206194736
 11
1.445436090849643
 21
0.2028509643213252
 72
     1
 10
1.445436090849643
 20
0.2028509643213252
 11
1.446555499247174
 21
0.2018248399569224
 72
     1
 10
1.446555499247173
 20
0.2018248399569223
 11
1.447581623611576
 21
0.2007054315593917
 72
     1
 10
1.447581623611578
 20
0.2007054315593915
 11
1.448607747975981
 21
0.1993061710624781
 72
     1
 10
1.448607747975981
 20
0.1993061710624781
 11
1.449540588307258
 21
0.1978136265324374
 72
     1
 10
1.449540588307256
 20
0.1978136265324373
 11
1.450380144605403
 21
0.1961345139361415
 72
     1
 10
1.450380144605404
 20
0.1961345139361415
 11
1.451126416870426
 21
0.1944554013398453
 72
     1
 10
1.451126416870426
 20
0.1944554013398454
 11
1.451592837036063
 21
0.1929628568098046
 72
     1
 10
1.451592837036062
 20
0.1929628568098046
 11
1.451965973168573
 21
0.1913770282466361
 72
     1
 10
1.451965973168574
 20
0.1913770282466361
 11
1.452245825267955
 21
0.1899777677497231
 72
     1
 10
1.452245825267954
 20
0.1899777677497231
 11
1.452432393334211
 21
0.188671791285937
 72
     1
 10
1.452432393334211
 20
0.1886717912859369
 11
1.452432393334211
 21
0.1874590988552789
 72
     1
 10
1.452432393334211
 20
0.1874590988552789
 11
1.452525677367338
 21
0.1863396904577482
 72
     1
 10
1.452525677367337
 20
0.1863396904577481
 11
1.452432393334211
 21
0.1844740097951972
 72
     1
 10
1.452432393334211
 20
0.1844740097951974
 11
1.452245825267955
 21
0.1827948971989012
 72
     1
 10
1.452245825267954
 20
0.1827948971989009
 11
1.451872689135445
 21
0.1810225005694773
 72
     1
 10
1.451872689135446
 20
0.1810225005694774
 11
1.451406268969809
 21
0.1794366720063093
 72
     1
 10
1.451406268969809
 20
0.1794366720063094
 11
1.450846564771043
 21
0.1779441274762682
 72
     1
 10
1.450846564771041
 20
0.1779441274762681
 11
1.450100292506021
 21
0.1764515829462274
 72
     1
 10
1.450100292506023
 20
0.1764515829462275
 11
1.449260736207875
 21
0.1750523224493141
 72
     1
 10
1.449260736207873
 20
0.1750523224493139
 11
1.448327895876597
 21
0.1737463459855283
 72
     1
 10
1.448327895876596
 20
0.1737463459855281
 11
1.44702191941281
 21
0.1723470854886151
 72
     1
 10
1.447021919412811
 20
0.1723470854886151
 11
1.445715942949025
 21
0.1711343930579568
 72
     1
 10
1.445715942949026
 20
0.1711343930579568
 11
1.444316682452114
 21
0.1700149846604262
 72
     1
 10
1.444316682452114
 20
0.1700149846604259
 11
1.442824137922072
 21
0.168988860296023
 72
     1
 10
1.442824137922072
 20
0.168988860296023
 11
1.441238309358904
 21
0.1682425880310024
 72
     1
 10
1.441238309358902
 20
0.1682425880310024
 11
1.439559196762608
 21
0.1674963157659821
 72
     1
 10
1.439559196762608
 20
0.1674963157659822
 11
1.437880084166311
 21
0.1669366115672166
 72
     1
 10
1.437880084166311
 20
0.1669366115672167
 11
1.436107687536888
 21
0.1664701914015788
 72
     1
 10
1.436107687536888
 20
0.1664701914015789
 11
1.434242006874337
 21
0.166003771235941
 72
     1
 10
1.434242006874337
 20
0.1660037712359412
 11
1.432376326211786
 21
0.1657239191365588
 72
     1
 10
1.432376326211785
 20
0.1657239191365585
 11
1.430417361516107
 21
0.1655373510703035
 72
     1
 10
1.430417361516108
 20
0.1655373510703037
 11
1.428458396820429
 21
0.1653507830040482
 72
     1
 10
1.428458396820428
 20
0.1653507830040482
 11
1.424353899362817
 21
0.1651642149377932
 72
     1
 10
1.424353899362817
 20
0.1651642149377932
 11
1.420156117872077
 21
0.1650709309046658
 72
     1
 10
1.420156117872076
 20
0.1650709309046659
 11
1.41773073301076
 21
0.1650709309046659
 72
     1
 10
1.417730733010761
 20
0.1650709309046659
 11
1.411107566658704
 21
0.1650709309046659
 72
     1
 10
1.411107566658702
 20
0.1650709309046659
 11
1.401779163345947
 21
0.1650709309046659
 72
     1
 10
1.401779163345949
 20
0.1650709309046659
 11
1.390958215503152
 21
0.1650709309046659
 72
     1
 10
1.390958215503152
 20
0.1650709309046659
 11
1.379950699594101
 21
0.1650709309046659
 72
     1
 10
1.379950699594099
 20
0.1650709309046659
 11
1.369969308049451
 21
0.1650709309046659
 72
     1
 10
1.369969308049451
 20
0.1650709309046659
 11
1.362320017332992
 21
0.1650709309046659
 72
     1
 10
1.362320017332992
 20
0.1650709309046659
 11
1.358402087941635
 21
0.1650709309046659
 97
        0
 92
        1
 93
      107
 72
     1
 10
1.443756978253348
 20
0.1485596570410883
 11
1.446928635379685
 21
0.1492126452729816
 72
     1
 10
1.446928635379685
 20
0.1492126452729817
 11
1.449540588307256
 21
0.1498656335048746
 72
     1
 10
1.449540588307256
 20
0.1498656335048745
 11
1.451872689135445
 21
0.1506119057698948
 72
     1
 10
1.451872689135446
 20
0.1506119057698946
 11
1.45401822189738
 21
0.1514514620680426
 72
     1
 10
1.45401822189738
 20
0.1514514620680425
 11
1.455883902559929
 21
0.1521977343330632
 72
     1
 10
1.455883902559929
 20
0.1521977343330631
 11
1.457563015156225
 21
0.1530372906312111
 72
     1
 10
1.457563015156225
 20
0.1530372906312111
 11
1.459148843719394
 21
0.1539701309624869
 72
     1
 10
1.459148843719394
 20
0.1539701309624866
 11
1.460641388249434
 21
0.1549029712937624
 72
     1
 10
1.460641388249434
 20
0.1549029712937622
 11
1.462133932779476
 21
0.155835811625038
 72
     1
 10
1.462133932779476
 20
0.155835811625038
 11
1.463439909243262
 21
0.1568619359894408
 72
     1
 10
1.463439909243262
 20
0.1568619359894408
 11
1.464745885707048
 21
0.1579813443869714
 72
     1
 10
1.464745885707047
 20
0.1579813443869716
 11
1.465865294104579
 21
0.1591007527845022
 72
     1
 10
1.465865294104579
 20
0.1591007527845025
 11
1.466984702502109
 21
0.1602201611820331
 72
     1
 10
1.466984702502108
 20
0.1602201611820328
 11
1.468010826866511
 21
0.1613395695795634
 72
     1
 10
1.468010826866511
 20
0.1613395695795637
 11
1.468943667197788
 21
0.1625522620102216
 72
     1
 10
1.468943667197788
 20
0.1625522620102216
 11
1.469876507529063
 21
0.1636716704077522
 72
     1
 10
1.469876507529063
 20
0.1636716704077524
 11
1.470622779794084
 21
0.1648843628384107
 72
     1
 10
1.470622779794084
 20
0.1648843628384107
 11
1.471462336092232
 21
0.1661903393021964
 72
     1
 10
1.471462336092232
 20
0.1661903393021967
 11
1.472115324324125
 21
0.1674030317328546
 72
     1
 10
1.472115324324124
 20
0.1674030317328546
 11
1.472768312556016
 21
0.1686157241635125
 72
     1
 10
1.472768312556017
 20
0.1686157241635125
 11
1.473328016754783
 21
0.1699217006272986
 72
     1
 10
1.473328016754782
 20
0.1699217006272989
 11
1.47379443692042
 21
0.1711343930579568
 72
     1
 10
1.47379443692042
 20
0.1711343930579568
 11
1.474260857086057
 21
0.1724403695217425
 72
     1
 10
1.474260857086058
 20
0.1724403695217424
 11
1.474727277251697
 21
0.1736530619524008
 72
     1
 10
1.474727277251697
 20
0.173653061952401
 11
1.475380265483589
 21
0.1760784468137175
 72
     1
 10
1.475380265483588
 20
0.1760784468137173
 11
1.475846685649225
 21
0.1785038316750338
 72
     1
 10
1.475846685649226
 20
0.1785038316750335
 11
1.476219821781737
 21
0.1808359325032223
 72
     1
 10
1.476219821781738
 20
0.1808359325032223
 11
1.47649967388112
 21
0.1830747492982838
 72
     1
 10
1.47649967388112
 20
0.1830747492982838
 11
1.476592957914248
 21
0.1851269980270901
 72
     1
 10
1.476592957914248
 20
0.1851269980270902
 11
1.476686241947374
 21
0.1870859627227688
 72
     1
 10
1.476686241947375
 20
0.1870859627227687
 11
1.476592957914249
 21
0.1888583593521923
 72
     1
 10
1.476592957914248
 20
0.1888583593521922
 11
1.476499673881119
 21
0.1906307559816158
 72
     1
 10
1.47649967388112
 20
0.1906307559816159
 11
1.476406389847991
 21
0.1924031526110394
 72
     1
 10
1.476406389847991
 20
0.1924031526110394
 11
1.476126537748608
 21
0.1940822652073352
 72
     1
 10
1.476126537748608
 20
0.1940822652073352
 11
1.475846685649226
 21
0.195761377803631
 72
     1
 10
1.475846685649226
 20
0.1957613778036309
 11
1.475566833549843
 21
0.1974404903999272
 72
     1
 10
1.475566833549843
 20
0.1974404903999272
 11
1.475100413384206
 21
0.1990263189630953
 72
     1
 10
1.475100413384205
 20
0.1990263189630952
 11
1.474633993218568
 21
0.2006121475262637
 72
     1
 10
1.474633993218568
 20
0.2006121475262639
 11
1.47416757305293
 21
0.2021046920563051
 72
     1
 10
1.474167573052932
 20
0.2021046920563049
 11
1.473514584821038
 21
0.2035972365863457
 72
     1
 10
1.473514584821037
 20
0.2035972365863459
 11
1.472954880622271
 21
0.2050897811163867
 72
     1
 10
1.472954880622272
 20
0.2050897811163866
 11
1.472208608357252
 21
0.2064890416133
 72
     1
 10
1.472208608357252
 20
0.2064890416133001
 11
1.471462336092232
 21
0.2078883021102135
 72
     1
 10
1.471462336092232
 20
0.2078883021102136
 11
1.470622779794083
 21
0.2091942785739993
 72
     1
 10
1.470622779794084
 20
0.2091942785739991
 11
1.469783223495935
 21
0.2105002550377848
 72
     1
 10
1.469783223495934
 20
0.2105002550377851
 11
1.468850383164659
 21
0.2118062315015707
 72
     1
 10
1.468850383164661
 20
0.2118062315015709
 11
1.467917542833386
 21
0.2130189239322288
 72
     1
 10
1.467917542833385
 20
0.2130189239322289
 11
1.466891418468982
 21
0.2141383323297595
 72
     1
 10
1.466891418468982
 20
0.2141383323297595
 11
1.465772010071451
 21
0.2153510247604178
 72
     1
 10
1.46577201007145
 20
0.215351024760418
 11
1.464652601673919
 21
0.2163771491248209
 72
     1
 10
1.46465260167392
 20
0.2163771491248209
 11
1.463533193276389
 21
0.2174032734892238
 72
     1
 10
1.463533193276389
 20
0.2174032734892238
 11
1.462227216812603
 21
0.2184293978536266
 72
     1
 10
1.462227216812602
 20
0.2184293978536266
 11
1.461014524381945
 21
0.2193622381849024
 72
     1
 10
1.461014524381946
 20
0.2193622381849023
 11
1.459615263885032
 21
0.2202950785161781
 72
     1
 10
1.459615263885031
 20
0.2202950785161782
 11
1.458309287421245
 21
0.2211346348143262
 72
     1
 10
1.458309287421246
 20
0.221134634814326
 11
1.456816742891206
 21
0.221974191112474
 72
     1
 10
1.456816742891206
 20
0.2219741911124738
 11
1.455417482394292
 21
0.2227204633774945
 72
     1
 10
1.455417482394291
 20
0.2227204633774944
 11
1.453831653831122
 21
0.2233734516093874
 72
     1
 10
1.453831653831123
 20
0.2233734516093873
 11
1.452339109301082
 21
0.2240264398412803
 72
     1
 10
1.452339109301082
 20
0.2240264398412803
 11
1.450659996704785
 21
0.2245861440400459
 72
     1
 10
1.450659996704787
 20
0.2245861440400457
 11
1.44907416814162
 21
0.2251458482388108
 72
     1
 10
1.449074168141619
 20
0.2251458482388109
 11
1.447301771512194
 21
0.2256122684044489
 72
     1
 10
1.447301771512194
 20
0.2256122684044488
 11
1.445249522783388
 21
0.2261719726032139
 72
     1
 10
1.445249522783388
 20
0.226171972603214
 11
1.44329055808771
 21
0.2265451087357246
 72
     1
 10
1.443290558087712
 20
0.2265451087357244
 11
1.441145025325778
 21
0.2269182448682345
 72
     1
 10
1.441145025325776
 20
0.2269182448682345
 11
1.438906208530714
 21
0.2271980969676173
 72
     1
 10
1.438906208530714
 20
0.2271980969676173
 11
1.436387539636271
 21
0.2273846650338724
 72
     1
 10
1.436387539636271
 20
0.2273846650338724
 11
1.433495734609316
 21
0.2275712331001274
 72
     1
 10
1.433495734609317
 20
0.2275712331001274
 11
1.430044225383597
 21
0.2276645171332552
 72
     1
 10
1.430044225383597
 20
0.2276645171332549
 11
1.42612629599224
 21
0.2277578011663822
 72
     1
 10
1.42612629599224
 20
0.2277578011663825
 11
1.426033011959112
 21
0.2277578011663825
 72
     1
 10
1.426033011959111
 20
0.2277578011663825
 11
1.33489451159349
 21
0.2277578011663825
 72
     1
 10
1.334894511593491
 20
0.2277578011663825
 11
1.334894511593491
 21
0.0926825211976832
 72
     1
 10
1.334894511593491
 20
0.0926825211976832
 11
1.358588656007891
 21
0.0926825211976832
 72
     1
 10
1.358588656007891
 20
0.0926825211976832
 11
1.358588656007891
 21
0.0947347699264896
 72
     1
 10
1.358588656007891
 20
0.0947347699264896
 11
1.358588656007891
 21
0.1001452438478876
 72
     1
 10
1.358588656007891
 20
0.1001452438478875
 11
1.358588656007891
 21
0.1079811026306024
 72
     1
 10
1.358588656007891
 20
0.1079811026306024
 11
1.358588656007891
 21
0.1170296538439752
 72
     1
 10
1.358588656007891
 20
0.1170296538439753
 11
1.358588656007891
 21
0.1262647731236032
 72
     1
 10
1.358588656007891
 20
0.1262647731236031
 11
1.358588656007891
 21
0.1347536201382103
 72
     1
 10
1.358588656007891
 20
0.1347536201382104
 11
1.358588656007891
 21
0.1412835024571394
 72
     1
 10
1.358588656007891
 20
0.1412835024571393
 11
1.358588656007891
 21
0.1448282957159864
 72
     1
 10
1.358588656007891
 20
0.1448282957159865
 11
1.362320017332992
 21
0.1448282957159865
 72
     1
 10
1.362320017332992
 20
0.1448282957159865
 11
1.369409603850688
 21
0.1448282957159865
 72
     1
 10
1.369409603850688
 20
0.1448282957159865
 11
1.378738007163443
 21
0.1448282957159865
 72
     1
 10
1.378738007163443
 20
0.1448282957159865
 11
1.388999250807475
 21
0.1448282957159865
 72
     1
 10
1.388999250807473
 20
0.1448282957159865
 11
1.399260494451505
 21
0.1448282957159865
 72
     1
 10
1.399260494451506
 20
0.1448282957159865
 11
1.408215761631749
 21
0.1448282957159865
 72
     1
 10
1.408215761631748
 20
0.1448282957159865
 11
1.414745643950677
 21
0.1448282957159865
 72
     1
 10
1.414745643950678
 20
0.1448282957159865
 11
1.41773073301076
 21
0.1448282957159865
 72
     1
 10
1.417730733010761
 20
0.1448282957159865
 11
1.420062833838949
 21
0.1420297747221594
 72
     1
 10
1.420062833838949
 20
0.1420297747221597
 11
1.425193455660966
 21
0.1359663125688683
 72
     1
 10
1.425193455660965
 20
0.1359663125688683
 11
1.432283042178659
 21
0.1275707495873888
 72
     1
 10
1.432283042178659
 20
0.1275707495873886
 11
1.440305469027628
 21
0.1180557782083779
 72
     1
 10
1.440305469027629
 20
0.1180557782083781
 11
1.448234611843471
 21
0.1087273748956225
 72
     1
 10
1.448234611843471
 20
0.1087273748956225
 11
1.455044346261782
 21
0.1006116640135252
 72
     1
 10
1.455044346261782
 20
0.1006116640135252
 11
1.459895115984414
 21
0.0948280539596167
 72
     1
 10
1.459895115984414
 20
0.0948280539596169
 11
1.461760796646965
 21
0.0926825211976832
 72
     1
 10
1.461760796646967
 20
0.0926825211976832
 11
1.49254452757906
 21
0.0926825211976832
 72
     1
 10
1.492544527579059
 20
0.0926825211976832
 11
1.490678846916508
 21
0.0948280539596169
 72
     1
 10
1.490678846916508
 20
0.0948280539596169
 11
1.48564150912762
 21
0.100518379980398
 72
     1
 10
1.48564150912762
 20
0.1005183799803981
 11
1.478458638576797
 21
0.1088206589287502
 72
     1
 10
1.478458638576798
 20
0.1088206589287502
 11
1.470063075595318
 21
0.1183356303077609
 72
     1
 10
1.470063075595317
 20
0.118335630307761
 11
1.461480944547582
 21
0.1282237378192818
 72
     1
 10
1.461480944547582
 20
0.1282237378192818
 11
1.453551801731739
 21
0.1372722890326546
 72
     1
 10
1.45355180173174
 20
0.1372722890326546
 11
1.447395055545323
 21
0.1444551595834761
 72
     1
 10
1.447395055545323
 20
0.1444551595834759
 11
1.443756978253349
 21
0.1485596570410882
 97
        0
 75
     0
 76
     1
 98
        1
 10
-0.3743130907707726
 20
-0.2500502867693841
1001
ACAD
1010
0.0
1020
0.0
1030
0.0
  0
HATCH
  5
2255
330
2250
100
AcDbEntity
  8
Kawneer Logo-English
100
AcDbHatch
 10
0.0
 20
0.0
 30
0.0
210
0.0
220
0.0
230
1.0
  2
SOLID
 70
     1
 71
     0
 91
        1
 92
        1
 93
       87
 72
     1
 10
1.205602841678699
 20
0.1525708704655737
 11
1.207468522341251
 21
0.1525708704655737
 72
     1
 10
1.207468522341252
 20
0.1525708704655737
 11
1.211199883666355
 21
0.1525708704655737
 72
     1
 10
1.211199883666355
 20
0.1525708704655737
 11
1.216517073554626
 21
0.1525708704655737
 72
     1
 10
1.216517073554626
 20
0.1525708704655737
 11
1.223046955873555
 21
0.1525708704655737
 72
     1
 10
1.223046955873553
 20
0.1525708704655737
 11
1.230602962556885
 21
0.1525708704655737
 72
     1
 10
1.230602962556885
 20
0.1525708704655737
 11
1.238998525538365
 21
0.1525708704655737
 72
     1
 10
1.238998525538365
 20
0.1525708704655737
 11
1.247767224652354
 21
0.1525708704655737
 72
     1
 10
1.247767224652355
 20
0.1525708704655737
 11
1.256815775865728
 21
0.1525708704655737
 72
     1
 10
1.256815775865729
 20
0.1525708704655737
 11
1.265771043045974
 21
0.1525708704655737
 72
     1
 10
1.265771043045973
 20
0.1525708704655737
 11
1.274446458126836
 21
0.1525708704655737
 72
     1
 10
1.274446458126837
 20
0.1525708704655737
 11
1.282562169008935
 21
0.1525708704655737
 72
     1
 10
1.282562169008935
 20
0.1525708704655737
 11
1.289745039559756
 21
0.1525708704655737
 72
     1
 10
1.289745039559755
 20
0.1525708704655737
 11
1.295808501713046
 21
0.1525708704655737
 72
     1
 10
1.295808501713046
 20
0.1525708704655737
 11
1.300472703369423
 21
0.1525708704655737
 72
     1
 10
1.300472703369423
 20
0.1525708704655737
 11
1.303457792429505
 21
0.1525708704655737
 72
     1
 10
1.303457792429505
 20
0.1525708704655737
 11
1.304483916793908
 21
0.1525708704655737
 72
     1
 10
1.304483916793908
 20
0.1525708704655737
 11
1.304483916793908
 21
0.1730000737205081
 72
     1
 10
1.304483916793908
 20
0.1730000737205078
 11
1.303457792429505
 21
0.1730000737205078
 72
     1
 10
1.303457792429505
 20
0.1730000737205078
 11
1.300472703369423
 21
0.1730000737205078
 72
     1
 10
1.300472703369423
 20
0.1730000737205078
 11
1.295808501713045
 21
0.1730000737205078
 72
     1
 10
1.295808501713046
 20
0.1730000737205078
 11
1.289745039559754
 21
0.1730000737205078
 72
     1
 10
1.289745039559755
 20
0.1730000737205078
 11
1.282562169008934
 21
0.1730000737205078
 72
     1
 10
1.282562169008935
 20
0.1730000737205078
 11
1.274446458126837
 21
0.1730000737205078
 72
     1
 10
1.274446458126837
 20
0.1730000737205078
 11
1.265771043045975
 21
0.1730000737205078
 72
     1
 10
1.265771043045973
 20
0.1730000737205078
 11
1.256815775865728
 21
0.1730000737205078
 72
     1
 10
1.256815775865729
 20
0.1730000737205078
 11
1.247767224652355
 21
0.1730000737205078
 72
     1
 10
1.247767224652355
 20
0.1730000737205078
 11
1.238998525538365
 21
0.1730000737205078
 72
     1
 10
1.238998525538365
 20
0.1730000737205078
 11
1.230602962556885
 21
0.1730000737205078
 72
     1
 10
1.230602962556885
 20
0.1730000737205078
 11
1.223046955873553
 21
0.1730000737205078
 72
     1
 10
1.223046955873553
 20
0.1730000737205078
 11
1.216517073554625
 21
0.1730000737205078
 72
     1
 10
1.216517073554626
 20
0.1730000737205078
 11
1.211199883666355
 21
0.1730000737205078
 72
     1
 10
1.211199883666355
 20
0.1730000737205078
 11
1.207468522341252
 21
0.1730000737205078
 72
     1
 10
1.207468522341252
 20
0.1730000737205078
 11
1.205602841678701
 21
0.1730000737205078
 72
     1
 10
1.205602841678699
 20
0.1730000737205078
 11
1.205602841678699
 21
0.1754254585818243
 72
     1
 10
1.205602841678699
 20
0.1754254585818245
 11
1.205602841678699
 21
0.1794366720063095
 72
     1
 10
1.205602841678699
 20
0.1794366720063094
 11
1.205602841678699
 21
0.1843807257620694
 72
     1
 10
1.205602841678699
 20
0.1843807257620694
 11
1.205602841678699
 21
0.1898844837165951
 72
     1
 10
1.205602841678699
 20
0.1898844837165951
 11
1.205602841678699
 21
0.1952949576379935
 72
     1
 10
1.205602841678699
 20
0.1952949576379937
 11
1.205602841678699
 21
0.2003322954268815
 72
     1
 10
1.205602841678699
 20
0.2003322954268814
 11
1.205602841678699
 21
0.2042502248182386
 72
     1
 10
1.205602841678699
 20
0.2042502248182386
 11
1.205602841678699
 21
0.206675609679555
 72
     1
 10
1.205602841678699
 20
0.206675609679555
 11
1.207468522341251
 21
0.206675609679555
 72
     1
 10
1.207468522341252
 20
0.206675609679555
 11
1.211293167699483
 21
0.206675609679555
 72
     1
 10
1.211293167699483
 20
0.206675609679555
 11
1.21670364162088
 21
0.206675609679555
 72
     1
 10
1.216703641620879
 20
0.206675609679555
 11
1.223420092006063
 21
0.206675609679555
 72
     1
 10
1.223420092006064
 20
0.206675609679555
 11
1.231255950788778
 21
0.206675609679555
 72
     1
 10
1.231255950788778
 20
0.206675609679555
 11
1.239744797803386
 21
0.206675609679555
 72
     1
 10
1.239744797803385
 20
0.206675609679555
 11
1.248886633049885
 21
0.206675609679555
 72
     1
 10
1.248886633049885
 20
0.206675609679555
 11
1.258121752329513
 21
0.206675609679555
 72
     1
 10
1.258121752329514
 20
0.206675609679555
 11
1.267356871609143
 21
0.206675609679555
 72
     1
 10
1.267356871609142
 20
0.206675609679555
 11
1.276218854756259
 21
0.206675609679555
 72
     1
 10
1.276218854756259
 20
0.206675609679555
 11
1.284521133704611
 21
0.206675609679555
 72
     1
 10
1.284521133704611
 20
0.206675609679555
 11
1.291890572321688
 21
0.206675609679555
 72
     1
 10
1.291890572321688
 20
0.206675609679555
 11
1.298140602541234
 21
0.206675609679555
 72
     1
 10
1.298140602541234
 20
0.206675609679555
 11
1.30289808823074
 21
0.206675609679555
 72
     1
 10
1.30289808823074
 20
0.206675609679555
 11
1.305976461323949
 21
0.206675609679555
 72
     1
 10
1.305976461323949
 20
0.206675609679555
 11
1.30709586972148
 21
0.206675609679555
 72
     1
 10
1.307095869721479
 20
0.206675609679555
 11
1.307095869721479
 21
0.2277578011663822
 72
     1
 10
1.307095869721479
 20
0.2277578011663825
 11
1.304577200827036
 21
0.2277578011663825
 72
     1
 10
1.304577200827037
 20
0.2277578011663825
 11
1.182188549363684
 21
0.2277578011663825
 72
     1
 10
1.182188549363684
 20
0.2277578011663825
 11
1.182188549363684
 21
0.0926825211976832
 72
     1
 10
1.182188549363684
 20
0.0926825211976832
 11
1.311853355410986
 21
0.0926825211976832
 72
     1
 10
1.311853355410985
 20
0.0926825211976832
 11
1.311853355410985
 21
0.113671428651383
 72
     1
 10
1.311853355410985
 20
0.1136714286513832
 11
1.310733947013454
 21
0.1136714286513832
 72
     1
 10
1.310733947013455
 20
0.1136714286513832
 11
1.307469005853991
 21
0.1136714286513832
 72
     1
 10
1.307469005853991
 20
0.1136714286513832
 11
1.302431668065102
 21
0.1136714286513832
 72
     1
 10
1.302431668065103
 20
0.1136714286513832
 11
1.295901785746174
 21
0.1136714286513832
 72
     1
 10
1.295901785746174
 20
0.1136714286513832
 11
1.288159210996586
 21
0.1136714286513832
 72
     1
 10
1.288159210996587
 20
0.1136714286513832
 11
1.279483795915724
 21
0.1136714286513832
 72
     1
 10
1.279483795915723
 20
0.1136714286513832
 11
1.270155392602968
 21
0.1136714286513832
 72
     1
 10
1.270155392602969
 20
0.1136714286513832
 11
1.260547137190832
 21
0.1136714286513832
 72
     1
 10
1.260547137190831
 20
0.1136714286513832
 11
1.250752313712437
 21
0.1136714286513832
 72
     1
 10
1.250752313712437
 20
0.1136714286513832
 11
1.241330626366554
 21
0.1136714286513832
 72
     1
 10
1.241330626366555
 20
0.1136714286513832
 11
1.23237535918631
 21
0.1136714286513832
 72
     1
 10
1.232375359186308
 20
0.1136714286513832
 11
1.224166364271082
 21
0.1136714286513832
 72
     1
 10
1.224166364271083
 20
0.1136714286513832
 11
1.217170061786517
 21
0.1136714286513832
 72
     1
 10
1.217170061786517
 20
0.1136714286513832
 11
1.211479735765737
 21
0.1136714286513832
 72
     1
 10
1.211479735765737
 20
0.1136714286513832
 11
1.20756180637438
 21
0.1136714286513832
 72
     1
 10
1.207561806374379
 20
0.1136714286513832
 11
1.2056028416787
 21
0.1136714286513832
 72
     1
 10
1.205602841678699
 20
0.1136714286513832
 11
1.205602841678699
 21
0.1163766656120825
 72
     1
 10
1.205602841678699
 20
0.1163766656120823
 11
1.205602841678699
 21
0.1209475832353323
 72
     1
 10
1.205602841678699
 20
0.1209475832353325
 11
1.205602841678699
 21
0.1267311932892411
 72
     1
 10
1.205602841678699
 20
0.1267311932892408
 11
1.205602841678699
 21
0.1330745075419143
 72
     1
 10
1.205602841678699
 20
0.1330745075419144
 11
1.205602841678699
 21
0.1395111058277156
 72
     1
 10
1.205602841678699
 20
0.1395111058277158
 11
1.205602841678699
 21
0.1452947158816239
 72
     1
 10
1.205602841678699
 20
0.145294715881624
 11
1.205602841678699
 21
0.1498656335048746
 72
     1
 10
1.205602841678699
 20
0.1498656335048745
 11
1.205602841678699
 21
0.1525708704655738
 97
        0
 75
     0
 76
     1
 98
        1
 10
-0.3743130907707726
 20
-0.2500502867693841
1001
ACAD
1010
0.0
1020
0.0
1030
0.0
  0
HATCH
  5
2256
330
2250
100
AcDbEntity
  8
Kawneer Logo-English
100
AcDbHatch
 10
0.0
 20
0.0
 30
0.0
210
0.0
220
0.0
230
1.0
  2
SOLID
 70
     1
 71
     0
 91
        1
 92
        1
 93
       87
 72
     1
 10
1.049352086190046
 20
0.1525708704655737
 11
1.051217766852597
 21
0.1525708704655737
 72
     1
 10
1.051217766852596
 20
0.1525708704655737
 11
1.054949128177699
 21
0.1525708704655737
 72
     1
 10
1.0549491281777
 20
0.1525708704655737
 11
1.060173034032843
 21
0.1525708704655737
 72
     1
 10
1.060173034032843
 20
0.1525708704655737
 11
1.0667962003849
 21
0.1525708704655737
 72
     1
 10
1.0667962003849
 20
0.1525708704655737
 11
1.074352207068231
 21
0.1525708704655737
 72
     1
 10
1.074352207068232
 20
0.1525708704655737
 11
1.082747770049711
 21
0.1525708704655737
 72
     1
 10
1.082747770049711
 20
0.1525708704655737
 11
1.0915164691637
 21
0.1525708704655737
 72
     1
 10
1.091516469163701
 20
0.1525708704655737
 11
1.100565020377075
 21
0.1525708704655737
 72
     1
 10
1.100565020377073
 20
0.1525708704655737
 11
1.109520287557319
 21
0.1525708704655737
 72
     1
 10
1.10952028755732
 20
0.1525708704655737
 11
1.118195702638183
 21
0.1525708704655737
 72
     1
 10
1.118195702638182
 20
0.1525708704655737
 11
1.126218129487151
 21
0.1525708704655737
 72
     1
 10
1.126218129487152
 20
0.1525708704655737
 11
1.133401000037974
 21
0.1525708704655737
 72
     1
 10
1.133401000037974
 20
0.1525708704655737
 11
1.139557746224391
 21
0.1525708704655737
 72
     1
 10
1.139557746224392
 20
0.1525708704655737
 11
1.14422194788077
 21
0.1525708704655737
 72
     1
 10
1.144221947880769
 20
0.1525708704655737
 11
1.147207036940851
 21
0.1525708704655737
 72
     1
 10
1.147207036940852
 20
0.1525708704655737
 11
1.148233161305255
 21
0.1525708704655737
 72
     1
 10
1.148233161305255
 20
0.1525708704655737
 11
1.148233161305255
 21
0.1730000737205081
 72
     1
 10
1.148233161305255
 20
0.1730000737205078
 11
1.147207036940852
 21
0.1730000737205078
 72
     1
 10
1.147207036940852
 20
0.1730000737205078
 11
1.14422194788077
 21
0.1730000737205078
 72
     1
 10
1.144221947880769
 20
0.1730000737205078
 11
1.139557746224391
 21
0.1730000737205078
 72
     1
 10
1.139557746224392
 20
0.1730000737205078
 11
1.133494284071101
 21
0.1730000737205078
 72
     1
 10
1.133494284071101
 20
0.1730000737205078
 11
1.126218129487152
 21
0.1730000737205078
 72
     1
 10
1.126218129487152
 20
0.1730000737205078
 11
1.118195702638183
 21
0.1730000737205078
 72
     1
 10
1.118195702638182
 20
0.1730000737205078
 11
1.10952028755732
 21
0.1730000737205078
 72
     1
 10
1.10952028755732
 20
0.1730000737205078
 11
1.100565020377074
 21
0.1730000737205078
 72
     1
 10
1.100565020377073
 20
0.1730000737205078
 11
1.0915164691637
 21
0.1730000737205078
 72
     1
 10
1.091516469163701
 20
0.1730000737205078
 11
1.082747770049712
 21
0.1730000737205078
 72
     1
 10
1.082747770049711
 20
0.1730000737205078
 11
1.074352207068231
 21
0.1730000737205078
 72
     1
 10
1.074352207068232
 20
0.1730000737205078
 11
1.0667962003849
 21
0.1730000737205078
 72
     1
 10
1.0667962003849
 20
0.1730000737205078
 11
1.060173034032843
 21
0.1730000737205078
 72
     1
 10
1.060173034032843
 20
0.1730000737205078
 11
1.054949128177701
 21
0.1730000737205078
 72
     1
 10
1.0549491281777
 20
0.1730000737205078
 11
1.051217766852597
 21
0.1730000737205078
 72
     1
 10
1.051217766852596
 20
0.1730000737205078
 11
1.049352086190045
 21
0.1730000737205078
 72
     1
 10
1.049352086190046
 20
0.1730000737205078
 11
1.049352086190046
 21
0.1754254585818243
 72
     1
 10
1.049352086190046
 20
0.1754254585818245
 11
1.049352086190046
 21
0.1794366720063095
 72
     1
 10
1.049352086190046
 20
0.1794366720063094
 11
1.049352086190046
 21
0.1843807257620694
 72
     1
 10
1.049352086190046
 20
0.1843807257620694
 11
1.049352086190046
 21
0.1898844837165951
 72
     1
 10
1.049352086190046
 20
0.1898844837165951
 11
1.049352086190046
 21
0.1952949576379935
 72
     1
 10
1.049352086190046
 20
0.1952949576379937
 11
1.049352086190046
 21
0.2003322954268815
 72
     1
 10
1.049352086190046
 20
0.2003322954268814
 11
1.049352086190046
 21
0.2042502248182386
 72
     1
 10
1.049352086190046
 20
0.2042502248182386
 11
1.049352086190046
 21
0.206675609679555
 72
     1
 10
1.049352086190046
 20
0.206675609679555
 11
1.051217766852597
 21
0.206675609679555
 72
     1
 10
1.051217766852596
 20
0.206675609679555
 11
1.055042412210825
 21
0.206675609679555
 72
     1
 10
1.055042412210827
 20
0.206675609679555
 11
1.060452886132226
 21
0.206675609679555
 72
     1
 10
1.060452886132225
 20
0.206675609679555
 11
1.067169336517409
 21
0.206675609679555
 72
     1
 10
1.06716933651741
 20
0.206675609679555
 11
1.075005195300124
 21
0.206675609679555
 72
     1
 10
1.075005195300123
 20
0.206675609679555
 11
1.083494042314731
 21
0.206675609679555
 72
     1
 10
1.083494042314732
 20
0.206675609679555
 11
1.092542593528105
 21
0.206675609679555
 72
     1
 10
1.092542593528106
 20
0.206675609679555
 11
1.10187099684086
 21
0.206675609679555
 72
     1
 10
1.101870996840861
 20
0.206675609679555
 11
1.111106116120489
 21
0.206675609679555
 72
     1
 10
1.111106116120488
 20
0.206675609679555
 11
1.119968099267605
 21
0.206675609679555
 72
     1
 10
1.119968099267605
 20
0.206675609679555
 11
1.128270378215957
 21
0.206675609679555
 72
     1
 10
1.128270378215957
 20
0.206675609679555
 11
1.135639816833034
 21
0.206675609679555
 72
     1
 10
1.135639816833034
 20
0.206675609679555
 11
1.14188984705258
 21
0.206675609679555
 72
     1
 10
1.141889847052581
 20
0.206675609679555
 11
1.146647332742086
 21
0.206675609679555
 72
     1
 10
1.146647332742086
 20
0.206675609679555
 11
1.149725705835295
 21
0.206675609679555
 72
     1
 10
1.149725705835296
 20
0.206675609679555
 11
1.150845114232827
 21
0.206675609679555
 72
     1
 10
1.150845114232826
 20
0.206675609679555
 11
1.150845114232826
 21
0.2277578011663822
 72
     1
 10
1.150845114232826
 20
0.2277578011663825
 11
1.148326445338383
 21
0.2277578011663825
 72
     1
 10
1.148326445338383
 20
0.2277578011663825
 11
1.025937793875031
 21
0.2277578011663825
 72
     1
 10
1.025937793875032
 20
0.2277578011663825
 11
1.025937793875032
 21
0.0926825211976832
 72
     1
 10
1.025937793875032
 20
0.0926825211976832
 11
1.155602599922332
 21
0.0926825211976832
 72
     1
 10
1.155602599922332
 20
0.0926825211976832
 11
1.155602599922332
 21
0.113671428651383
 72
     1
 10
1.155602599922332
 20
0.1136714286513832
 11
1.154483191524801
 21
0.1136714286513832
 72
     1
 10
1.154483191524799
 20
0.1136714286513832
 11
1.151218250365336
 21
0.1136714286513832
 72
     1
 10
1.151218250365338
 20
0.1136714286513832
 11
1.146180912576449
 21
0.1136714286513832
 72
     1
 10
1.146180912576449
 20
0.1136714286513832
 11
1.13965103025752
 21
0.1136714286513832
 72
     1
 10
1.13965103025752
 20
0.1136714286513832
 11
1.131908455507932
 21
0.1136714286513832
 72
     1
 10
1.131908455507931
 20
0.1136714286513832
 11
1.12323304042707
 21
0.1136714286513832
 72
     1
 10
1.123233040427071
 20
0.1136714286513832
 11
1.113904637114314
 21
0.1136714286513832
 72
     1
 10
1.113904637114314
 20
0.1136714286513832
 11
1.104296381702177
 21
0.1136714286513832
 72
     1
 10
1.104296381702177
 20
0.1136714286513832
 11
1.094501558223783
 21
0.1136714286513832
 72
     1
 10
1.094501558223784
 20
0.1136714286513832
 11
1.085079870877901
 21
0.1136714286513832
 72
     1
 10
1.085079870877899
 20
0.1136714286513832
 11
1.076124603697654
 21
0.1136714286513832
 72
     1
 10
1.076124603697655
 20
0.1136714286513832
 11
1.067915608782429
 21
0.1136714286513832
 72
     1
 10
1.067915608782429
 20
0.1136714286513832
 11
1.060919306297863
 21
0.1136714286513832
 72
     1
 10
1.060919306297863
 20
0.1136714286513832
 11
1.055228980277083
 21
0.1136714286513832
 72
     1
 10
1.055228980277082
 20
0.1136714286513832
 11
1.051311050885725
 21
0.1136714286513832
 72
     1
 10
1.051311050885726
 20
0.1136714286513832
 11
1.049352086190046
 21
0.1136714286513832
 72
     1
 10
1.049352086190046
 20
0.1136714286513832
 11
1.049352086190046
 21
0.1163766656120825
 72
     1
 10
1.049352086190046
 20
0.1163766656120823
 11
1.049352086190046
 21
0.1209475832353323
 72
     1
 10
1.049352086190046
 20
0.1209475832353325
 11
1.049352086190046
 21
0.1267311932892411
 72
     1
 10
1.049352086190046
 20
0.1267311932892408
 11
1.049352086190046
 21
0.1330745075419143
 72
     1
 10
1.049352086190046
 20
0.1330745075419144
 11
1.049352086190046
 21
0.1395111058277156
 72
     1
 10
1.049352086190046
 20
0.1395111058277158
 11
1.049352086190046
 21
0.1452947158816239
 72
     1
 10
1.049352086190046
 20
0.145294715881624
 11
1.049352086190046
 21
0.1498656335048746
 72
     1
 10
1.049352086190046
 20
0.1498656335048745
 11
1.049352086190046
 21
0.1525708704655738
 97
        0
 75
     0
 76
     1
 98
        1
 10
-0.3743130907707726
 20
-0.2500502867693841
1001
ACAD
1010
0.0
1020
0.0
1030
0.0
  0
HATCH
  5
2257
330
2250
100
AcDbEntity
  8
Kawneer Logo-English
100
AcDbHatch
 10
0.0
 20
0.0
 30
0.0
210
0.0
220
0.0
230
1.0
  2
SOLID
 70
     1
 71
     0
 91
        1
 92
        1
 93
       42
 72
     1
 10
0.9725793269260698
 20
0.2277578011663825
 11
0.9725793269260698
 21
0.1354998924032311
 72
     1
 10
0.9725793269260698
 20
0.1354998924032311
 11
0.9729524630585808
 21
0.1264513411898582
 72
     1
 10
0.9729524630585796
 20
0.1264513411898583
 11
0.9729524630585796
 21
0.1255185008585825
 72
     1
 10
0.9729524630585796
 20
0.1255185008585824
 11
0.9731390311248343
 21
0.1238393882622866
 72
     1
 10
0.9731390311248349
 20
0.1238393882622866
 11
0.9717397706279211
 21
0.1254252168254551
 72
     1
 10
0.97173977062792
 20
0.1254252168254551
 11
0.9710867823960281
 21
0.1262647731236031
 72
     1
 10
0.9710867823960294
 20
0.1262647731236031
 11
0.9641837639445897
 21
0.1339140638400625
 72
     1
 10
0.9641837639445899
 20
0.1339140638400624
 11
0.8755639324734129
 21
0.2277578011663823
 72
     1
 10
0.8755639324734115
 20
0.2277578011663825
 11
0.8529891964565429
 21
0.2277578011663825
 72
     1
 10
0.8529891964565434
 20
0.2277578011663825
 11
0.8529891964565434
 21
0.0926825211976832
 72
     1
 10
0.8529891964565434
 20
0.0926825211976832
 11
0.8756572165065401
 21
0.0926825211976832
 72
     1
 10
0.875657216506541
 20
0.0926825211976832
 11
0.875657216506541
 21
0.1927762887435495
 72
     1
 10
0.875657216506541
 20
0.1927762887435495
 11
0.875657216506541
 21
0.1931494248760597
 72
     1
 10
0.875657216506541
 20
0.1931494248760596
 11
0.8755639324734129
 21
0.193988981174208
 72
     1
 10
0.8755639324734115
 20
0.1939889811742079
 11
0.8754706484402849
 21
0.1952949576379935
 72
     1
 10
0.8754706484402859
 20
0.1952949576379937
 11
0.8753773644071577
 21
0.1967875021680344
 72
     1
 10
0.875377364407158
 20
0.1967875021680343
 11
0.8755639324734126
 21
0.1965076500686515
 72
     1
 10
0.8755639324734115
 20
0.1965076500686517
 11
0.8756572165065396
 21
0.1963210820023967
 72
     1
 10
0.875657216506541
 20
0.1963210820023967
 11
0.8764967728046894
 21
0.1954815257042487
 72
     1
 10
0.8764967728046887
 20
0.1954815257042488
 11
0.8781758854009835
 21
0.1936158450416976
 72
     1
 10
0.8781758854009842
 20
0.1936158450416973
 11
0.8797617139641527
 21
0.1917501643791464
 72
     1
 10
0.879761713964152
 20
0.1917501643791466
 11
0.8805079862291723
 21
0.1909106080809982
 72
     1
 10
0.8805079862291727
 20
0.190910608080998
 11
0.8816273946267036
 21
0.1897911996834678
 72
     1
 10
0.8816273946267028
 20
0.1897911996834681
 11
0.884519199653657
 21
0.1867128265902584
 72
     1
 10
0.8845191996536581
 20
0.1867128265902582
 11
0.8891834013100353
 21
0.1818620568676254
 72
     1
 10
0.889183401310035
 20
0.1818620568676252
 11
0.8951535794301982
 21
0.1756120266480794
 72
     1
 10
0.8951535794301985
 20
0.1756120266480794
 11
0.9021498819147662
 21
0.1681493039978751
 72
     1
 10
0.9021498819147669
 20
0.1681493039978752
 11
0.9099857406974814
 21
0.1598470250495227
 72
     1
 10
0.9099857406974813
 20
0.1598470250495225
 11
0.9183813036789613
 21
0.1509850419024051
 72
     1
 10
0.9183813036789612
 20
0.1509850419024052
 11
0.9271500027929521
 21
0.1418432066559046
 72
     1
 10
0.9271500027929509
 20
0.1418432066559046
 11
0.9358254178738118
 21
0.1326080873762767
 72
     1
 10
0.9358254178738132
 20
0.1326080873762767
 11
0.9442209808552931
 21
0.1237461042291589
 72
     1
 10
0.9442209808552931
 20
0.1237461042291589
 11
0.9520568396380092
 21
0.1154438252808068
 72
     1
 10
0.9520568396380092
 20
0.1154438252808068
 11
0.9590531421225751
 21
0.1079811026306025
 72
     1
 10
0.959053142122574
 20
0.1079811026306024
 11
0.9650233202427372
 21
0.101731072411056
 72
     1
 10
0.9650233202427376
 20
0.101731072411056
 11
0.9695942378659868
 21
0.0968803026884232
 72
     1
 10
0.9695942378659871
 20
0.096880302688423
 11
0.9725793269260696
 21
0.0938019295952138
 72
     1
 10
0.9725793269260698
 20
0.093801929595214
 11
0.9736054512904727
 21
0.0926825211976834
 72
     1
 10
0.9736054512904726
 20
0.0926825211976832
 11
0.9952473469760661
 21
0.0926825211976832
 72
     1
 10
0.9952473469760651
 20
0.0926825211976832
 11
0.9952473469760651
 21
0.2277578011663825
 72
     1
 10
0.9952473469760651
 20
0.2277578011663825
 11
0.9927286780816201
 21
0.2277578011663825
 72
     1
 10
0.9927286780816203
 20
0.2277578011663825
 11
0.9725793269260686
 21
0.2277578011663825
 97
        0
 75
     0
 76
     1
 98
        1
 10
-0.3743130907707726
 20
-0.2500502867693841
1001
ACAD
1010
0.0
1020
0.0
1030
0.0
  0
HATCH
  5
2258
330
2250
100
AcDbEntity
  8
Kawneer Logo-English
100
AcDbHatch
 10
0.0
 20
0.0
 30
0.0
210
0.0
220
0.0
230
1.0
  2
SOLID
 70
     1
 71
     0
 91
        2
 92
       16
 93
       32
 72
     1
 10
0.5269615006757409
 20
0.144641727649731
 11
0.5290137494045469
 21
0.148652941074216
 72
     1
 10
0.5290137494045464
 20
0.1486529410742159
 11
0.5322786905640116
 21
0.1551828233931449
 72
     1
 10
0.532278690564012
 20
0.1551828233931452
 11
0.5364764720547521
 21
0.1633918183083696
 72
     1
 10
0.5364764720547526
 20
0.1633918183083696
 11
0.5409541056448736
 21
0.1722538014554874
 72
     1
 10
0.5409541056448726
 20
0.1722538014554873
 11
0.545338455201869
 21
0.1808359325032223
 72
     1
 10
0.5453384552018701
 20
0.1808359325032223
 11
0.5490698165269726
 21
0.1882053711202994
 72
     1
 10
0.549069816526973
 20
0.1882053711202996
 11
0.5515884854214162
 21
0.1932427089091875
 72
     1
 10
0.5515884854214148
 20
0.1932427089091872
 11
0.5526146097858177
 21
0.1952016736048658
 72
     1
 10
0.5526146097858194
 20
0.1952016736048658
 11
0.552801177852074
 21
0.195761377803631
 72
     1
 10
0.5528011778520723
 20
0.1957613778036309
 11
0.5533608820508379
 21
0.1970673542674166
 72
     1
 10
0.5533608820508378
 20
0.1970673542674169
 11
0.5542004383489863
 21
0.1990263189630955
 72
     1
 10
0.5542004383489872
 20
0.1990263189630952
 11
0.5550399946471356
 21
0.2012651357581567
 72
     1
 10
0.5550399946471352
 20
0.2012651357581567
 11
0.5555064148127727
 21
0.2001457273606265
 72
     1
 10
0.5555064148127729
 20
0.2001457273606264
 11
0.5560661190115385
 21
0.198933034929968
 72
     1
 10
0.5560661190115379
 20
0.198933034929968
 11
0.5567191072434298
 21
0.197533774433055
 72
     1
 10
0.5567191072434304
 20
0.197533774433055
 11
0.5574653795084506
 21
0.1959479458698865
 72
     1
 10
0.557465379508451
 20
0.1959479458698865
 11
0.5583049358065995
 21
0.1942688332735902
 72
     1
 10
0.5583049358065986
 20
0.1942688332735903
 11
0.5606370366347874
 21
0.1896046316172126
 72
     1
 10
0.5606370366347871
 20
0.1896046316172126
 11
0.5639952618273804
 21
0.1828881812320289
 72
     1
 10
0.5639952618273814
 20
0.1828881812320287
 11
0.5680064752518651
 21
0.1748657543830587
 72
     1
 10
0.5680064752518637
 20
0.1748657543830589
 11
0.57239082480886
 21
0.1661903393021966
 72
     1
 10
0.5723908248088612
 20
0.1661903393021967
 11
0.5765886062996012
 21
0.1577947763207168
 72
     1
 10
0.5765886062996
 20
0.1577947763207165
 11
0.5803199676247008
 21
0.1503320536705122
 72
     1
 10
0.5803199676247015
 20
0.1503320536705122
 11
0.5831184886185295
 21
0.144641727649731
 72
     1
 10
0.5831184886185295
 20
0.144641727649731
 11
0.5791072751940441
 21
0.144641727649731
 72
     1
 10
0.5791072751940436
 20
0.144641727649731
 11
0.5724841088419869
 21
0.144641727649731
 72
     1
 10
0.5724841088419872
 20
0.144641727649731
 11
0.5641818298936356
 21
0.144641727649731
 72
     1
 10
0.5641818298936352
 20
0.144641727649731
 11
0.5550399946471351
 21
0.144641727649731
 72
     1
 10
0.5550399946471352
 20
0.144641727649731
 11
0.5458981594006351
 21
0.144641727649731
 72
     1
 10
0.5458981594006352
 20
0.144641727649731
 11
0.5375958804522815
 21
0.144641727649731
 72
     1
 10
0.5375958804522814
 20
0.144641727649731
 11
0.5310659981333528
 21
0.144641727649731
 72
     1
 10
0.5310659981333524
 20
0.144641727649731
 11
0.5269615006757405
 21
0.144641727649731
 97
        0
 92
        1
 93
      141
 72
     1
 10
0.5656743744236757
 20
0.2277578011663825
 11
0.544405614870593
 21
0.2277578011663825
 72
     1
 10
0.544405614870593
 20
0.2277578011663825
 11
0.4748157261574382
 21
0.0934287934627039
 72
     1
 10
0.4748157261574378
 20
0.0934287934627039
 11
0.4729500454948865
 21
0.0955743262246376
 72
     1
 10
0.4729500454948874
 20
0.0955743262246376
 11
0.4699649564348049
 21
0.0991191194834847
 72
     1
 10
0.4699649564348043
 20
0.0991191194834847
 11
0.4661403110765752
 21
0.1036900371067346
 72
     1
 10
0.4661403110765754
 20
0.1036900371067347
 11
0.4615693934533244
 21
0.1091005110281331
 72
     1
 10
0.461569393453325
 20
0.109100511028133
 11
0.456345487598182
 21
0.1152572572145517
 72
     1
 10
0.4563454875981812
 20
0.1152572572145516
 11
0.4506551615774008
 21
0.1219737075997353
 72
     1
 10
0.4506551615774015
 20
0.1219737075997354
 11
0.4447782674903648
 21
0.1290632941174296
 72
     1
 10
0.4447782674903636
 20
0.1290632941174296
 11
0.4387148053370722
 21
0.1362461646682511
 72
     1
 10
0.4387148053370727
 20
0.1362461646682512
 11
0.4326513431837832
 21
0.1433357511859454
 72
     1
 10
0.4326513431837844
 20
0.1433357511859453
 11
0.4268677331298759
 21
0.1502387696373844
 72
     1
 10
0.4268677331298756
 20
0.1502387696373844
 11
0.4214572592084763
 21
0.1566753679231857
 72
     1
 10
0.4214572592084754
 20
0.1566753679231858
 11
0.4165132054527153
 21
0.1625522620102216
 72
     1
 10
0.4165132054527163
 20
0.1625522620102216
 11
0.4123154239619763
 21
0.1674963157659821
 72
     1
 10
0.4123154239619753
 20
0.1674963157659822
 11
0.4088639147362555
 21
0.1715075291904667
 72
     1
 10
0.4088639147362568
 20
0.1715075291904669
 11
0.4065318139080681
 21
0.1743993342174211
 72
     1
 10
0.4065318139080665
 20
0.1743993342174211
 11
0.405319121477409
 21
0.1757985947143345
 72
     1
 10
0.4053191214774104
 20
0.1757985947143345
 11
0.4067183819743243
 21
0.1769180031118651
 72
     1
 10
0.4067183819743235
 20
0.1769180031118651
 11
0.4094236189350213
 21
0.1788769678075437
 72
     1
 10
0.4094236189350218
 20
0.1788769678075437
 11
0.4132482642932526
 21
0.1816754888013702
 72
     1
 10
0.4132482642932525
 20
0.1816754888013703
 11
0.4179124659496298
 21
0.1852202820602174
 72
     1
 10
0.417912465949629
 20
0.1852202820602174
 11
0.4232296558379
 21
0.189138211451575
 72
     1
 10
0.4232296558379001
 20
0.1891382114515751
 11
0.4291065499249351
 21
0.1935225610085696
 72
     1
 10
0.4291065499249367
 20
0.1935225610085698
 11
0.4352632961113562
 21
0.1981867626649482
 72
     1
 10
0.4352632961113554
 20
0.1981867626649479
 11
0.4416066103640296
 21
0.2028509643213252
 72
     1
 10
0.4416066103640293
 20
0.2028509643213252
 11
0.4479499246167016
 21
0.2076084500108307
 72
     1
 10
0.4479499246167018
 20
0.2076084500108307
 11
0.4540133867699932
 21
0.2120860836009535
 72
     1
 10
0.4540133867699927
 20
0.2120860836009535
 11
0.4596104287576467
 21
0.2162838650916932
 72
     1
 10
0.4596104287576468
 20
0.216283865091693
 11
0.4646477665465351
 21
0.2200152264167952
 72
     1
 10
0.464647766546535
 20
0.2200152264167951
 11
0.4689388320704013
 21
0.223186883543132
 72
     1
 10
0.4689388320704016
 20
0.2231868835431323
 11
0.4721104891967386
 21
0.2256122684044488
 72
     1
 10
0.4721104891967376
 20
0.2256122684044488
 11
0.4742560219586717
 21
0.2271980969676172
 72
     1
 10
0.4742560219586727
 20
0.2271980969676173
 11
0.475002294223693
 21
0.2277578011663825
 72
     1
 10
0.4750022942236929
 20
0.2277578011663825
 11
0.4674462875403612
 21
0.2277578011663825
 72
     1
 10
0.4674462875403611
 20
0.2277578011663825
 11
0.4395543616352215
 21
0.2277578011663825
 72
     1
 10
0.439554361635222
 20
0.2277578011663825
 11
0.4386215213039473
 21
0.2270115289013622
 72
     1
 10
0.4386215213039466
 20
0.2270115289013622
 11
0.4359162843432469
 21
0.2250525642056836
 72
     1
 10
0.4359162843432465
 20
0.2250525642056836
 11
0.4318117868856346
 21
0.2220674751456017
 72
     1
 10
0.4318117868856351
 20
0.2220674751456017
 11
0.4264013129642376
 21
0.2180562617211167
 72
     1
 10
0.4264013129642379
 20
0.2180562617211168
 11
0.4200579987115638
 21
0.2132987760316117
 72
     1
 10
0.4200579987115641
 20
0.2132987760316114
 11
0.4128751281607416
 21
0.2079815861433408
 72
     1
 10
0.4128751281607408
 20
0.2079815861433408
 11
0.4051325534111546
 21
0.20229126012256
 72
     1
 10
0.4051325534111552
 20
0.20229126012256
 11
0.397016842529058
 21
0.1963210820023964
 72
     1
 10
0.3970168425290583
 20
0.1963210820023967
 11
0.3889011316469611
 21
0.1903509038822331
 72
     1
 10
0.3889011316469611
 20
0.190350903882233
 11
0.3808787047979902
 21
0.1844740097951972
 72
     1
 10
0.3808787047979898
 20
0.1844740097951974
 11
0.3733226981146581
 21
0.1787836837744166
 72
     1
 10
0.373322698114658
 20
0.1787836837744166
 11
0.3663263956300919
 21
0.173653061952401
 72
     1
 10
0.3663263956300931
 20
0.173653061952401
 11
0.3601696494436735
 21
0.169082144329151
 72
     1
 10
0.3601696494436726
 20
0.1690821443291508
 11
0.3550390276216579
 21
0.1653507830040483
 72
     1
 10
0.3550390276216584
 20
0.1653507830040482
 11
0.3513076662965558
 21
0.1625522620102218
 72
     1
 10
0.3513076662965551
 20
0.1625522620102216
 11
0.3490688495014928
 21
0.1609664334470531
 72
     1
 10
0.3490688495014926
 20
0.1609664334470531
 11
0.3490688495014926
 21
0.1631119662089868
 72
     1
 10
0.3490688495014926
 20
0.1631119662089868
 11
0.3490688495014926
 21
0.1662836233353237
 72
     1
 10
0.3490688495014926
 20
0.1662836233353238
 11
0.3490688495014926
 21
0.1702948367598088
 72
     1
 10
0.3490688495014926
 20
0.1702948367598088
 11
0.3490688495014926
 21
0.1749590384161865
 72
     1
 10
0.3490688495014926
 20
0.1749590384161865
 11
0.3490688495014926
 21
0.1801829442713294
 72
     1
 10
0.3490688495014926
 20
0.1801829442713296
 11
0.3490688495014926
 21
0.185779986258983
 72
     1
 10
0.3490688495014926
 20
0.1857799862589829
 11
0.3490688495014926
 21
0.1916568803460187
 72
     1
 10
0.3490688495014926
 20
0.1916568803460186
 11
0.3490688495014926
 21
0.1975337744330549
 72
     1
 10
0.3490688495014926
 20
0.197533774433055
 11
0.3490688495014926
 21
0.2033173844869632
 72
     1
 10
0.3490688495014926
 20
0.2033173844869631
 11
0.3490688495014926
 21
0.2088211424414888
 72
     1
 10
0.3490688495014926
 20
0.2088211424414888
 11
0.3490688495014926
 21
0.2139517642635044
 72
     1
 10
0.3490688495014926
 20
0.2139517642635044
 11
0.3490688495014926
 21
0.2185226818867544
 72
     1
 10
0.3490688495014926
 20
0.2185226818867545
 11
0.3490688495014926
 21
0.2222540432118567
 72
     1
 10
0.3490688495014926
 20
0.2222540432118567
 11
0.3490688495014926
 21
0.2252391322719387
 72
     1
 10
0.3490688495014926
 20
0.2252391322719387
 11
0.3490688495014926
 21
0.2271048129344895
 72
     1
 10
0.3490688495014926
 20
0.2271048129344895
 11
0.3490688495014926
 21
0.2277578011663825
 72
     1
 10
0.3490688495014926
 20
0.2277578011663825
 11
0.3258411252527322
 21
0.2277578011663825
 72
     1
 10
0.3258411252527336
 20
0.2277578011663825
 11
0.3258411252527336
 21
0.0926825211976832
 72
     1
 10
0.3258411252527336
 20
0.0926825211976832
 11
0.3486957133689848
 21
0.0926825211976832
 72
     1
 10
0.3486957133689845
 20
0.0926825211976832
 11
0.3486957133689845
 21
0.0943616337939795
 72
     1
 10
0.3486957133689845
 20
0.0943616337939795
 11
0.3486957133689845
 21
0.0988392673841017
 72
     1
 10
0.3486957133689845
 20
0.0988392673841017
 11
0.3486957133689845
 21
0.1051825816367752
 72
     1
 10
0.3486957133689845
 20
0.1051825816367753
 11
0.3486957133689845
 21
0.1125520202538523
 72
     1
 10
0.3486957133689845
 20
0.1125520202538524
 11
0.3486957133689845
 21
0.1200147429040567
 72
     1
 10
0.3486957133689845
 20
0.1200147429040567
 11
0.3486957133689845
 21
0.1267311932892408
 72
     1
 10
0.3486957133689845
 20
0.1267311932892408
 11
0.3486957133689845
 21
0.1317685310781287
 72
     1
 10
0.3486957133689845
 20
0.1317685310781289
 11
0.3486957133689845
 21
0.1342871999725727
 72
     1
 10
0.3486957133689845
 20
0.1342871999725725
 11
0.3507479620977905
 21
0.1356864604694859
 72
     1
 10
0.35074796209779
 20
0.1356864604694859
 11
0.3548524595554018
 21
0.1387648335626952
 72
     1
 10
0.3548524595554015
 20
0.1387648335626952
 11
0.3605427855761835
 21
0.1428693310203079
 72
     1
 10
0.3605427855761842
 20
0.1428693310203079
 11
0.3668860998288565
 21
0.1476268167098129
 72
     1
 10
0.3668860998288568
 20
0.1476268167098129
 11
0.373322698114659
 21
0.1522910183661906
 72
     1
 10
0.373322698114658
 20
0.1522910183661908
 11
0.3791995922016947
 21
0.1565820838900582
 72
     1
 10
0.3791995922016946
 20
0.1565820838900582
 11
0.3836772257918156
 21
0.1599403090826502
 72
     1
 10
0.3836772257918159
 20
0.1599403090826503
 11
0.386195894686261
 21
0.1618059897452011
 72
     1
 10
0.3861958946862609
 20
0.1618059897452011
 11
0.3873153030837921
 21
0.1604067292482882
 72
     1
 10
0.3873153030837915
 20
0.1604067292482878
 11
0.3894608358457238
 21
0.1577947763207163
 72
     1
 10
0.3894608358457248
 20
0.1577947763207165
 11
0.3925392089389353
 21
0.1541566990287417
 72
     1
 10
0.3925392089389348
 20
0.1541566990287417
 11
0.396457138330292
 21
0.149492497372364
 72
     1
 10
0.3964571383302933
 20
0.149492497372364
 11
0.4009347719204161
 21
0.1442685915172211
 72
     1
 10
0.4009347719204146
 20
0.1442685915172209
 11
0.4057855416430466
 21
0.138391697430185
 72
     1
 10
0.4057855416430463
 20
0.1383916974301853
 11
0.4109161634650628
 21
0.1322349512437666
 72
     1
 10
0.410916163465064
 20
0.1322349512437666
 11
0.4162333533533335
 21
0.1259849210242201
 72
     1
 10
0.4162333533533334
 20
0.1259849210242201
 11
0.4215505432416044
 21
0.1196416067715466
 72
     1
 10
0.4215505432416045
 20
0.1196416067715466
 11
0.4265878810304927
 21
0.113671428651383
 72
     1
 10
0.4265878810304931
 20
0.1136714286513832
 11
0.4312520826868704
 21
0.1079811026306024
 72
     1
 10
0.4312520826868696
 20
0.1079811026306024
 11
0.4355431482107378
 21
0.1029437648417141
 72
     1
 10
0.435543148210738
 20
0.1029437648417139
 11
0.4390879414695842
 21
0.0987459833509739
 72
     1
 10
0.4390879414695843
 20
0.0987459833509741
 11
0.4417931784302841
 21
0.0954810421915098
 72
     1
 10
0.4417931784302845
 20
0.0954810421915096
 11
0.4435655750597076
 21
0.0934287934627037
 72
     1
 10
0.4435655750597074
 20
0.0934287934627039
 11
0.4442185632915993
 21
0.0926825211976832
 72
     1
 10
0.4442185632915985
 20
0.0926825211976832
 11
0.4743493059918004
 21
0.0926825211976832
 72
     1
 10
0.4743493059918001
 20
0.0926825211976832
 11
0.4753754303562029
 21
0.0926825211976832
 72
     1
 10
0.4753754303562033
 20
0.0926825211976832
 11
0.5008419714000258
 21
0.0926825211976832
 72
     1
 10
0.5008419714000265
 20
0.0926825211976832
 11
0.5014949596319184
 21
0.0939884976614689
 72
     1
 10
0.501494959631919
 20
0.0939884976614688
 11
0.5031740722282155
 21
0.0973467228540609
 72
     1
 10
0.503174072228215
 20
0.0973467228540612
 11
0.5055061730564038
 21
0.1021042085435666
 72
     1
 10
0.505506173056403
 20
0.1021042085435665
 11
0.5083046940502291
 21
0.1077012505312196
 72
     1
 10
0.5083046940502292
 20
0.1077012505312194
 11
0.5111032150440553
 21
0.1134848605851279
 72
     1
 10
0.5111032150440549
 20
0.1134848605851281
 11
0.5137151679716264
 21
0.1186154824071433
 72
     1
 10
0.5137151679716277
 20
0.1186154824071433
 11
0.5156741326673071
 21
0.1226266958316283
 72
     1
 10
0.5156741326673076
 20
0.122626695831628
 11
0.5167002570317104
 21
0.1247722285935621
 72
     1
 10
0.5167002570317103
 20
0.1247722285935622
 11
0.5180062334954961
 21
0.1247722285935622
 72
     1
 10
0.5180062334954961
 20
0.1247722285935622
 11
0.5207114704561957
 21
0.1247722285935622
 72
     1
 10
0.5207114704561944
 20
0.1247722285935622
 11
0.5246293998475517
 21
0.1247722285935622
 72
     1
 10
0.5246293998475525
 20
0.1247722285935622
 11
0.5295734536033125
 21
0.1247722285935622
 72
     1
 10
0.5295734536033115
 20
0.1247722285935622
 11
0.5352637796240919
 21
0.1247722285935622
 72
     1
 10
0.5352637796240929
 20
0.1247722285935622
 11
0.5415138098436386
 21
0.1247722285935622
 72
     1
 10
0.5415138098436394
 20
0.1247722285935622
 11
0.5482302602288245
 21
0.1247722285935622
 72
     1
 10
0.5482302602288236
 20
0.1247722285935622
 11
0.5551332786802616
 21
0.1247722285935622
 72
     1
 10
0.5551332786802608
 20
0.1247722285935622
 11
0.5620362971317004
 21
0.1247722285935622
 72
     1
 10
0.5620362971317015
 20
0.1247722285935622
 11
0.5687527475168847
 21
0.1247722285935622
 72
     1
 10
0.5687527475168839
 20
0.1247722285935622
 11
0.5750027777364317
 21
0.1247722285935622
 72
     1
 10
0.5750027777364322
 20
0.1247722285935622
 11
0.5806931037572126
 21
0.1247722285935622
 72
     1
 10
0.5806931037572119
 20
0.1247722285935622
 11
0.585637157512972
 21
0.1247722285935622
 72
     1
 10
0.5856371575129727
 20
0.1247722285935622
 11
0.5895550869043299
 21
0.1247722285935622
 72
     1
 10
0.5895550869043289
 20
0.1247722285935622
 11
0.5922603238650286
 21
0.1247722285935622
 72
     1
 10
0.5922603238650291
 20
0.1247722285935622
 11
0.5935663003288148
 21
0.1247722285935622
 72
     1
 10
0.5935663003288148
 20
0.1247722285935622
 11
0.5945924246932176
 21
0.1226266958316281
 72
     1
 10
0.5945924246932175
 20
0.122626695831628
 11
0.5965513893888953
 21
0.1186154824071431
 72
     1
 10
0.5965513893888957
 20
0.1186154824071433
 11
0.5991633423164672
 21
0.1134848605851281
 72
     1
 10
0.5991633423164667
 20
0.1134848605851281
 11
0.6019618633102946
 21
0.1077012505312196
 72
     1
 10
0.6019618633102959
 20
0.1077012505312194
 11
0.604760384304122
 21
0.1021042085435664
 72
     1
 10
0.6047603843041221
 20
0.1021042085435665
 11
0.6070924851323109
 21
0.0973467228540611
 72
     1
 10
0.6070924851323101
 20
0.0973467228540612
 11
0.6087715977286067
 21
0.0939884976614691
 72
     1
 10
0.6087715977286062
 20
0.0939884976614688
 11
0.609424585960498
 21
0.0926825211976832
 72
     1
 10
0.6094245859604986
 20
0.0926825211976832
 11
0.6363836715343633
 21
0.0926825211976832
 72
     1
 10
0.6363836715343641
 20
0.0926825211976832
 11
0.5671669189537184
 21
0.2277578011663825
 72
     1
 10
0.5671669189537179
 20
0.2277578011663825
 11
0.5656743744236758
 21
0.2277578011663825
 97
        0
 75
     0
 76
     1
 98
        1
 10
-0.3743130907707726
 20
-0.2500502867693841
1001
ACAD
1010
0.0
1020
0.0
1030
0.0
  0
HATCH
  5
2259
330
2250
100
AcDbEntity
  8
Kawneer Logo-English
100
AcDbHatch
 10
0.0
 20
0.0
 30
0.0
210
0.0
220
0.0
230
1.0
  2
SOLID
 70
     1
 71
     0
 91
        1
 92
        1
 93
       69
 72
     1
 10
0.8092389849197205
 20
0.2277578011663825
 11
0.778921674153266
 21
0.1309289747799811
 72
     1
 10
0.778921674153267
 20
0.1309289747799809
 11
0.7781754018882468
 21
0.1287834420180468
 72
     1
 10
0.7781754018882468
 20
0.1287834420180467
 11
0.7776156976894812
 21
0.1270110453886236
 72
     1
 10
0.7776156976894813
 20
0.1270110453886237
 11
0.7771492775238438
 21
0.1253319327923275
 72
     1
 10
0.7771492775238436
 20
0.1253319327923274
 11
0.7766828573582045
 21
0.1238393882622867
 72
     1
 10
0.7766828573582046
 20
0.1238393882622866
 11
0.7764030052588217
 21
0.1248655126266895
 72
     1
 10
0.776403005258822
 20
0.1248655126266896
 11
0.7761231531594392
 21
0.1259849210242202
 72
     1
 10
0.7761231531594391
 20
0.1259849210242201
 11
0.7759365850931844
 21
0.1268244773223681
 72
     1
 10
0.7759365850931843
 20
0.1268244773223682
 11
0.7758433010600562
 21
0.1271976134548783
 72
     1
 10
0.7758433010600552
 20
0.1271976134548783
 11
0.7755634489606744
 21
0.1280371697530267
 72
     1
 10
0.775563448960674
 20
0.1280371697530267
 11
0.7750970287950349
 21
0.1291565781505569
 72
     1
 10
0.7750970287950363
 20
0.1291565781505568
 11
0.773977620397507
 21
0.1323282352768938
 72
     1
 10
0.7739776203975062
 20
0.1323282352768939
 11
0.7721119397349549
 21
0.1372722890326544
 72
     1
 10
0.7721119397349554
 20
0.1372722890326546
 11
0.7697798389067666
 21
0.1436156032853281
 72
     1
 10
0.769779838906767
 20
0.1436156032853281
 11
0.7670746019460673
 21
0.1511716099686602
 72
     1
 10
0.7670746019460668
 20
0.15117160996866
 11
0.7639962288528581
 21
0.1595671729501399
 72
     1
 10
0.7639962288528582
 20
0.15956717295014
 11
0.7606380036602665
 21
0.1686157241635125
 72
     1
 10
0.7606380036602652
 20
0.1686157241635125
 11
0.7572797784676718
 21
0.1778508434431408
 72
     1
 10
0.7572797784676726
 20
0.1778508434431408
 11
0.753921553275081
 21
0.187179246755896
 72
     1
 10
0.7539215532750814
 20
0.1871792467558961
 11
0.7505633280824898
 21
0.1962277979692689
 72
     1
 10
0.7505633280824902
 20
0.1962277979692689
 11
0.7474849549892814
 21
0.2046233609507488
 72
     1
 10
0.7474849549892797
 20
0.2046233609507488
 11
0.74477971802858
 21
0.2121793676340809
 72
     1
 10
0.7447797180285814
 20
0.2121793676340809
 11
0.7424476172003926
 21
0.2185226818867544
 72
     1
 10
0.7424476172003929
 20
0.2185226818867545
 11
0.7405819365378416
 21
0.2234667356425151
 72
     1
 10
0.7405819365378408
 20
0.2234667356425151
 11
0.7394625281403098
 21
0.2266383927688516
 72
     1
 10
0.7394625281403103
 20
0.2266383927688516
 11
0.7390893920078009
 21
0.2277578011663822
 72
     1
 10
0.7390893920078004
 20
0.2277578011663825
 11
0.7191266089185034
 21
0.2277578011663825
 72
     1
 10
0.7191266089185029
 20
0.2277578011663825
 11
0.6843316645619254
 21
0.1336342117406798
 72
     1
 10
0.6843316645619267
 20
0.1336342117406795
 11
0.6832122561643957
 21
0.130649122680598
 72
     1
 10
0.6832122561643961
 20
0.1306491226805981
 11
0.6823726998662476
 21
0.1282237378192816
 72
     1
 10
0.6823726998662468
 20
0.1282237378192818
 11
0.6817197116343549
 21
0.1260782050573481
 72
     1
 10
0.6817197116343552
 20
0.1260782050573481
 11
0.6811600074355896
 21
0.1241192403616695
 72
     1
 10
0.6811600074355884
 20
0.1241192403616695
 11
0.6808801553362055
 21
0.1250520806929446
 72
     1
 10
0.6808801553362059
 20
0.1250520806929445
 11
0.6805070192036949
 21
0.1261714890904751
 72
     1
 10
0.680507019203696
 20
0.1261714890904752
 11
0.6802271671043131
 21
0.1272908974880058
 72
     1
 10
0.680227167104313
 20
0.1272908974880061
 11
0.6798540309718037
 21
0.1286901579849195
 72
     1
 10
0.6798540309718031
 20
0.1286901579849194
 11
0.6794808948392922
 21
0.12980956638245
 72
     1
 10
0.6794808948392932
 20
0.1298095663824503
 11
0.6784547704748904
 21
0.1328879394756595
 72
     1
 10
0.67845477047489
 20
0.1328879394756595
 11
0.6769622259448497
 21
0.1378319932314196
 72
     1
 10
0.6769622259448496
 20
0.1378319932314196
 11
0.6750032612491701
 21
0.1441753074840938
 72
     1
 10
0.6750032612491697
 20
0.1441753074840937
 11
0.6725778763878547
 21
0.1516380301342981
 72
     1
 10
0.6725778763878556
 20
0.1516380301342981
 11
0.6699659234602841
 21
0.160033593115778
 72
     1
 10
0.6699659234602829
 20
0.160033593115778
 11
0.6671674024664549
 21
0.168988860296023
 72
     1
 10
0.6671674024664554
 20
0.168988860296023
 11
0.6642755974395012
 21
0.1782239795756509
 72
     1
 10
0.6642755974395019
 20
0.178223979575651
 11
0.6613837924125477
 21
0.1874590988552789
 72
     1
 10
0.6613837924125466
 20
0.1874590988552789
 11
0.6585852714187205
 21
0.1964143660355239
 72
     1
 10
0.6585852714187204
 20
0.1964143660355237
 11
0.6559733184911489
 21
0.2047166449838762
 72
     1
 10
0.6559733184911494
 20
0.2047166449838765
 11
0.6536412176629606
 21
0.2122726516672082
 72
     1
 10
0.6536412176629614
 20
0.2122726516672082
 11
0.6515889689341538
 21
0.2186159659198823
 72
     1
 10
0.6515889689341537
 20
0.2186159659198821
 11
0.6500964244041133
 21
0.2234667356425149
 72
     1
 10
0.6500964244041132
 20
0.2234667356425151
 11
0.6490703000397104
 21
0.2266383927688516
 72
     1
 10
0.6490703000397105
 20
0.2266383927688516
 11
0.6487904479403276
 21
0.2277578011663822
 72
     1
 10
0.648790447940328
 20
0.2277578011663825
 11
0.6237903270621445
 21
0.2277578011663825
 72
     1
 10
0.6237903270621437
 20
0.2277578011663825
 11
0.6676338226320932
 21
0.0926825211976832
 72
     1
 10
0.6676338226320926
 20
0.0926825211976832
 11
0.6922608073777669
 21
0.0926825211976832
 72
     1
 10
0.6922608073777666
 20
0.0926825211976832
 11
0.726029627369941
 21
0.1855001341596003
 72
     1
 10
0.7260296273699423
 20
0.1855001341596003
 11
0.7269624677012189
 21
0.1882986551534267
 72
     1
 10
0.7269624677012177
 20
0.1882986551534266
 11
0.7278020239993661
 21
0.1906307559816158
 72
     1
 10
0.727802023999367
 20
0.1906307559816159
 11
0.7284550122312589
 21
0.1927762887435496
 72
     1
 10
0.7284550122312581
 20
0.1927762887435495
 11
0.7290147164300237
 21
0.1947352534392281
 72
     1
 10
0.7290147164300232
 20
0.1947352534392282
 11
0.7298542727281716
 21
0.192216584544784
 72
     1
 10
0.729854272728173
 20
0.1922165845447839
 11
0.7306938290263214
 21
0.1894180635509575
 72
     1
 10
0.7306938290263206
 20
0.1894180635509575
 11
0.7318132374238499
 21
0.1863396904577483
 72
     1
 10
0.7318132374238511
 20
0.1863396904577481
 11
0.7331192138876387
 21
0.1827016131657736
 72
     1
 10
0.7331192138876382
 20
0.1827016131657737
 11
0.7654887733828987
 21
0.0926825211976834
 72
     1
 10
0.7654887733828986
 20
0.0926825211976832
 11
0.7895560539298075
 21
0.0926825211976832
 72
     1
 10
0.7895560539298075
 20
0.0926825211976832
 11
0.8341458217647785
 21
0.2277578011663825
 72
     1
 10
0.8341458217647783
 20
0.2277578011663825
 11
0.830601028505932
 21
0.2277578011663825
 72
     1
 10
0.8306010285059324
 20
0.2277578011663825
 11
0.8092389849197216
 21
0.2277578011663825
 97
        0
 75
     0
 76
     1
 98
        1
 10
-0.3743130907707726
 20
-0.2500502867693841
1001
ACAD
1010
0.0
1020
0.0
1030
0.0
  0
ENDBLK
  5
225D
330
2250
100
AcDbEntity
  8
0
100
AcDbBlockEnd
  0
ENDSEC
  0
SECTION
  2
ENTITIES
  0
TEXT
  5
19A
330
17
100
AcDbEntity
  8
KCADSLABEL
100
AcDbText
 10
-5.288113490122753
 20
2.649124150356755
 30
0.0
 40
0.125
  1
822001
 72
     1
 11
-4.996759465566136
 21
2.612118693115434
 31
0.0
100
AcDbText
 73
     1
  0
LWPOLYLINE
  5
C81
330
17
100
AcDbEntity
  8
0
100
AcDbPolyline
 90
       41
 70
     1
 43
0.0
 10
-6.03178018796253
 20
10.20163484068632
 42
-0.1040635034746242
 10
-6.029151778645022
 20
10.2141269518828
 10
-5.971692332406907
 20
10.34462658191896
 42
0.5416234831226134
 10
-6.000063923089401
 20
10.38811869311543
 10
-6.041584330358172
 20
10.38811869311543
 42
0.2973336368416811
 10
-6.069955921040666
 20
10.36961080431191
 10
-6.173097779079181
 20
10.13535908076604
 42
-0.9999999999999998
 10
-6.190462596845875
 20
10.03687830546483
 10
-6.205584330358171
 20
9.951118693115439
 10
-6.175584330358168
 20
9.886118693115438
 10
-6.155584330358168
 20
9.886118693115438
 10
-6.15558433035817
 20
9.951118693115436
 10
-5.293084330358167
 20
9.951118693115436
 10
-5.278084330358167
 20
9.936118693115439
 10
-5.263084330358166
 20
9.951118693115436
 10
-4.731084330358166
 20
9.951118693115436
 10
-4.716084330358166
 20
9.936118693115435
 10
-4.701084330358165
 20
9.951118693115436
 10
-3.83858433035817
 20
9.951118693115436
 10
-3.838584330358171
 20
9.886118693115435
 10
-3.818584330358172
 20
9.886118693115435
 10
-3.788584330358169
 20
9.951118693115436
 10
-3.803706063870463
 20
10.03687830546482
 42
-1.0
 10
-3.821070881637157
 20
10.13535908076604
 10
-3.924212739675673
 20
10.36961080431191
 42
0.2973336368416808
 10
-3.952584330358166
 20
10.38811869311543
 10
-3.994104737626938
 20
10.38811869311543
 42
0.5416234831226136
 10
-4.022476328309431
 20
10.34462658191896
 10
-3.965016882071316
 20
10.21412695188279
 42
-0.1040635034746244
 10
-3.962388472753809
 20
10.20163484068632
 10
-3.962388472753809
 20
10.08211869311543
 42
-0.4142135623730951
 10
-3.993388472753809
 20
10.05111869311543
 10
-4.74708433035817
 20
10.05111869311543
 10
-4.74708433035817
 20
10.07611869311543
 10
-4.982084330358169
 20
10.07611869311543
 10
-4.99708433035817
 20
10.06111869311543
 10
-5.01208433035817
 20
10.07611869311543
 10
-5.24708433035817
 20
10.07611869311543
 10
-5.24708433035817
 20
10.05111869311543
 10
-6.000780187962529
 20
10.05111869311543
 42
-0.4142135623730951
 10
-6.03178018796253
 20
10.08211869311543
  0
LWPOLYLINE
  5
C82
330
17
100
AcDbEntity
  8
0
100
AcDbPolyline
 90
       12
 70
     1
 43
0.0
 10
-6.21773857250952
 20
9.961737000320436
 10
-6.203079389920296
 20
10.04487335602917
 42
1.33239341188041
 10
-6.192024190312948
 20
10.13058034337506
 10
-6.192024190312948
 20
10.63911869311544
 10
-3.802144470403382
 20
10.63911869311544
 10
-3.802144470403381
 20
10.13058034337506
 42
1.33239341188041
 10
-3.791089270796033
 20
10.04487335602917
 10
-3.77643008820681
 20
9.961737000320436
 42
0.8617744796823018
 10
-3.747084330358164
 20
9.9661187426947
 10
-3.747084330358164
 20
10.70111869311543
 10
-6.247084330358164
 20
10.70111869311543
 10
-6.247084330358164
 20
9.9661187426947
 42
0.861774479682302
  0
LINE
  5
C9A
330
17
100
AcDbEntity
  8
0
100
AcDbLine
 10
-4.246759464952981
 20
9.701618693115431
 30
0.0
 11
-3.664811916998646
 21
9.701618693115431
 31
0.0
  0
LINE
  5
C9B
330
17
100
AcDbEntity
  8
0
100
AcDbLine
 10
-6.32935674371769
 20
9.701618693115431
 30
0.0
 11
-5.746759464952981
 21
9.701618693115431
 31
0.0
  0
LWPOLYLINE
  5
D38
330
17
100
AcDbEntity
  8
0
100
AcDbPolyline
 90
        8
 70
     1
 43
0.0
 10
-6.146759465566137
 20
2.492118693115434
 42
0.4142135623730973
 10
-6.116759465566137
 20
2.462118693115433
 10
-3.876759465566135
 20
2.462118693115432
 42
0.414213562373093
 10
-3.846759465566135
 20
2.492118693115433
 10
-3.846759465566138
 20
7.481618693115439
 42
0.4142135623730951
 10
-3.876759465566138
 20
7.51161869311544
 10
-6.116759465566136
 20
7.511618693115439
 42
0.4142135623730908
 10
-6.146759465566136
 20
7.481618693115438
  0
LWPOLYLINE
  5
D39
330
17
100
AcDbEntity
  8
0
100
AcDbPolyline
 90
       69
 70
     0
 43
0.0
 10
-4.746759464952981
 20
9.108118693115432
 10
-4.746759464952981
 20
9.764118693115435
 10
-4.871759465566135
 20
9.764118693115435
 42
0.4142135623731038
 10
-4.901759465566136
 20
9.734118693115433
 10
-4.901759465566136
 20
9.574118693115433
 10
-4.881759465566136
 20
9.574118693115437
 10
-4.901759465566136
 20
9.460693056723087
 10
-4.901759465566136
 20
9.109118693115432
 42
-0.9999999999999998
 10
-5.091759465566136
 20
9.109118693115432
 10
-5.091759465566136
 20
9.460693056723087
 10
-5.111759465566136
 20
9.574118693115437
 10
-5.091759465566136
 20
9.574118693115433
 10
-5.091759465566136
 20
9.734118693115433
 42
0.4142135623730993
 10
-5.121759465566136
 20
9.764118693115435
 10
-5.246759464952981
 20
9.764118693115435
 10
-5.246759464952959
 20
9.108136202787491
 42
0.3564136925077798
 10
-5.046759465566134
 20
8.863169718837113
 10
-5.046759465566137
 20
7.711618693115438
 42
-0.4142135623730964
 10
-5.146759465566137
 20
7.611618693115438
 10
-6.096759465566135
 20
7.611618693115437
 42
-0.4142135623730974
 10
-6.156759465566135
 20
7.671618693115437
 10
-6.156759465566135
 20
7.822118693115426
 42
-0.4142135623730996
 10
-6.126759465566135
 20
7.852118693115427
 10
-5.931612279308524
 20
7.852118693115427
 42
0.1989123673796635
 10
-5.88918587243733
 20
7.869692286244236
 10
-5.755546262130536
 20
8.003331896551037
 42
0.1989123673796573
 10
-5.746759465566133
 20
8.024545099986633
 10
-5.746759465566135
 20
8.112118693115437
 10
-5.904259465566136
 20
8.112118693115437
 42
0.4142135623730951
 10
-5.934259465566137
 20
8.082118693115436
 10
-5.934259465566137
 20
8.062118693115436
 10
-5.889259465566135
 20
8.062118693115436
 10
-5.889259465566142
 20
8.006943815444227
 42
-0.3704662542213866
 10
-6.104259465566135
 20
8.006943815444243
 10
-6.104259465566135
 20
8.062118693115436
 10
-6.059259465566134
 20
8.062118693115436
 10
-6.059259465566135
 20
8.082118693115438
 42
0.4142135623730777
 10
-6.089259465566135
 20
8.112118693115435
 10
-6.216759465566135
 20
8.112118693115434
 10
-6.216759465566135
 20
8.082118693115441
 10
-6.246759465566136
 20
8.082118693115441
 10
-6.246759465566137
 20
2.362118693115434
 10
-3.746759465566136
 20
2.362118693115432
 10
-3.746759465566138
 20
8.08211869311544
 10
-3.776759465566139
 20
8.082118693115441
 10
-3.776759465566139
 20
8.112118693115434
 10
-3.90425946556614
 20
8.112118693115437
 42
0.4142135623730777
 10
-3.93425946556614
 20
8.082118693115438
 10
-3.934259465566141
 20
8.062118693115436
 10
-3.889259465566139
 20
8.062118693115436
 10
-3.889259465566139
 20
8.006943815444243
 42
-0.3704662542213866
 10
-4.104259465566133
 20
8.006943815444227
 10
-4.104259465566139
 20
8.062118693115436
 10
-4.059259465566137
 20
8.062118693115436
 10
-4.059259465566137
 20
8.082118693115436
 42
0.4142135623730864
 10
-4.089259465566138
 20
8.112118693115437
 10
-4.246759465566139
 20
8.112118693115437
 10
-4.246759465566142
 20
8.024545099986633
 42
0.1989123673796581
 10
-4.237972669001738
 20
8.003331896551037
 10
-4.104333058694944
 20
7.869692286244236
 42
0.1989123673796633
 10
-4.06190665182375
 20
7.852118693115427
 10
-3.866759465566139
 20
7.852118693115427
 42
-0.4142135623730951
 10
-3.836759465566139
 20
7.822118693115426
 10
-3.836759465566139
 20
7.671618693115437
 42
-0.4142135623730992
 10
-3.896759465566138
 20
7.611618693115438
 10
-4.846759465566138
 20
7.611618693115438
 42
-0.4142135623730951
 10
-4.946759465566137
 20
7.711618693115438
 10
-4.946759465566136
 20
8.863169718837102
 42
0.3563939586926031
 10
-4.746759465566136
 20
9.108118693115432
  0
LINE
  5
D40
330
17
100
AcDbEntity
  8
0
100
AcDbLine
 10
-5.621759464952981
 20
8.701618693115436
 30
0.0
 11
-7.246759465566137
 21
8.701618693115436
 31
0.0
  0
LINE
  5
D41
330
17
100
AcDbEntity
  8
0
100
AcDbLine
 10
-5.621759464952981
 20
8.951618693115436
 30
0.0
 11
-5.621759464952981
 21
8.701618693115436
 31
0.0
  0
LINE
  5
D42
330
17
100
AcDbEntity
  8
0
100
AcDbLine
 10
-7.246759465566137
 20
8.951618693115436
 30
0.0
 11
-5.621759464952981
 21
8.951618693115436
 31
0.0
  0
LINE
  5
D43
330
17
100
AcDbEntity
  8
0
100
AcDbLine
 10
-5.671759464952979
 20
9.451618693115435
 30
0.0
 11
-5.671759464952979
 21
8.951618693115436
 31
0.0
  0
LINE
  5
D44
330
17
100
AcDbEntity
  8
0
100
AcDbLine
 10
-5.621759464952981
 20
9.451618693115435
 30
0.0
 11
-7.246759465566137
 21
9.451618693115435
 31
0.0
  0
LINE
  5
D45
330
17
100
AcDbEntity
  8
0
100
AcDbLine
 10
-5.621759464952981
 20
9.701618693115435
 30
0.0
 11
-5.621759464952981
 21
9.451618693115435
 31
0.0
  0
LINE
  5
D46
330
17
100
AcDbEntity
  8
0
100
AcDbLine
 10
-7.246759465566137
 20
9.701618693115431
 30
0.0
 11
-5.621759464952981
 21
9.701618693115435
 31
0.0
  0
LINE
  5
D47
330
17
100
AcDbEntity
  8
0
100
AcDbLine
 10
-2.747409195150201
 20
9.701618693115431
 30
0.0
 11
-4.371759464952981
 21
9.701618693115435
 31
0.0
  0
LINE
  5
D48
330
17
100
AcDbEntity
  8
0
100
AcDbLine
 10
-4.371759464952981
 20
9.451618693115435
 30
0.0
 11
-2.747409195150201
 21
9.451618693115435
 31
0.0
  0
LINE
  5
D49
330
17
100
AcDbEntity
  8
0
100
AcDbLine
 10
-2.747409195150201
 20
8.951618693115436
 30
0.0
 11
-4.371759464952981
 21
8.951618693115436
 31
0.0
  0
LINE
  5
D4A
330
17
100
AcDbEntity
  8
0
100
AcDbLine
 10
-4.371759464952981
 20
8.701618693115436
 30
0.0
 11
-2.747409195150201
 21
8.701618693115436
 31
0.0
  0
LINE
  5
D51
330
17
100
AcDbEntity
  8
0
100
AcDbLine
 10
-4.371759464952981
 20
9.701618693115435
 30
0.0
 11
-4.371759464952981
 21
9.451618693115435
 31
0.0
  0
LINE
  5
D52
330
17
100
AcDbEntity
  8
0
100
AcDbLine
 10
-4.321759464952984
 20
9.451618693115435
 30
0.0
 11
-4.321759464952984
 21
8.951618693115436
 31
0.0
  0
LINE
  5
D53
330
17
100
AcDbEntity
  8
0
100
AcDbLine
 10
-4.371759464952981
 20
8.951618693115436
 30
0.0
 11
-4.371759464952981
 21
8.701618693115436
 31
0.0
  0
LINE
  5
D54
330
17
100
AcDbEntity
  8
0
100
AcDbLine
 10
-3.946759464952984
 20
9.451618693115435
 30
0.0
 11
-3.946759464952984
 21
8.951618693115436
 31
0.0
  0
LINE
  5
D55
330
17
100
AcDbEntity
  8
0
100
AcDbLine
 10
-6.046759464952979
 20
9.451618693115435
 30
0.0
 11
-6.046759464952979
 21
8.951618693115436
 31
0.0
  0
LWPOLYLINE
  5
D5A
330
17
100
AcDbEntity
  8
0
100
AcDbPolyline
 90
        8
 70
     0
 43
0.0
 10
-5.776759465566136
 20
8.112118693115434
 42
0.4142135623730964
 10
-5.746759465566135
 20
8.142118693115435
 10
-5.746759465566137
 20
8.671618693115437
 42
0.4142135623730951
 10
-5.776759465566136
 20
8.701618693115438
 10
-6.216759465566136
 20
8.701618693115436
 42
0.4142135623730946
 10
-6.246759465566137
 20
8.671618693115437
 10
-6.246759465566136
 20
8.142118693115435
 42
0.4142135623730953
 10
-6.216759465566136
 20
8.112118693115435
 42
0.4142135623730953
  0
LWPOLYLINE
  5
D5B
330
17
100
AcDbEntity
  8
0
100
AcDbPolyline
 90
        8
 70
     0
 43
0.0
 10
-3.746759465566249
 20
8.576618693115435
 10
-3.746759465566137
 20
8.142118693115435
 10
-3.746759465566136
 20
8.671618693115437
 42
0.4142135623730946
 10
-3.776759465566136
 20
8.701618693115436
 10
-4.216759465566136
 20
8.701618693115438
 42
0.4142135623730951
 10
-4.246759465566137
 20
8.671618693115437
 10
-4.246759465566138
 20
8.142118693115435
 42
0.4142135623730966
 10
-4.216759465566138
 20
8.112118693115434
 42
0.4142135623730966
  0
LINE
  5
E7A
330
17
100
AcDbEntity
  8
0
  6
HIDDEN
100
AcDbLine
 10
2.753240534433864
 20
3.612118693115434
 30
0.0
 11
5.253240534433864
 21
3.612118693115434
 31
0.0
  0
LINE
  5
E7B
330
17
100
AcDbEntity
  8
0
  6
HIDDEN
100
AcDbLine
 10
2.853240534433865
 20
3.712118693115434
 30
0.0
 11
5.153240534433864
 21
3.712118693115434
 31
0.0
  0
LINE
  5
E7C
330
17
100
AcDbEntity
  8
0
  6
HIDDEN
100
AcDbLine
 10
2.753240534433865
 20
5.112118693115434
 30
0.0
 11
5.253240534433864
 21
5.112118693115434
 31
0.0
  0
LINE
  5
E7D
330
17
100
AcDbEntity
  8
0
  6
HIDDEN
100
AcDbLine
 10
2.853240534433865
 20
5.212118693115434
 30
0.0
 11
5.153240534433864
 21
5.212118693115434
 31
0.0
  0
LWPOLYLINE
  5
E80
330
17
100
AcDbEntity
  8
0
100
AcDbPolyline
 90
        8
 70
     0
 43
0.0
 10
4.783240534433863
 20
8.112118693115434
 42
-0.4142135623730966
 10
4.753240534433862
 20
8.142118693115435
 10
4.753240534433864
 20
8.671618693115437
 42
-0.4142135623730951
 10
4.783240534433863
 20
8.701618693115436
 10
5.223240534433864
 20
8.701618693115435
 42
-0.4142135623730946
 10
5.253240534433864
 20
8.671618693115437
 10
5.253240534433864
 20
8.142118693115435
 10
5.253240534433864
 20
8.671618693115437
  0
LWPOLYLINE
  5
E81
330
17
100
AcDbEntity
  8
0
100
AcDbPolyline
 90
        8
 70
     0
 43
0.0
 10
2.783240534433863
 20
8.112118693115435
 42
-0.4142135623730953
 10
2.753240534433864
 20
8.142118693115435
 10
2.753240534433864
 20
8.671618693115437
 42
-0.4142135623730946
 10
2.783240534433863
 20
8.701618693115436
 10
3.223240534433864
 20
8.701618693115438
 42
-0.4142135623730951
 10
3.253240534433864
 20
8.671618693115437
 10
3.253240534433865
 20
8.142118693115435
 42
-0.4142135623730964
 10
3.223240534433864
 20
8.112118693115434
  0
LINE
  5
E82
330
17
100
AcDbEntity
  8
0
100
AcDbLine
 10
4.628240535047019
 20
8.951618693115438
 30
0.0
 11
4.628240535047019
 21
8.701618693115438
 31
0.0
  0
LINE
  5
E83
330
17
100
AcDbEntity
  8
0
100
AcDbLine
 10
4.678240535047015
 20
9.451618693115438
 30
0.0
 11
4.678240535047015
 21
8.951618693115438
 31
0.0
  0
LINE
  5
E84
330
17
100
AcDbEntity
  8
0
100
AcDbLine
 10
4.628240535047018
 20
9.701618693115438
 30
0.0
 11
4.628240535047018
 21
9.451618693115438
 31
0.0
  0
LINE
  5
E8B
330
17
100
AcDbEntity
  8
0
100
AcDbLine
 10
4.628240535047019
 20
8.701618693115438
 30
0.0
 11
6.253240535660175
 21
8.701618693115438
 31
0.0
  0
LINE
  5
E8C
330
17
100
AcDbEntity
  8
0
100
AcDbLine
 10
6.253240535660175
 20
8.951618693115438
 30
0.0
 11
4.628240535047019
 21
8.951618693115438
 31
0.0
  0
LINE
  5
E8D
330
17
100
AcDbEntity
  8
0
100
AcDbLine
 10
4.628240535047019
 20
9.451618693115438
 30
0.0
 11
6.253240535660175
 21
9.451618693115438
 31
0.0
  0
LINE
  5
E8E
330
17
100
AcDbEntity
  8
0
100
AcDbLine
 10
6.253240535660175
 20
9.701618693115431
 30
0.0
 11
4.628240535047019
 21
9.701618693115438
 31
0.0
  0
LINE
  5
E8F
330
17
100
AcDbEntity
  8
0
100
AcDbLine
 10
1.753240534433862
 20
9.701618693115431
 30
0.0
 11
3.378240535047019
 21
9.701618693115438
 31
0.0
  0
LINE
  5
E90
330
17
100
AcDbEntity
  8
0
100
AcDbLine
 10
3.378240535047019
 20
9.701618693115438
 30
0.0
 11
3.378240535047019
 21
9.451618693115438
 31
0.0
  0
LINE
  5
E91
330
17
100
AcDbEntity
  8
0
100
AcDbLine
 10
3.378240535047019
 20
9.451618693115438
 30
0.0
 11
1.753240534433862
 21
9.451618693115438
 31
0.0
  0
LINE
  5
E92
330
17
100
AcDbEntity
  8
0
100
AcDbLine
 10
3.328240535047022
 20
9.451618693115438
 30
0.0
 11
3.328240535047022
 21
8.951618693115438
 31
0.0
  0
LINE
  5
E93
330
17
100
AcDbEntity
  8
0
100
AcDbLine
 10
1.753240534433862
 20
8.951618693115438
 30
0.0
 11
3.378240535047019
 21
8.951618693115438
 31
0.0
  0
LINE
  5
E94
330
17
100
AcDbEntity
  8
0
100
AcDbLine
 10
3.378240535047019
 20
8.951618693115438
 30
0.0
 11
3.378240535047019
 21
8.701618693115438
 31
0.0
  0
LINE
  5
E95
330
17
100
AcDbEntity
  8
0
100
AcDbLine
 10
3.378240535047019
 20
8.701618693115438
 30
0.0
 11
1.753240534433862
 21
8.701618693115438
 31
0.0
  0
LWPOLYLINE
  5
EA0
330
17
100
AcDbEntity
  8
0
100
AcDbPolyline
 90
       14
 70
     1
 43
0.0
 10
2.339240534433862
 20
6.189118693115436
 42
-0.4142135623730868
 10
2.308240534433862
 20
6.220118693115436
 10
2.308240534433862
 20
6.446618693115446
 10
2.253240534433864
 20
6.446618693115445
 10
2.253240534433864
 20
6.165368693115436
 42
0.4142135623730951
 10
2.284490534433864
 20
6.134118693115436
 10
2.722240534433863
 20
6.134118693115435
 42
0.4142135623730864
 10
2.753240534433864
 20
6.165118693115434
 10
2.753240534433864
 20
8.082118693115447
 10
2.778240534433864
 20
8.082118693115443
 10
2.778240534433864
 20
8.107118693115442
 10
2.698240534433864
 20
8.107118693115443
 10
2.698240534433864
 20
6.220118693115434
 42
-0.4142135623730951
 10
2.667240534433863
 20
6.189118693115434
  0
LWPOLYLINE
  5
EA1
330
17
100
AcDbEntity
  8
0
100
AcDbPolyline
 90
       14
 70
     1
 43
0.0
 10
5.667240534433863
 20
6.189118693115436
 42
0.4142135623730868
 10
5.698240534433864
 20
6.220118693115436
 10
5.698240534433864
 20
6.446618693115446
 10
5.753240534433862
 20
6.446618693115445
 10
5.753240534433862
 20
6.165368693115436
 42
-0.4142135623730951
 10
5.721990534433862
 20
6.134118693115436
 10
5.284240534433862
 20
6.134118693115435
 42
-0.4142135623730864
 10
5.253240534433862
 20
6.165118693115434
 10
5.253240534433862
 20
8.082118693115447
 10
5.228240534433862
 20
8.082118693115443
 10
5.228240534433862
 20
8.107118693115442
 10
5.308240534433862
 20
8.107118693115443
 10
5.308240534433862
 20
6.220118693115434
 42
0.4142135623730951
 10
5.339240534433862
 20
6.189118693115434
  0
LWPOLYLINE
  5
EA2
330
17
100
AcDbEntity
  8
0
100
AcDbPolyline
 90
       69
 70
     0
 43
0.0
 10
4.253240535047019
 20
9.108118693115432
 10
4.253240535047019
 20
9.764118693115435
 10
4.128240534433867
 20
9.764118693115435
 42
0.4142135623731038
 10
4.098240534433866
 20
9.734118693115437
 10
4.098240534433866
 20
9.574118693115433
 10
4.118240534433866
 20
9.574118693115437
 10
4.098240534433866
 20
9.460693056723087
 10
4.098240534433866
 20
9.109118693115433
 42
-0.9999999999999998
 10
3.908240534433865
 20
9.109118693115433
 10
3.908240534433865
 20
9.460693056723087
 10
3.888240534433865
 20
9.574118693115437
 10
3.908240534433865
 20
9.574118693115433
 10
3.908240534433865
 20
9.734118693115437
 42
0.4142135623730993
 10
3.878240534433865
 20
9.764118693115435
 10
3.753240535047019
 20
9.764118693115435
 10
3.753240535047043
 20
9.108136202787491
 42
0.3564136925077798
 10
3.953240534433867
 20
8.863169718837113
 10
3.953240534433865
 20
7.71161869311544
 42
-0.4142135623730964
 10
3.853240534433865
 20
7.611618693115438
 10
2.903240534433868
 20
7.611618693115438
 42
-0.4142135623730974
 10
2.843240534433867
 20
7.671618693115437
 10
2.843240534433867
 20
7.822118693115427
 42
-0.4142135623730996
 10
2.873240534433866
 20
7.852118693115428
 10
3.068387720691479
 20
7.852118693115428
 42
0.1989123673796635
 10
3.110814127562672
 20
7.869692286244237
 10
3.244453737869466
 20
8.003331896551038
 42
0.1989123673796573
 10
3.253240534433869
 20
8.024545099986635
 10
3.253240534433867
 20
8.112118693115437
 10
3.095740534433865
 20
8.112118693115437
 42
0.4142135623730951
 10
3.065740534433865
 20
8.082118693115436
 10
3.065740534433865
 20
8.062118693115436
 10
3.110740534433865
 20
8.062118693115436
 10
3.11074053443386
 20
8.006943815444227
 42
-0.3704662542213866
 10
2.895740534433867
 20
8.006943815444245
 10
2.895740534433867
 20
8.062118693115436
 10
2.940740534433869
 20
8.062118693115436
 10
2.940740534433867
 20
8.08211869311544
 42
0.4142135623730777
 10
2.910740534433868
 20
8.112118693115437
 10
2.783240534433867
 20
8.112118693115434
 10
2.783240534433867
 20
8.082118693115443
 10
2.753240534433865
 20
8.082118693115443
 10
2.753240534433865
 20
2.362118693115434
 10
5.253240534433865
 20
2.362118693115433
 10
5.253240534433864
 20
8.08211869311544
 10
5.223240534433863
 20
8.082118693115443
 10
5.223240534433863
 20
8.112118693115434
 10
5.095740534433861
 20
8.112118693115437
 42
0.4142135623730777
 10
5.065740534433862
 20
8.08211869311544
 10
5.06574053443386
 20
8.062118693115436
 10
5.110740534433862
 20
8.062118693115436
 10
5.110740534433862
 20
8.006943815444245
 42
-0.3704662542213866
 10
4.895740534433869
 20
8.006943815444227
 10
4.895740534433862
 20
8.062118693115436
 10
4.940740534433864
 20
8.062118693115436
 10
4.940740534433864
 20
8.082118693115436
 42
0.4142135623730864
 10
4.910740534433863
 20
8.112118693115437
 10
4.753240534433862
 20
8.112118693115437
 10
4.75324053443386
 20
8.024545099986635
 42
0.1989123673796581
 10
4.762027330998263
 20
8.003331896551038
 10
4.895666941305057
 20
7.869692286244237
 42
0.1989123673796633
 10
4.93809334817625
 20
7.852118693115428
 10
5.133240534433863
 20
7.852118693115428
 42
-0.4142135623730951
 10
5.163240534433862
 20
7.822118693115427
 10
5.163240534433862
 20
7.671618693115437
 42
-0.4142135623730992
 10
5.103240534433863
 20
7.611618693115438
 10
4.153240534433864
 20
7.611618693115438
 42
-0.4142135623730951
 10
4.053240534433864
 20
7.71161869311544
 10
4.053240534433864
 20
8.863169718837102
 42
0.3563939586926031
 10
4.253240534433865
 20
9.108118693115432
  0
LWPOLYLINE
  5
EA3
330
17
100
AcDbEntity
  8
0
100
AcDbPolyline
 90
        8
 70
     1
 43
0.0
 10
2.853240534433865
 20
2.492118693115434
 42
0.4142135623730973
 10
2.883240534433864
 20
2.462118693115434
 10
5.123240534433866
 20
2.462118693115432
 42
0.414213562373093
 10
5.153240534433866
 20
2.492118693115433
 10
5.153240534433864
 20
7.481618693115439
 42
0.4142135623730951
 10
5.123240534433863
 20
7.51161869311544
 10
2.883240534433866
 20
7.51161869311544
 42
0.4142135623730908
 10
2.853240534433865
 20
7.481618693115439
  0
LINE
  5
F26
330
17
100
AcDbEntity
  8
0
100
AcDbLine
 10
3.878240535047019
 20
9.951118693115436
 30
0.0
 11
3.753240535047019
 21
9.951118693115436
 31
0.0
  0
LINE
  5
F49
330
17
100
AcDbEntity
  8
0
100
AcDbLine
 10
2.941240535047018
 20
9.451618693115435
 30
0.0
 11
2.941240535047018
 21
8.951618693115435
 31
0.0
  0
LINE
  5
F4A
330
17
100
AcDbEntity
  8
0
100
AcDbLine
 10
5.065240535047021
 20
9.451618693115435
 30
0.0
 11
5.065240535047021
 21
8.951618693115438
 31
0.0
  0
LINE
  5
F4F
330
17
100
AcDbEntity
  8
0
100
AcDbLine
 10
3.753240535047019
 20
9.951118693115436
 30
0.0
 11
3.765740535047019
 21
9.951118693115436
 31
0.0
  0
LWPOLYLINE
  5
F50
330
17
100
AcDbEntity
  8
0
100
AcDbPolyline
 90
       41
 70
     1
 43
0.0
 10
2.968219812037473
 20
10.20163484068632
 42
-0.1040635034746242
 10
2.97084822135498
 20
10.2141269518828
 10
3.028307667593095
 20
10.34462658191896
 42
0.5416234831226134
 10
2.999936076910602
 20
10.38811869311543
 10
2.95841566964183
 20
10.38811869311543
 42
0.2973336368416811
 10
2.930044078959337
 20
10.36961080431191
 10
2.826902220920821
 20
10.13535908076604
 42
-0.9999999999999998
 10
2.809537403154127
 20
10.03687830546483
 10
2.794415669641832
 20
9.951118693115439
 10
2.824415669641835
 20
9.886118693115438
 10
2.844415669641835
 20
9.886118693115438
 10
2.844415669641833
 20
9.951118693115436
 10
3.706915669641835
 20
9.951118693115436
 10
3.721915669641836
 20
9.936118693115439
 10
3.736915669641836
 20
9.951118693115436
 10
4.268915669641836
 20
9.951118693115436
 10
4.283915669641837
 20
9.936118693115435
 10
4.298915669641838
 20
9.951118693115436
 10
5.161415669641831
 20
9.951118693115436
 10
5.161415669641829
 20
9.886118693115435
 10
5.181415669641829
 20
9.886118693115435
 10
5.211415669641832
 20
9.951118693115436
 10
5.196293936129539
 20
10.03687830546482
 42
-1.0
 10
5.178929118362844
 20
10.13535908076604
 10
5.075787260324329
 20
10.36961080431191
 42
0.2973336368416808
 10
5.047415669641836
 20
10.38811869311543
 10
5.005895262373064
 20
10.38811869311543
 42
0.5416234831226136
 10
4.977523671690571
 20
10.34462658191896
 10
5.034983117928685
 20
10.21412695188279
 42
-0.1040635034746244
 10
5.037611527246193
 20
10.20163484068632
 10
5.037611527246193
 20
10.08211869311543
 42
-0.4142135623730951
 10
5.006611527246192
 20
10.05111869311543
 10
4.252915669641833
 20
10.05111869311543
 10
4.252915669641833
 20
10.07611869311543
 10
4.017915669641833
 20
10.07611869311543
 10
4.002915669641833
 20
10.06111869311543
 10
3.987915669641832
 20
10.07611869311543
 10
3.752915669641833
 20
10.07611869311543
 10
3.752915669641833
 20
10.05111869311543
 10
2.999219812037473
 20
10.05111869311543
 42
-0.4142135623730951
 10
2.968219812037473
 20
10.08211869311543
  0
LWPOLYLINE
  5
F51
330
17
100
AcDbEntity
  8
0
100
AcDbPolyline
 90
       12
 70
     1
 43
0.0
 10
2.782261427490482
 20
9.961737000320436
 10
2.796920610079705
 20
10.04487335602917
 42
1.33239341188041
 10
2.807975809687054
 20
10.13058034337506
 10
2.807975809687054
 20
10.63911869311544
 10
5.197855529596619
 20
10.63911869311544
 10
5.197855529596621
 20
10.13058034337506
 42
1.33239341188041
 10
5.208910729203967
 20
10.04487335602917
 10
5.223569911793191
 20
9.961737000320436
 42
0.8617744796823018
 10
5.252915669641836
 20
9.9661187426947
 10
5.252915669641836
 20
10.70111869311543
 10
2.752915669641836
 20
10.70111869311543
 10
2.752915669641836
 20
9.9661187426947
 42
0.861774479682302
  0
LWPOLYLINE
  5
F72
330
17
100
AcDbEntity
  8
0
100
AcDbPolyline
 90
        2
 70
     0
 43
0.0
 10
-3.776759465566139
 20
8.112118693115434
 42
0.3804013464600456
 10
-3.746759465566137
 20
8.142118693115435
 42
0.3804013464600456
  0
LINE
  5
F73
330
17
100
AcDbEntity
  8
0
  6
HIDDEN
100
AcDbLine
 10
-6.146759465566137
 20
5.212118693115434
 30
0.0
 11
-3.846759465566139
 21
5.212118693115434
 31
0.0
  0
LINE
  5
F74
330
17
100
AcDbEntity
  8
0
  6
HIDDEN
100
AcDbLine
 10
-6.246759465566137
 20
5.112118693115434
 30
0.0
 11
-3.746759465566139
 21
5.112118693115434
 31
0.0
  0
LINE
  5
F75
330
17
100
AcDbEntity
  8
0
  6
HIDDEN
100
AcDbLine
 10
-6.146759465566137
 20
3.712118693115434
 30
0.0
 11
-3.846759465566139
 21
3.712118693115434
 31
0.0
  0
LINE
  5
F76
330
17
100
AcDbEntity
  8
0
  6
HIDDEN
100
AcDbLine
 10
-6.246759465566139
 20
3.612118693115434
 30
0.0
 11
-3.746759465566139
 21
3.612118693115434
 31
0.0
  0
ARC
  5
F78
330
17
100
AcDbEntity
  8
0
100
AcDbCircle
 10
5.193075425672473
 20
8.158665199373583
 30
0.0
 40
0.0623989357410913
100
AcDbArc
 50
304.3018707440246
 51
344.6227736720131
  0
TEXT
  5
F84
330
17
100
AcDbEntity
  8
KCADSLABEL
100
AcDbText
 10
-5.288113490122753
 20
3.899124150356755
 30
0.0
 40
0.125
  1
822002
 72
     1
 11
-4.996759465566136
 21
3.862118693115434
 31
0.0
100
AcDbText
 73
     1
  0
TEXT
  5
F87
330
17
100
AcDbEntity
  8
KCADSLABEL
100
AcDbText
 10
-5.288113490122753
 20
5.399124150356755
 30
0.0
 40
0.125
  1
822003
 72
     1
 11
-4.996759465566136
 21
5.362118693115434
 31
0.0
100
AcDbText
 73
     1
  0
TEXT
  5
F8D
330
17
100
AcDbEntity
  8
KCADSLABEL
100
AcDbText
 10
-5.288438354914786
 20
10.20906452981595
 30
0.0
 40
0.125
  1
216051
 72
     1
 11
-4.99708433035817
 21
10.27156452981595
 31
0.0
100
AcDbText
 73
     2
  0
TEXT
  5
F8E
330
17
100
AcDbEntity
  8
KCADSLABEL
100
AcDbText
 10
-5.288438354914786
 20
10.79730492814933
 30
0.0
 40
0.125
  1
216103
 72
     1
 11
-4.99708433035817
 21
10.85980492814933
 31
0.0
100
AcDbText
 73
     2
  0
TEXT
  5
F8F
330
17
100
AcDbEntity
  8
KCADSLABEL
100
AcDbText
 10
3.711561645085216
 20
10.79730492814933
 30
0.0
 40
0.125
  1
216103
 72
     1
 11
4.002915669641833
 21
10.85980492814933
 31
0.0
100
AcDbText
 73
     2
  0
TEXT
  5
F90
330
17
100
AcDbEntity
  8
KCADSLABEL
100
AcDbText
 10
3.711561645085216
 20
10.20906452981595
 30
0.0
 40
0.125
  1
216051
 72
     1
 11
4.002915669641833
 21
10.27156452981595
 31
0.0
100
AcDbText
 73
     2
  0
TEXT
  5
F91
330
17
100
AcDbEntity
  8
KCADSLABEL
100
AcDbText
 10
3.711886509877251
 20
5.399124150356756
 30
0.0
 40
0.125
  1
822003
 72
     1
 11
4.003240534433867
 21
5.362118693115435
 31
0.0
100
AcDbText
 73
     1
  0
TEXT
  5
F92
330
17
100
AcDbEntity
  8
KCADSLABEL
100
AcDbText
 10
3.711886509877251
 20
3.899124150356756
 30
0.0
 40
0.125
  1
822002
 72
     1
 11
4.003240534433867
 21
3.862118693115435
 31
0.0
100
AcDbText
 73
     1
  0
TEXT
  5
F93
330
17
100
AcDbEntity
  8
KCADSLABEL
100
AcDbText
 10
3.711886509877251
 20
2.649124150356755
 30
0.0
 40
0.125
  1
822001
 72
     1
 11
4.003240534433867
 21
2.612118693115434
 31
0.0
100
AcDbText
 73
     1
  0
TEXT
  5
F95
330
17
100
AcDbEntity
  8
KCADSLABEL
100
AcDbText
 10
1.849299278822547
 20
6.643407912973975
 30
0.0
 40
0.125
  1
822010
 72
     1
 11
2.140653303379163
 21
6.606402455732654
 31
0.0
100
AcDbText
 73
     1
  0
TEXT
  5
F96
330
17
100
AcDbEntity
  8
KCADSLABEL
100
AcDbText
 10
5.54720514326066
 20
6.643407912973975
 30
0.0
 40
0.125
  1
822010
 72
     1
 11
5.838559167817276
 21
6.606402455732654
 31
0.0
100
AcDbText
 73
     1
  0
LINE
  5
FB7
330
17
100
AcDbEntity
  8
0
100
AcDbLine
 10
-6.050779121354758
 20
9.951118693115439
 30
0.0
 11
-6.050779121354758
 21
9.701618693115438
 31
0.0
  0
LINE
  5
FB8
330
17
100
AcDbEntity
  8
0
100
AcDbLine
 10
-6.050779121354758
 20
9.701618693115438
 30
0.0
 11
-6.315328749283084
 21
9.701618693115438
 31
0.0
  0
LINE
  5
FB9
330
17
100
AcDbEntity
  8
0
100
AcDbLine
 10
-6.315328749283084
 20
9.701618693115438
 30
0.0
 11
-6.247084330358175
 21
9.951118693115434
 31
0.0
  0
LINE
  5
FC2
330
17
100
AcDbEntity
  8
0
100
AcDbLine
 10
-6.130779121354758
 20
9.951118693115439
 30
0.0
 11
-6.050779121354758
 21
9.951118693115439
 31
0.0
  0
LINE
  5
FC3
330
17
100
AcDbEntity
  8
0
100
AcDbLine
 10
-5.750779121354758
 20
9.951118693115439
 30
0.0
 11
-6.050779121354758
 21
9.951118693115439
 31
0.0
  0
LINE
  5
FC5
330
17
100
AcDbEntity
  8
0
100
AcDbLine
 10
-6.050779121354758
 20
9.701618693115438
 30
0.0
 11
-5.750779121354758
 21
9.701618693115438
 31
0.0
  0
LINE
  5
FC6
330
17
100
AcDbEntity
  8
0
100
AcDbLine
 10
-5.750779121354758
 20
9.701618693115438
 30
0.0
 11
-5.750779121354758
 21
9.951118693115439
 31
0.0
  0
LINE
  5
FC7
330
17
100
AcDbEntity
  8
0
100
AcDbLine
 10
-6.205584330358171
 20
9.951118693115434
 30
0.0
 11
-6.247084330358175
 21
9.951118693115434
 31
0.0
  0
LINE
  5
FC8
330
17
100
AcDbEntity
  8
0
100
AcDbLine
 10
-4.747084330358164
 20
9.764118693115438
 30
0.0
 11
-4.747084330358164
 21
9.951118693115436
 31
0.0
  0
LINE
  5
FC9
330
17
100
AcDbEntity
  8
0
100
AcDbLine
 10
-4.747084330358164
 20
9.951118693115436
 30
0.0
 11
-4.872084330358166
 21
9.951118693115436
 31
0.0
  0
LINE
  5
FCA
330
17
100
AcDbEntity
  8
0
100
AcDbLine
 10
-4.872084330358166
 20
9.951118693115436
 30
0.0
 11
-4.872084330358167
 21
9.857618693115437
 31
0.0
  0
LINE
  5
FCB
330
17
100
AcDbEntity
  8
0
100
AcDbLine
 10
-4.872084330358167
 20
9.857618693115437
 30
0.0
 11
-5.122084330358164
 21
9.857618693115441
 31
0.0
  0
LINE
  5
FCC
330
17
100
AcDbEntity
  8
0
100
AcDbLine
 10
-5.122084330358164
 20
9.857618693115441
 30
0.0
 11
-5.122084330358164
 21
9.951118693115436
 31
0.0
  0
LINE
  5
FCD
330
17
100
AcDbEntity
  8
0
100
AcDbLine
 10
-5.122084330358164
 20
9.951118693115436
 30
0.0
 11
-5.247084330358166
 21
9.951118693115436
 31
0.0
  0
LINE
  5
FCE
330
17
100
AcDbEntity
  8
0
100
AcDbLine
 10
-5.247084330358166
 20
9.951118693115436
 30
0.0
 11
-5.247084330358168
 21
9.764118693115442
 31
0.0
  0
LINE
  5
FCF
330
17
100
AcDbEntity
  8
0
100
AcDbLine
 10
-5.247084330358168
 20
9.764118693115442
 30
0.0
 11
-5.121759465566135
 21
9.764118693115438
 31
0.0
  0
LINE
  5
FDD
330
17
100
AcDbEntity
  8
0
100
AcDbLine
 10
-4.871759465566135
 20
9.764118693115438
 30
0.0
 11
-4.747084330358164
 21
9.764118693115438
 31
0.0
  0
LINE
  5
FDE
330
17
100
AcDbEntity
  8
0
100
AcDbLine
 10
-3.94338953936158
 20
9.951118693115436
 30
0.0
 11
-3.94338953936158
 21
9.701618693115438
 31
0.0
  0
LINE
  5
FDF
330
17
100
AcDbEntity
  8
0
100
AcDbLine
 10
-3.94338953936158
 20
9.701618693115438
 30
0.0
 11
-3.678839911433254
 21
9.701618693115438
 31
0.0
  0
LINE
  5
FE0
330
17
100
AcDbEntity
  8
0
100
AcDbLine
 10
-3.678839911433254
 20
9.701618693115438
 30
0.0
 11
-3.747084330358164
 21
9.951118693115436
 31
0.0
  0
LINE
  5
FE1
330
17
100
AcDbEntity
  8
0
100
AcDbLine
 10
-3.747084330358164
 20
9.951118693115436
 30
0.0
 11
-3.788584330358169
 21
9.951118693115436
 31
0.0
  0
LINE
  5
FE9
330
17
100
AcDbEntity
  8
0
100
AcDbLine
 10
-3.86338953936158
 20
9.951118693115436
 30
0.0
 11
-3.94338953936158
 21
9.951118693115436
 31
0.0
  0
LINE
  5
FEA
330
17
100
AcDbEntity
  8
0
100
AcDbLine
 10
-4.243389539361579
 20
9.951118693115436
 30
0.0
 11
-3.94338953936158
 21
9.951118693115436
 31
0.0
  0
LINE
  5
FEC
330
17
100
AcDbEntity
  8
0
100
AcDbLine
 10
-3.94338953936158
 20
9.701618693115438
 30
0.0
 11
-4.243389539361579
 21
9.701618693115438
 31
0.0
  0
LINE
  5
FED
330
17
100
AcDbEntity
  8
0
100
AcDbLine
 10
-4.243389539361579
 20
9.701618693115438
 30
0.0
 11
-4.243389539361579
 21
9.951118693115436
 31
0.0
  0
LINE
  5
FEE
330
17
100
AcDbEntity
  8
0
100
AcDbLine
 10
2.949220878645244
 20
9.951118693115439
 30
0.0
 11
2.949220878645244
 21
9.701618693115438
 31
0.0
  0
LINE
  5
FEF
330
17
100
AcDbEntity
  8
0
100
AcDbLine
 10
2.949220878645244
 20
9.701618693115438
 30
0.0
 11
2.684671250716917
 21
9.701618693115438
 31
0.0
  0
LINE
  5
FF0
330
17
100
AcDbEntity
  8
0
100
AcDbLine
 10
2.684671250716917
 20
9.701618693115438
 30
0.0
 11
2.752915669641829
 21
9.951118693115439
 31
0.0
  0
LINE
  5
FF1
330
17
100
AcDbEntity
  8
0
100
AcDbLine
 10
2.752915669641829
 20
9.951118693115439
 30
0.0
 11
2.794415669641832
 21
9.951118693115439
 31
0.0
  0
LINE
  5
FF9
330
17
100
AcDbEntity
  8
0
100
AcDbLine
 10
2.869220878645243
 20
9.951118693115439
 30
0.0
 11
2.949220878645244
 21
9.951118693115439
 31
0.0
  0
LINE
  5
FFA
330
17
100
AcDbEntity
  8
0
100
AcDbLine
 10
3.249220878645243
 20
9.951118693115439
 30
0.0
 11
2.949220878645244
 21
9.951118693115439
 31
0.0
  0
LINE
  5
FFC
330
17
100
AcDbEntity
  8
0
100
AcDbLine
 10
2.949220878645244
 20
9.701618693115438
 30
0.0
 11
3.249220878645243
 21
9.701618693115438
 31
0.0
  0
LINE
  5
FFD
330
17
100
AcDbEntity
  8
0
100
AcDbLine
 10
3.249220878645243
 20
9.701618693115438
 30
0.0
 11
3.249220878645243
 21
9.951118693115439
 31
0.0
  0
LINE
  5
FFE
330
17
100
AcDbEntity
  8
0
100
AcDbLine
 10
4.252915669641835
 20
9.764118693115431
 30
0.0
 11
4.252915669641835
 21
9.951118693115429
 31
0.0
  0
LINE
  5
FFF
330
17
100
AcDbEntity
  8
0
100
AcDbLine
 10
4.252915669641835
 20
9.951118693115429
 30
0.0
 11
4.127915669641833
 21
9.951118693115429
 31
0.0
  0
LINE
  5
1000
330
17
100
AcDbEntity
  8
0
100
AcDbLine
 10
4.127915669641833
 20
9.951118693115429
 30
0.0
 11
4.127915669641833
 21
9.85761869311543
 31
0.0
  0
LINE
  5
1001
330
17
100
AcDbEntity
  8
0
100
AcDbLine
 10
4.127915669641833
 20
9.85761869311543
 30
0.0
 11
3.877915669641836
 21
9.85761869311543
 31
0.0
  0
LINE
  5
1002
330
17
100
AcDbEntity
  8
0
100
AcDbLine
 10
3.877915669641836
 20
9.85761869311543
 30
0.0
 11
3.877915669641835
 21
9.951118693115429
 31
0.0
  0
LINE
  5
1003
330
17
100
AcDbEntity
  8
0
100
AcDbLine
 10
3.877915669641835
 20
9.951118693115429
 30
0.0
 11
3.752915669641833
 21
9.951118693115429
 31
0.0
  0
LINE
  5
1004
330
17
100
AcDbEntity
  8
0
100
AcDbLine
 10
3.752915669641833
 20
9.951118693115429
 30
0.0
 11
3.752915669641833
 21
9.764118693115435
 31
0.0
  0
LINE
  5
1018
330
17
100
AcDbEntity
  8
0
100
AcDbLine
 10
5.056610460638422
 20
9.951118693115436
 30
0.0
 11
5.056610460638422
 21
9.701618693115438
 31
0.0
  0
LINE
  5
1019
330
17
100
AcDbEntity
  8
0
100
AcDbLine
 10
5.056610460638422
 20
9.701618693115438
 30
0.0
 11
5.321160088566749
 21
9.701618693115438
 31
0.0
  0
LINE
  5
101A
330
17
100
AcDbEntity
  8
0
100
AcDbLine
 10
5.321160088566749
 20
9.701618693115438
 30
0.0
 11
5.252915669641836
 21
9.951118693115436
 31
0.0
  0
LINE
  5
101B
330
17
100
AcDbEntity
  8
0
100
AcDbLine
 10
5.252915669641836
 20
9.951118693115436
 30
0.0
 11
5.211415669641832
 21
9.951118693115436
 31
0.0
  0
LINE
  5
1023
330
17
100
AcDbEntity
  8
0
100
AcDbLine
 10
5.136610460638422
 20
9.951118693115436
 30
0.0
 11
5.056610460638422
 21
9.951118693115436
 31
0.0
  0
LINE
  5
1024
330
17
100
AcDbEntity
  8
0
100
AcDbLine
 10
4.756610460638423
 20
9.951118693115436
 30
0.0
 11
5.056610460638422
 21
9.951118693115436
 31
0.0
  0
LINE
  5
1026
330
17
100
AcDbEntity
  8
0
100
AcDbLine
 10
5.056610460638422
 20
9.701618693115438
 30
0.0
 11
4.756610460638423
 21
9.701618693115438
 31
0.0
  0
LINE
  5
1027
330
17
100
AcDbEntity
  8
0
100
AcDbLine
 10
4.756610460638423
 20
9.701618693115438
 30
0.0
 11
4.756610460638423
 21
9.951118693115436
 31
0.0
  0
LINE
  5
10D5
330
17
100
AcDbEntity
  8
0
100
AcDbLine
 10
-9.822498266376307
 20
-6.020862690213913
 30
0.0
 11
39.87180980926172
 21
-6.020862690213913
 31
0.0
  0
MTEXT
  5
1153
102
{ACAD_XDICTIONARY
360
1154
102
}
330
17
100
AcDbEntity
  8
TEXT
100
AcDbMText
 10
-8.82249818197787
 20
-4.020862690213913
 30
0.0
 40
0.375
 41
15.4571868900598
 71
     1
 72
     5
  1
ENGINEERING CHANGE:  97910-095 (MARCH 2017)\PFILE NAME:  KCDF023.DWG
 73
     1
 44
1.0
1001
ACAD
1000
ACAD_MTEXT_COLUMN_INFO_BEGIN
1070
    75
1070
     2
1070
    79
1070
     0
1070
    76
1070
     1
1070
    78
1070
     0
1070
    48
1040
15.4571868900598
1070
    49
1040
1.25
1070
    50
1070
     1
1040
0.0
1000
ACAD_MTEXT_COLUMN_INFO_END
1000
MTEXTBEGIN
1070
    73
1070
     1
1070
    44
1040
1.0
1070
    74
1070
     0
1000
MTEXTEND
  0
MTEXT
  5
1160
330
17
100
AcDbEntity
  8
KCADSLABEL
100
AcDbMText
 10
-0.4967594655661359
 20
1.40259739033106
 30
0.0
 40
0.375
 41
2.236369412395474
 71
     2
 72
     5
  1
RAFTER
 73
     1
 44
1.0
1001
ACAD
1000
MTEXTBEGIN
1070
    73
1070
     1
1070
    44
1040
1.0
1070
    74
1070
     0
1000
MTEXTEND
  0
MTEXT
  5
11C4
330
17
100
AcDbEntity
  8
TEXT
100
AcDbMText
 10
20.17750173362369
 20
-4.0208626902139
 30
0.0
 40
0.375
 41
5.519524215552523
 71
     2
 72
     5
  1
DETAIL SCALE: 1" = 1"
 73
     1
 44
1.0
1001
ACAD
1000
MTEXTBEGIN
1070
    73
1070
     1
1070
    44
1040
1.0
1070
    74
1070
     0
1000
MTEXTEND
  0
MTEXT
  5
11C5
330
17
100
AcDbEntity
  8
TEXT
100
AcDbMText
 10
20.17750173362369
 20
-2.961940305038821
 30
0.0
 40
0.5
 41
17.35659339253652
 71
     8
 72
     5
  1
2000 SKYLIGHT\PRIDGE SKYLIGHT WITH VERTICAL GABLE DETAILS
 73
     1
 44
1.0
1001
ACAD
1000
MTEXTBEGIN
1070
    73
1070
     1
1070
    44
1040
1.0
1070
    74
1070
     0
1000
MTEXTEND
  0
ARC
  5
12A3
330
17
100
AcDbEntity
  8
0
100
AcDbCircle
 10
10.94953688612051
 20
7.784683809848411
 30
0.0
 40
0.3101783188564283
100
AcDbArc
 50
28.2483066250964
 51
246.6628732729061
  0
LINE
  5
12A5
330
17
100
AcDbEntity
  8
0
100
AcDbLine
 10
11.16606910216495
 20
3.432088972693249
 30
0.0
 11
11.32022456745633
 21
3.491428989493491
 31
0.0
  0
ARC
  5
12A6
330
17
100
AcDbEntity
  8
0
100
AcDbCircle
 10
11.4558011615227
 20
3.139223613292157
 30
0.0
 40
0.3773985160063065
100
AcDbArc
 50
50.89677371650115
 51
111.0535212205385
  0
INSERT
  5
12A7
330
17
100
AcDbEntity
  8
0
100
AcDbBlockReference
  2
*X0
 10
9.757765256475366
 20
2.486828612301692
 30
0.0
1001
ACAD
1000
HATCH
1002
{
1070
    16
1000
STEEL
1040
1.5
1040
0.0
1002
}
  0
LWPOLYLINE
  5
12A8
330
17
100
AcDbEntity
  8
0
100
AcDbPolyline
 90
        4
 70
     0
 43
0.0
 10
13.28947537446921
 20
6.959156135683103
 10
11.92076525647536
 20
6.168930980616792
 42
0.2679491924311228
 10
11.89076525647536
 20
6.116969456389727
 10
11.89076525647536
 20
3.432088972693249
  0
LWPOLYLINE
  5
12A9
330
17
100
AcDbEntity
  8
0
100
AcDbPolyline
 90
        6
 70
     0
 43
0.0
 10
11.92666525647537
 20
3.43208897269325
 10
11.92666525647536
 20
6.108828817594146
 42
-0.2679491924311242
 10
11.94166525647536
 20
6.134809579707679
 10
13.30947537446921
 20
6.92451511953172
 10
13.28947537446921
 20
6.959156135683103
 10
13.30947537446921
 20
6.92451511953172
  0
LWPOLYLINE
  5
12AA
330
17
100
AcDbEntity
  8
0
100
AcDbPolyline
 90
        8
 70
     0
 43
0.0
 10
9.804502887871937
 20
3.446317940980219
 10
9.804502887871935
 20
7.717756964409778
 42
-0.2679491924311228
 10
9.860502887871934
 20
7.814751809633635
 10
12.82767194083991
 20
9.527847661095821
 10
12.8681719408399
 20
9.457699603389281
 10
9.901002887871936
 20
7.744603751927096
 42
0.2679491924311226
 10
9.885502887871936
 20
7.717756964409778
 10
9.885502887871936
 20
3.446317940980219
  0
LWPOLYLINE
  5
12AB
330
17
100
AcDbEntity
  8
0
100
AcDbPolyline
 90
        6
 70
     0
 43
0.0
 10
12.25998296378762
 20
8.92978929699019
 10
12.12939371605252
 20
9.00518503432332
 42
-0.577350269189626
 10
12.12939371605252
 20
9.031165796436853
 10
12.60346066019671
 20
9.304868474252403
 42
-0.4142135616547231
 10
12.62395104123508
 20
9.299378093227497
 10
12.69299566541434
 20
9.179789296836906
  0
LWPOLYLINE
  5
12AC
330
17
100
AcDbEntity
  8
0
100
AcDbPolyline
 90
       24
 70
     1
 43
0.0
 10
14.18596666225887
 20
10.53323794710448
 10
14.16864615418318
 20
10.52323794710448
 10
14.13614615418318
 20
10.57952959835047
 10
13.70313345229096
 20
10.32952959835047
 10
13.66813345229095
 20
10.3901513766154
 10
13.45162710134484
 20
10.2651513766154
 10
13.48662710134485
 20
10.20452959835048
 10
13.21296307374896
 20
10.04652959835048
 10
13.17796307374896
 20
10.10715137661539
 10
12.94586826553474
 20
9.973151376615392
 10
12.98086826553474
 20
9.912529598350483
 10
12.70720423793886
 20
9.754529598350481
 10
12.67220423793886
 20
9.815151376615387
 10
12.45569788699275
 20
9.690151376615384
 10
12.49069788699275
 20
9.629529598350478
 10
12.05768518510054
 20
9.379529598350471
 10
12.09018518510054
 20
9.323237947104479
 10
12.07286467702485
 20
9.313237947104481
 10
12.01438391491131
 20
9.354529598350469
 10
11.98338391491131
 20
9.408223173385104
 10
12.02950311578815
 20
9.58034237426194
 10
13.97632822349552
 20
10.70434237426196
 10
14.14844742437241
 20
10.6582231733851
 10
14.17944742437241
 20
10.60452959835047
  0
LWPOLYLINE
  5
12AD
330
17
100
AcDbEntity
  8
KCADSMISC
100
AcDbPolyline
 90
       18
 70
     1
 43
0.0
 10
14.16778349036252
 20
8.635381857934701
 42
0.9999999999999921
 10
14.25438603074097
 20
8.685381857934702
 10
14.11438603074097
 20
8.927868970994348
 42
-0.4142135623730953
 10
14.16013920621402
 20
9.0986221464674
 10
14.39396606523582
 20
9.233622146467395
 10
14.21896606523582
 20
9.53673103779195
 10
14.13700454100875
 20
9.558692562019016
 10
14.00950454100876
 20
9.779529039984046
 10
14.03146606523582
 20
9.861490564211111
 10
13.85646606523583
 20
10.16459945553566
 10
13.42345336334361
 20
9.914599455535666
 10
13.81345336334361
 20
9.239099640583804
 42
-0.4142135623730982
 10
13.76770018787055
 20
9.068346465110751
 10
13.57284447095704
 20
8.955846464497595
 42
0.4142135623730999
 10
13.55454320076782
 20
8.887545194308374
 10
13.63454320076782
 20
8.748981129702864
 10
13.87703031488947
 20
8.888981130316016
 42
-0.4142135623730926
 10
14.04778349036252
 20
8.84322795484296
  0
LWPOLYLINE
  5
12AE
330
17
100
AcDbEntity
  8
0
100
AcDbPolyline
 90
       78
 70
     0
 43
0.0
 10
12.97419066038944
 20
9.692745280545382
 10
13.75544066038945
 20
8.339580587132195
 10
12.98467805155232
 20
7.894580587438769
 42
-0.4142135623730951
 10
12.94369728943879
 20
7.905561349552302
 10
12.45794728943879
 20
8.746905029328887
 42
-0.4142135623730777
 10
12.46892805155232
 20
8.78788579144242
 10
12.59017160808214
 20
8.857885791442429
 42
0.2453282281231885
 10
12.71675335521307
 20
9.057101312562373
 42
0.1533065830696688
 10
12.70893093893873
 20
9.09218859652592
 10
12.68819719691471
 20
9.128100491142548
 42
0.4142135623731122
 10
12.69917795902825
 20
9.169081253256079
 10
12.68917795902825
 20
9.18640176133177
 10
12.5527789579322
 20
9.107651761331768
 42
0.4142135623731124
 10
12.54179819581866
 20
9.066670999218237
 10
12.55179819581867
 20
9.049350491142545
 10
12.59076933898897
 20
9.071850491142546
 10
12.61835677782456
 20
9.024067645428576
 42
-0.3704662542213899
 10
12.43216131601091
 20
8.916567645428594
 10
12.40457387717532
 20
8.964350491142546
 10
12.44354502034562
 20
8.986850491142547
 10
12.43354502034561
 20
9.004170999218237
 42
0.4142135623730561
 10
12.39256425823208
 20
9.01515176133177
 10
12.25616525713603
 20
8.936401761331763
 10
13.35966525713602
 20
7.025083695179514
 42
-0.4142135623730909
 10
13.33697168210139
 20
6.940390120144881
 10
12.56361099652188
 20
6.493890120144879
 42
0.9999999999999998
 10
12.60861099652188
 20
6.415947833804279
 10
13.37527149740823
 20
6.858579480368065
 42
-0.231676105815556
 10
13.4296733379012
 20
6.862299787466076
 10
15.19759447148813
 20
6.141696915206514
 10
16.36672876659712
 20
6.816696915206518
 10
16.11672876659712
 20
7.249709617098742
 10
16.06303519156249
 20
7.218709617098744
 10
16.26803519156249
 20
6.863639201547117
 10
15.29289058690121
 20
6.300639201547118
 42
-0.4142135623730951
 10
15.20819701186658
 20
6.323332776581755
 10
14.64194701186657
 20
7.304106546367636
 10
15.09947876659712
 20
9.011638301098182
 10
14.86697876659712
 20
9.414340113857948
 10
14.73057976550107
 20
9.335590113857948
 42
0.4142135623730516
 10
14.71959900338753
 20
9.294609351744417
 10
14.72959900338754
 20
9.277288843668726
 10
14.76857014655784
 20
9.299788843668727
 10
14.79615758539343
 20
9.252005997954777
 42
-0.3704662542213883
 10
14.60996212357979
 20
9.144505997954764
 10
14.58237468474418
 20
9.192288843668729
 10
14.62134582791448
 20
9.214788843668729
 10
14.61134582791448
 20
9.232109351744421
 42
0.4142135623731038
 10
14.57036506580095
 20
9.243090113857951
 10
14.43396606470489
 20
9.164340113857953
 10
14.4439660647049
 20
9.147019605782261
 42
0.4142135623731039
 10
14.48494682681843
 20
9.13603884366873
 10
14.50568056884247
 20
9.100126949052079
 42
0.1533065830697019
 10
14.53215583996755
 20
9.075808895857765
 42
0.2453282281231519
 10
14.767972415651
 20
9.085824143968602
 10
14.88055571814299
 20
9.150824143968605
 42
-0.4142135623731038
 10
14.92153648025652
 20
9.139843381855071
 10
14.96153648025653
 20
9.070561349552315
 42
-0.4142135623730951
 10
14.95055571814299
 20
9.029580587438781
 10
13.84204320076789
 20
8.389580587132194
 10
13.52954291553048
 20
8.930846958543165
 42
-0.4142135623731038
 10
13.54052367764401
 20
8.971827720656699
 10
13.64444672716016
 20
9.03182772126985
 42
0.4142135623730919
 10
13.73595307810627
 20
9.373334072215959
 10
13.40720336334368
 20
9.942745281158542
 10
13.29895018733962
 20
9.880245280851967
 42
0.4142135623730951
 10
13.28796942522609
 20
9.839264518738433
 10
13.36796942522609
 20
9.700700454132922
 10
13.38528993330177
 20
9.710700454132924
 10
13.42468224342226
 20
9.602470971576734
 10
13.60046942522609
 20
9.297998641373157
 42
-0.9999999999999998
 10
13.43592459850704
 20
9.202998641373158
 10
13.26013741670321
 20
9.507470971576731
 10
13.18610409043135
 20
9.595700454132925
 10
13.20342459850704
 20
9.60570045413292
 10
13.12342459850704
 20
9.744264518738431
 42
0.4142135623730864
 10
13.08244383639351
 20
9.755245280851964
 10
12.97419066145146
 20
9.692745281158542
  0
LWPOLYLINE
  5
12AF
330
17
100
AcDbEntity
  8
0
100
AcDbPolyline
 90
       10
 70
     1
 43
0.0
 10
13.03833830559016
 20
7.821638301098174
 42
0.4142135623730908
 10
13.02735754347663
 20
7.780657538984639
 10
13.5129306625237
 20
6.939620226005423
 42
0.166554338436942
 10
13.54322239706536
 20
6.913206343872777
 10
15.03842952309082
 20
6.303761426241825
 42
0.7144507839041664
 10
15.08484274760359
 20
6.356988629615528
 10
14.55820573565275
 20
7.269150691460637
 42
-0.198912367379658
 10
14.55201190945746
 20
7.316197472256993
 10
14.97050639470527
 20
8.878040153889182
 42
0.6681786379192989
 10
14.92652861991659
 20
8.911785487355791
  0
LINE
  5
12B0
330
17
100
AcDbEntity
  8
0
100
AcDbLine
 10
14.63617749693889
 20
9.714099640583677
 30
0.0
 11
14.38617749693889
 21
10.1471123424759
 31
0.0
  0
LINE
  5
12B1
330
17
100
AcDbEntity
  8
0
100
AcDbLine
 10
14.28976733542511
 20
9.514099640583678
 30
0.0
 11
14.03976733542511
 21
9.947112342475895
 31
0.0
  0
LWPOLYLINE
  5
12B2
330
17
100
AcDbEntity
  8
0
100
AcDbPolyline
 90
        6
 70
     0
 43
0.0
 10
14.86697876765914
 20
9.414340114471103
 10
14.86697876765914
 20
9.532696919654979
 42
0.5773502691896213
 10
14.84447876765914
 20
9.545687300711746
 10
14.38445644732284
 20
9.280093290232345
 42
0.4142135616547307
 10
14.37896606624767
 20
9.259602909207435
 10
14.43396606603242
 20
9.164340114624391
  0
LWPOLYLINE
  5
12B3
330
17
100
AcDbEntity
  8
0
100
AcDbPolyline
 90
       12
 70
     0
 43
0.0
 10
14.43396606364289
 20
9.164340113244795
 10
14.57036506580096
 20
9.243090113857954
 42
-0.4142135623730639
 10
14.61134582791449
 20
9.232109351744425
 10
14.62134582791449
 20
9.214788843668733
 10
14.58237468474419
 20
9.192288843668732
 10
14.60996212357979
 20
9.144505997954782
 42
0.3704662542213858
 10
14.79615758539345
 20
9.252005997954762
 10
14.76857014655785
 20
9.299788843668734
 10
14.72959900338755
 20
9.277288843668733
 10
14.71959900338754
 20
9.294609351744421
 42
-0.4142135623730832
 10
14.73057976550108
 20
9.335590113857955
 10
14.86697876526961
 20
9.41434011309151
  0
LINE
  5
12B4
330
17
100
AcDbEntity
  8
0
100
AcDbLine
 10
12.934415256074
 20
7.761638300485012
 30
0.0
 11
13.16398927094238
 21
7.364004442635428
 31
0.0
  0
LINE
  5
12B5
330
17
100
AcDbEntity
  8
KCADSMISC
100
AcDbLine
 10
13.85646606523583
 20
10.16459945553566
 30
0.0
 11
13.87703031488947
 21
8.888981130316016
 31
0.0
  0
LINE
  5
12B6
330
17
100
AcDbEntity
  8
KCADSMISC
100
AcDbLine
 10
13.42345336334361
 20
9.914599455535666
 30
0.0
 11
14.39396606523582
 21
9.233622146467395
 31
0.0
  0
TEXT
  5
12B7
330
17
100
AcDbEntity
  8
KCADSLABEL
100
AcDbText
 10
12.24119822617506
 20
10.2512686858605
 30
0.0
 40
0.125
  1
822034
 50
360.0
 72
     1
 11
12.53255225073168
 21
10.3762686858605
 31
0.0
100
AcDbText
 73
     3
  0
LWPOLYLINE
  5
12B8
330
17
100
AcDbEntity
  8
0
100
AcDbPolyline
 90
        4
 70
     0
 43
0.0
 10
15.34574464396239
 20
9.835093289331
 10
14.37146606523589
 20
9.272593289637567
 10
14.24646606523589
 20
9.489099640583676
 10
15.2207446439624
 20
10.0515996402771
  0
LWPOLYLINE
  5
12B9
330
17
100
AcDbEntity
  8
0
100
AcDbPolyline
 90
        4
 70
     0
 43
0.0
 10
14.9707446439624
 20
10.48461234216932
 10
13.99646606523589
 20
9.922112342475896
 10
13.8714660652359
 20
10.13861869342201
 10
14.8457446439624
 20
10.70111869311543
  0
LWPOLYLINE
  5
12BA
330
17
100
AcDbEntity
  8
0
100
AcDbPolyline
 90
        8
 70
     0
 43
0.0
 10
12.30616354301024
 20
8.849802187453633
 42
0.5714833467516842
 10
11.87106488462501
 20
8.366477171022189
 10
12.65435697315956
 20
7.424110550689869
 42
-0.2672119579935068
 10
12.65487501702381
 20
7.047612171003159
 42
-0.5782679348818522
 10
12.00068356873555
 20
7.046712034683562
 10
11.2283898677553
 20
7.921410289489683
 42
-0.9206270799542261
 10
11.84657909118409
 20
8.349991494009008
 10
12.00068356873554
 20
7.04671203468356
  0
LWPOLYLINE
  5
12BB
330
17
100
AcDbEntity
  8
0
100
AcDbPolyline
 90
        4
 70
     0
 43
0.0
 10
13.19791161649217
 20
7.305249219083915
 42
-0.4343174452156515
 10
12.66055765196839
 20
7.429778507277504
 10
12.63568295861722
 20
7.721310580663017
 10
12.57984109077514
 20
8.37577876983398
  0
LWPOLYLINE
  5
12BC
330
17
100
AcDbEntity
  8
0
100
AcDbPolyline
 90
       25
 70
     0
 43
0.0
 10
9.967315289718971
 20
3.432088972693249
 42
-0.6008425798260251
 10
10.47070132536906
 20
3.868827505499798
 10
11.32022456745633
 20
3.541815269103437
 42
1.456465871149706
 10
11.32022456745633
 20
4.246226021506103
 10
10.47070132536906
 20
3.919213785109744
 42
-1.456465871149706
 10
10.47070132536906
 20
4.62362453751241
 10
11.32022456745633
 20
4.29661230111605
 42
1.456465871149706
 10
11.32022456745633
 20
5.001023053518716
 10
10.47070132536906
 20
4.674010817122357
 42
-1.456465871149706
 10
10.47070132536906
 20
5.378421569525023
 10
11.32022456745633
 20
5.051409333128663
 42
1.259960789982201
 10
11.42163723130848
 20
5.779463702618629
 10
10.47070132536906
 20
5.428807849134971
 42
-1.436763843245086
 10
10.46168321479104
 20
6.136558707857018
 10
11.42163723130847
 20
5.798237903508328
 42
1.287056359377751
 10
11.39229586211979
 20
6.461504162919473
 10
10.44446305453236
 20
6.174597340972598
 42
-1.391766871065433
 10
10.46648013579243
 20
6.889611610646349
 10
10.53663450577296
 20
6.86356548176743
 10
11.78188777232964
 20
6.401241793640357
 42
1.23306255446167
 10
11.87259927154148
 20
7.011724709019231
 10
10.52258865955247
 20
6.929983685231666
 10
10.36647353250027
 20
6.920531159302873
 42
-1.266243089946841
 10
10.49316727540903
 20
7.643763277663117
 10
12.01659938149327
 20
6.986499179834455
  0
CIRCLE
  5
12BD
330
17
100
AcDbEntity
  8
0
100
AcDbCircle
 10
13.20727853397673
 20
7.152664512486476
 30
0.0
 40
0.0058929316861348
  0
CIRCLE
  5
12BE
330
17
100
AcDbEntity
  8
0
100
AcDbCircle
 10
13.20557605901392
 20
7.110198725703599
 30
0.0
 40
0.0058929316861348
  0
CIRCLE
  5
12BF
330
17
100
AcDbEntity
  8
0
100
AcDbCircle
 10
13.25625789099172
 20
7.095499040859406
 30
0.0
 40
0.0058929316861348
  0
CIRCLE
  5
12C0
330
17
100
AcDbEntity
  8
0
100
AcDbCircle
 10
13.2104807560184
 20
7.041600173505964
 30
0.0
 40
0.0058929316861348
  0
CIRCLE
  5
12C1
330
17
100
AcDbEntity
  8
0
100
AcDbCircle
 10
13.27751156874403
 20
7.043233475642777
 30
0.0
 40
0.0058929316861348
  0
CIRCLE
  5
12C2
330
17
100
AcDbEntity
  8
0
100
AcDbCircle
 10
13.32819342852324
 20
7.007300897407146
 30
0.0
 40
0.0058929316861348
  0
CIRCLE
  5
12C3
330
17
100
AcDbEntity
  8
0
100
AcDbCircle
 10
13.27260689954095
 20
6.986068021209268
 30
0.0
 40
0.0058929316861348
  0
CIRCLE
  5
12C4
330
17
100
AcDbEntity
  8
0
100
AcDbCircle
 10
13.19903644447366
 20
6.961568523544203
 30
0.0
 40
0.0058929316861348
  0
CIRCLE
  5
12C5
330
17
100
AcDbEntity
  8
0
100
AcDbCircle
 10
13.17451298725265
 20
7.013834088760836
 30
0.0
 40
0.0058929316861348
  0
CIRCLE
  5
12C6
330
17
100
AcDbEntity
  8
0
100
AcDbCircle
 10
13.14508480522573
 20
6.933802455992635
 30
0.0
 40
0.0058929316861348
  0
CIRCLE
  5
12C7
330
17
100
AcDbEntity
  8
0
100
AcDbCircle
 10
13.12383112747343
 20
6.902769766973884
 30
0.0
 40
0.0058929316861348
  0
CIRCLE
  5
12C8
330
17
100
AcDbEntity
  8
0
100
AcDbCircle
 10
13.14344991549137
 20
6.987701306152521
 30
0.0
 40
0.0058929316861348
  0
CIRCLE
  5
12C9
330
17
100
AcDbEntity
  8
0
100
AcDbCircle
 10
13.21211564575276
 20
7.242495940881989
 30
0.0
 40
0.0058929316861348
  0
CIRCLE
  5
12CA
330
17
100
AcDbEntity
  8
0
100
AcDbCircle
 10
13.22846462650058
 20
7.191863677802169
 30
0.0
 40
0.0058929316861348
  0
CIRCLE
  5
12CB
330
17
100
AcDbEntity
  8
0
100
AcDbCircle
 10
13.25625789099172
 20
7.13469822336866
 30
0.0
 40
0.0058929316861348
  0
CIRCLE
  5
12CC
330
17
100
AcDbEntity
  8
0
100
AcDbCircle
 10
13.29876527429774
 20
7.085699245232094
 30
0.0
 40
0.0058929316861348
  0
CIRCLE
  5
12CD
330
17
100
AcDbEntity
  8
0
100
AcDbCircle
 10
13.31347933750979
 20
7.036700284289088
 30
0.0
 40
0.0058929316861348
  0
CIRCLE
  5
12CE
330
17
100
AcDbEntity
  8
0
100
AcDbCircle
 10
13.22519481923045
 20
7.00893419954396
 30
0.0
 40
0.0058929316861348
  0
CIRCLE
  5
12CF
330
17
100
AcDbEntity
  8
0
100
AcDbCircle
 10
13.09276805571215
 20
6.866837188738253
 30
0.0
 40
0.0058929316861348
  0
CIRCLE
  5
12D0
330
17
100
AcDbEntity
  8
0
100
AcDbCircle
 10
13.17124317998252
 20
7.069366258251092
 30
0.0
 40
0.0058929316861348
  0
CIRCLE
  5
12D1
330
17
100
AcDbEntity
  8
0
100
AcDbCircle
 10
13.23336932350506
 20
6.956668634327327
 30
0.0
 40
0.0058929316861348
  0
CIRCLE
  5
12D2
330
17
100
AcDbEntity
  8
0
100
AcDbCircle
 10
13.18759216073033
 20
6.927269247445385
 30
0.0
 40
0.0058929316861348
  0
CIRCLE
  5
12D3
330
17
100
AcDbEntity
  8
0
100
AcDbCircle
 10
13.32655853878889
 20
6.968101732091453
 30
0.0
 40
0.0058929316861348
  0
ARC
  5
12D4
330
17
100
AcDbEntity
  8
0
100
AcDbCircle
 10
12.37897447499131
 20
7.328868258237646
 30
0.0
 40
0.8192776701095485
100
AcDbArc
 50
318.8299373287637
 51
358.3479852635246
  0
TEXT
  5
12D5
330
17
100
AcDbEntity
  8
KCADSLABEL
100
AcDbText
 10
13.62479329029797
 20
7.638264398598883
 30
0.0
 40
0.125
  1
822007
 50
360.0
 72
     1
 11
13.91614731485459
 21
7.763264398598883
 31
0.0
100
AcDbText
 73
     3
  0
LINE
  5
12D6
330
17
100
AcDbEntity
  8
0
100
AcDbLine
 10
12.14844915854643
 20
9.431932202852173
 30
0.0
 11
12.27768582523494
 21
9.210313029200738
 31
0.0
  0
LINE
  5
12D7
330
17
100
AcDbEntity
  8
0
100
AcDbLine
 10
12.04690773510426
 20
9.077073236740721
 30
0.0
 11
11.97844386065426
 21
9.333779598350467
 31
0.0
  0
LINE
  5
12D8
330
17
100
AcDbEntity
  8
0
100
AcDbLine
 10
11.97844386065426
 20
9.333779598350467
 30
0.0
 11
12.01438391491132
 21
9.354529598350469
 31
0.0
  0
LINE
  5
12D9
330
17
100
AcDbEntity
  8
0
100
AcDbLine
 10
12.53749344637027
 20
9.360313029200737
 30
0.0
 11
12.40825677968176
 21
9.581932202852174
 31
0.0
  0
LINE
  5
12DA
330
17
100
AcDbEntity
  8
0
100
AcDbLine
 10
13.40720336281268
 20
9.942745280851964
 30
0.0
 11
13.31370336281268
 21
10.10469203135965
 31
0.0
  0
LINE
  5
12DB
330
17
100
AcDbEntity
  8
0
100
AcDbLine
 10
13.31370336281268
 20
10.10469203135965
 30
0.0
 11
13.20545018733962
 21
10.04219203135965
 31
0.0
  0
LINE
  5
12DC
330
17
100
AcDbEntity
  8
0
100
AcDbLine
 10
13.20545018733962
 20
10.04219203135965
 30
0.0
 11
13.25220018733962
 21
9.961218656105804
 31
0.0
  0
LINE
  5
12DD
330
17
100
AcDbEntity
  8
0
100
AcDbLine
 10
13.25220018733962
 20
9.961218656105804
 30
0.0
 11
13.03569383639351
 21
9.836218656105808
 31
0.0
  0
LINE
  5
12DE
330
17
100
AcDbEntity
  8
0
100
AcDbLine
 10
13.03569383639351
 20
9.836218656105808
 30
0.0
 11
12.98894383639351
 21
9.917192031359652
 31
0.0
  0
LINE
  5
12DF
330
17
100
AcDbEntity
  8
0
100
AcDbLine
 10
12.98894383639351
 20
9.917192031359652
 30
0.0
 11
12.88069066092045
 21
9.854692031359652
 31
0.0
  0
LINE
  5
12E0
330
17
100
AcDbEntity
  8
0
100
AcDbLine
 10
12.88069066092045
 20
9.854692031359652
 30
0.0
 11
12.97419066092045
 21
9.692745280851967
 31
0.0
  0
LINE
  5
12E1
330
17
100
AcDbEntity
  8
0
100
AcDbLine
 10
14.04538218073729
 20
10.52712699384876
 30
0.0
 11
14.17013218073729
 21
10.31105365560454
 31
0.0
  0
LINE
  5
12E2
330
17
100
AcDbEntity
  8
0
100
AcDbLine
 10
13.91032455960196
 20
10.16105365560454
 30
0.0
 11
13.78557455960196
 21
10.37712699384876
 31
0.0
  0
LWPOLYLINE
  5
12E3
330
17
100
AcDbEntity
  8
0
100
AcDbPolyline
 90
        3
 70
     0
 43
0.0
 10
14.39923887908495
 20
10.44332846956871
 10
14.21538747862946
 20
10.62527959835047
 10
14.1794474243724
 20
10.60452959835047
  0
MTEXT
  5
12E4
330
17
100
AcDbEntity
  8
KCADSLABEL
100
AcDbMText
 10
13.00291566964183
 20
1.40259739033106
 30
0.0
 40
0.375
 41
2.236369412395474
 71
     2
 72
     5
  1
SILL
 73
     1
 44
1.0
1001
ACAD
1000
MTEXTBEGIN
1070
    73
1070
     1
1070
    44
1040
1.0
1070
    74
1070
     0
1000
MTEXTEND
  0
LINE
  5
138A
330
17
100
AcDbEntity
  8
0
100
AcDbLine
 10
22.87180577640217
 20
9.180026032358199
 30
0.0
 11
22.90774583065922
 21
9.2007760323582
 31
0.0
  0
LWPOLYLINE
  5
138B
330
17
100
AcDbEntity
  8
0
100
AcDbPolyline
 90
       34
 70
     1
 43
0.0
 10
22.13275956899604
 20
10.33874134476339
 10
22.11758007707173
 20
10.40503299600938
 10
22.06902996083773
 20
10.46289277145212
 42
0.363970234266201
 10
22.02978258310103
 20
10.46981314306915
 10
21.67157665567938
 20
10.26300285444694
 10
21.64657665567938
 20
10.27743661117668
 10
21.6056128925076
 20
10.25378617148243
 42
-0.8430389971007711
 10
21.53000811318445
 20
10.34473749056517
 10
21.47642096054445
 20
10.37567604756697
 42
0.5849358278678714
 10
21.43668159844827
 20
10.35212758697624
 10
21.44171453464839
 20
10.1302918969932
 10
21.23706171484245
 20
10.01213553638782
 10
21.22456171484245
 20
10.03378617148244
 10
21.02104574495311
 20
9.916286171482434
 10
21.01555536389634
 20
9.895795790425669
 10
20.99506498283957
 20
9.901286171482437
 10
20.79154901295023
 20
9.783786171482434
 10
20.80404901295023
 20
9.762135536387825
 10
20.15972611253461
 20
9.390135536387822
 42
-0.414213562373095
 10
20.11737932501729
 20
9.401482323905138
 10
20.01337932501729
 20
9.581615607892304
 42
0.4142135623730868
 10
19.97103253749997
 20
9.592962395409623
 10
19.94530564146854
 20
9.578108965060465
 42
0.2679491924311292
 10
19.92980564146854
 20
9.551262177543149
 10
19.92980564146854
 20
9.436369473974414
 10
19.97743703867669
 20
9.463869473974414
 10
20.01343703867669
 20
9.401515644901932
 10
19.95997541769486
 20
9.370649563636758
 10
20.02353065072095
 20
9.19603299600938
 10
20.07335115879664
 20
9.149741344763393
 10
20.09933192091017
 20
9.164741344763392
 10
20.06683192091017
 20
9.221032996009382
 10
22.0742788068825
 20
10.38003299600938
 10
22.1067788068825
 20
10.32374134476339
  0
LWPOLYLINE
  5
138C
330
17
100
AcDbEntity
  8
0
100
AcDbPolyline
 90
       24
 70
     1
 43
0.0
 10
22.87832501428864
 20
9.108734381112201
 10
22.86100450621295
 20
9.098734381112201
 10
22.82850450621295
 20
9.155026032358192
 10
22.39549180432073
 20
8.905026032358199
 10
22.36049180432072
 20
8.965647810623126
 10
22.14398545337461
 20
8.840647810623122
 10
22.17898545337462
 20
8.780026032358204
 10
21.90532142577873
 20
8.622026032358204
 10
21.87032142577873
 20
8.682647810623116
 10
21.63822661756451
 20
8.548647810623116
 10
21.6732266175645
 20
8.488026032358204
 10
21.39956258996862
 20
8.330026032358203
 10
21.36456258996863
 20
8.390647810623111
 10
21.14805623902252
 20
8.265647810623107
 10
21.18305623902251
 20
8.205026032358201
 10
20.7500435371303
 20
7.955026032358192
 10
20.7825435371303
 20
7.898734381112202
 10
20.76522302905461
 20
7.888734381112202
 10
20.70674226694108
 20
7.93002603235819
 10
20.67574226694108
 20
7.983719607392826
 10
20.72186146781792
 20
8.155838808269662
 10
22.66868657552529
 20
9.279838808269682
 10
22.84080577640217
 20
9.233719607392826
 10
22.87180577640217
 20
9.18002603235819
  0
LWPOLYLINE
  5
138D
330
17
100
AcDbEntity
  8
0
100
AcDbPolyline
 90
       12
 70
     0
 43
0.0
 10
23.5593371196889
 20
7.989836548478811
 10
23.42293811753083
 20
7.911086547865656
 42
0.4142135623730639
 10
23.41195735541729
 20
7.870105785752125
 10
23.42195735541729
 20
7.852785277676433
 10
23.46092849858759
 20
7.875285277676434
 10
23.48851593742319
 20
7.82750243196248
 42
-0.3704662542213858
 10
23.30232047560955
 20
7.720002431962472
 10
23.27473303677394
 20
7.767785277676436
 10
23.31370417994424
 20
7.790285277676437
 10
23.30370417994424
 20
7.807605785752125
 42
0.4142135623730832
 10
23.26272341783071
 20
7.818586547865658
 10
23.12632441806218
 20
7.739836548632096
  0
LWPOLYLINE
  5
138E
330
17
100
AcDbEntity
  8
0
100
AcDbPolyline
 90
        6
 70
     0
 43
0.0
 10
23.5593371196889
 20
7.989836548478811
 10
23.5593371196889
 20
8.108193353662686
 42
0.5773502691896213
 10
23.5368371196889
 20
8.121183734719453
 10
23.07681479935259
 20
7.855589724240049
 42
0.4142135616547307
 10
23.07132441827743
 20
7.835099343215143
 10
23.12632441806218
 20
7.739836548632096
  0
LINE
  5
138F
330
17
100
AcDbEntity
  8
0
100
AcDbLine
 10
22.73066246394041
 20
8.521083579316682
 30
0.0
 11
22.98066246394041
 21
8.088070877424462
 31
0.0
  0
LINE
  5
1390
330
17
100
AcDbEntity
  8
0
100
AcDbLine
 10
21.34853750946333
 20
7.723113364795624
 30
0.0
 11
21.59853750946334
 21
7.290100662903409
 31
0.0
  0
LWPOLYLINE
  5
1391
330
17
100
AcDbEntity
  8
0
100
AcDbPolyline
 90
        6
 70
     0
 43
0.0
 10
21.39427360597975
 20
6.739836546026177
 10
21.29177360597975
 20
6.799014948618113
 42
-0.5773502691896213
 10
21.29177360597974
 20
6.824995710731647
 10
21.75179592631605
 20
7.090589721211054
 42
-0.4142135616547307
 10
21.77228630735442
 20
7.085099340186149
 10
21.82728630760647
 20
6.989836545872895
  0
LWPOLYLINE
  5
1392
330
17
100
AcDbEntity
  8
0
100
AcDbPolyline
 90
        4
 70
     0
 43
0.0
 10
23.86315714415483
 20
9.463604822389106
 10
22.56236119375119
 20
8.712589930262792
 10
22.6873611937512
 20
8.496083579316684
 10
23.98815714415484
 20
9.247098471443001
  0
LWPOLYLINE
  5
1393
330
17
100
AcDbEntity
  8
0
100
AcDbPolyline
 90
        4
 70
     0
 43
0.0
 10
24.23815714415483
 20
8.81408576955078
 10
22.9373611937512
 20
8.063070877424463
 10
23.06236119375119
 20
7.846564526478355
 10
24.36315714415484
 20
8.59757941860467
  0
LWPOLYLINE
  5
1394
330
17
100
AcDbEntity
  8
0
100
AcDbPolyline
 90
        4
 70
     0
 43
0.0
 10
19.96604282924893
 20
7.213604823615398
 10
21.26683877965255
 20
7.964619715741733
 10
21.39183877965255
 20
7.748113364795624
 10
20.09104282924893
 20
6.997098472669293
  0
LWPOLYLINE
  5
1395
330
17
100
AcDbEntity
  8
0
100
AcDbPolyline
 90
        4
 70
     0
 43
0.0
 10
20.34104282924892
 20
6.564085770777073
 10
21.64183877965255
 20
7.315100662903409
 10
21.76683877965256
 20
7.098594311957301
 10
20.46604282924892
 20
6.347579419830963
  0
LWPOLYLINE
  5
1396
330
17
100
AcDbEntity
  8
0
 62
     4
100
AcDbPolyline
 90
        8
 70
     1
 43
0.0
 10
21.73069665761992
 20
6.397134735105892
 42
0.4142135623730974
 10
21.71971589550639
 20
6.356153972992358
 10
22.44346589550639
 20
5.102582201014388
 42
0.4142135623730951
 10
22.48444665761991
 20
5.091601438900854
 10
23.68683711862688
 20
5.785801895234262
 42
0.2679491924311188
 10
23.70183711862688
 20
5.811782657347795
 10
23.70183711862688
 20
7.483211686651761
 42
0.577350269189633
 10
23.65683711862688
 20
7.509192448765295
  0
LWPOLYLINE
  5
1397
330
17
100
AcDbEntity
  8
0
100
AcDbPolyline
 90
       71
 70
     1
 43
0.0
 10
23.42293811753083
 20
7.911086547865656
 42
0.414213562373069
 10
23.41195735541729
 20
7.870105785752125
 10
23.42195735541729
 20
7.852785277676435
 10
23.46092849858759
 20
7.875285277676436
 10
23.48851593742319
 20
7.827502431962484
 42
-0.3704662542213875
 10
23.30232047560955
 20
7.720002431962472
 10
23.27473303677394
 20
7.767785277676436
 10
23.31370417994424
 20
7.790285277676437
 10
23.30370417994424
 20
7.807605785752125
 42
0.4142135623730951
 10
23.26272341783071
 20
7.818586547865658
 10
23.12632441673466
 20
7.739836547865658
 10
23.13632441673466
 20
7.722516039789971
 42
0.4142135623730951
 10
23.17730517884819
 20
7.711535277676437
 10
23.19803892087223
 20
7.675623383059784
 42
0.1533065830697025
 10
23.2245141919973
 20
7.651305329865472
 42
0.2453282281231514
 10
23.46033076768076
 20
7.661320577976312
 10
23.57291407017275
 20
7.726320577976309
 42
-0.4142135623730951
 10
23.61389483228629
 20
7.715339815862778
 10
23.65389483228628
 20
7.646057783560026
 42
-0.4142135623730951
 10
23.64291407017274
 20
7.605077021446497
 10
22.58636307702472
 20
6.995077021139914
 42
-0.4142135623730951
 10
22.50440155279766
 20
7.017038545366981
 10
22.20615155279766
 20
7.533622698724389
 10
22.33605536336533
 20
7.608622698724389
 42
0.4142135623730951
 10
22.42756171431144
 20
7.950129049670499
 10
22.09956171431143
 20
8.518241714553104
 10
21.99130853830737
 20
8.45574171424653
 42
0.4142135623731124
 10
21.98032777619383
 20
8.414760952132995
 10
22.06032777619384
 20
8.276196887527484
 10
22.07764828426952
 20
8.286196887527486
 10
22.11704059439001
 20
8.177967404971296
 10
22.29282777619384
 20
7.873495074767719
 42
-0.9999999999999998
 10
22.12828294947479
 20
7.778495074767716
 10
21.95249576767096
 20
8.082967404971293
 10
21.8784624413991
 20
8.171196887527486
 10
21.89578294947479
 20
8.181196887527482
 10
21.81578294947479
 20
8.319760952132995
 42
0.4142135623730951
 10
21.77480218736126
 20
8.330741714246528
 10
21.66654901241921
 20
8.268241714553104
 10
22.41779901241922
 20
6.967038545366978
 42
-0.4142135623730927
 10
22.39583748819215
 20
6.885077021139913
 10
21.68569665761992
 20
6.47507702144649
 42
-0.4142135623731062
 10
21.64471589550639
 20
6.486057783560023
 10
21.60471589550639
 20
6.555339815862781
 42
-0.4142135623730821
 10
21.61569665761992
 20
6.596320577976314
 10
21.7282799601119
 20
6.661320577976322
 42
0.2453282281231869
 10
21.85486170724283
 20
6.860536099096266
 42
0.1533065830696677
 10
21.84703929096849
 20
6.895623383059811
 10
21.82630554894447
 20
6.93153527767644
 42
0.4142135623730951
 10
21.837286311058
 20
6.972516039789974
 10
21.827286311058
 20
6.989836547865664
 10
21.69088730996195
 20
6.911086547865661
 42
0.4142135623730951
 10
21.67990654784842
 20
6.870105785752128
 10
21.68990654784842
 20
6.852785277676439
 10
21.72887769101873
 20
6.875285277676439
 10
21.75646512985432
 20
6.82750243196247
 42
-0.3704662542213863
 10
21.57026966804067
 20
6.720002431962488
 10
21.54268222920507
 20
6.76778527767644
 10
21.58165337237537
 20
6.79028527767644
 10
21.57165337237537
 20
6.80760578575213
 42
0.414213562373069
 10
21.53067261026184
 20
6.818586547865661
 10
21.39427360916579
 20
6.739836547865658
 10
22.42552360916579
 20
4.953659152560257
 10
24.59058711862688
 20
6.203659152560256
 10
24.40308711862688
 20
6.52841867897942
 10
24.34939354359225
 20
6.497418678979421
 10
24.49189354359225
 20
6.250601438900854
 10
23.83683711862688
 20
5.872404435612707
 42
-0.5773502691896196
 10
23.79183711862688
 20
5.89838519772624
 10
23.79183711862688
 20
7.587134735105893
 10
23.55933711862688
 20
7.989836547865657
  0
LINE
  5
1398
330
17
100
AcDbEntity
  8
0
100
AcDbLine
 10
20.99693119552685
 20
7.520113364795619
 30
0.0
 11
21.24693119552686
 21
7.087100662903404
 31
0.0
  0
LINE
  5
1399
330
17
100
AcDbEntity
  8
0
100
AcDbLine
 10
23.08226877787689
 20
8.724083579316681
 30
0.0
 11
23.33226877787689
 21
8.291070877424461
 31
0.0
  0
LWPOLYLINE
  5
139A
330
17
100
AcDbEntity
  8
KCADSMISC
100
AcDbPolyline
 90
       18
 70
     1
 43
0.0
 10
22.85838399501032
 20
7.209863398283102
 10
22.73838399501033
 20
7.417709495191362
 42
0.4142135623730936
 10
22.56763081953727
 20
7.463462670664418
 10
22.32690155279765
 20
7.324477563710473
 10
22.24690155279764
 20
7.463041628315982
 42
-0.4142135623730974
 10
22.26520282298686
 20
7.531342898505203
 10
22.45830069251836
 20
7.642828005459151
 42
0.4142135623730982
 10
22.50405386799141
 20
7.813581180932203
 10
22.11405386799141
 20
8.489080995884068
 10
22.54706656988363
 20
8.739080995884068
 10
22.72206656988363
 20
8.435972104559512
 10
22.70010504565656
 20
8.354010580332447
 10
22.82760504565656
 20
8.133174102367418
 10
22.90956656988363
 20
8.111212578140351
 10
23.08456656988363
 20
7.808103686815794
 10
22.85073971086183
 20
7.673103686815801
 42
0.4142135623730948
 10
22.80498653538877
 20
7.502350511342749
 10
22.94498653538877
 20
7.259863398283103
 42
-1.000001032786453
  0
LWPOLYLINE
  5
139B
330
17
100
AcDbEntity
  8
0
100
AcDbPolyline
 90
       18
 70
     1
 43
0.0
 10
21.49709370531094
 20
10.54174691485052
 10
21.64302335982586
 20
10.62599944016747
 10
22.03788157197781
 20
10.52019750109655
 10
22.12178560839789
 20
10.42020456425977
 42
0.9163314191750597
 10
22.14626666124101
 20
10.43734637227998
 10
22.060016661241
 20
10.5867357544328
 10
21.63313372255836
 20
10.70111869311543
 10
19.7387031517799
 20
9.607368693115438
 10
19.98120315177991
 20
9.187346372279982
 42
0.9163314191750304
 10
20.00828891941376
 20
9.199976681943402
 10
19.94799663469816
 20
9.365628372766838
 10
19.98052879943785
 20
9.396950268657759
 42
0.8768552549698018
 10
19.94666506527243
 20
9.441069826333482
 10
19.92332493004482
 20
9.427594392976894
 10
19.83432493004482
 20
9.581746914850524
 10
21.46245268915956
 20
10.52174691485052
 10
21.56045779173173
 20
10.35199709779453
 42
2.805883701475922
 10
21.61959370531094
 20
10.32957069092334
  0
LINE
  5
139C
330
17
100
AcDbEntity
  8
KCADSMISC
100
AcDbLine
 10
22.54706656988363
 20
8.739080995884068
 30
0.0
 11
22.56763081953727
 21
7.463462670664418
 31
0.0
  0
LINE
  5
139D
330
17
100
AcDbEntity
  8
KCADSMISC
100
AcDbLine
 10
22.11581171431142
 20
8.490095888930122
 30
0.0
 11
23.08456656988363
 21
7.808103686815794
 31
0.0
  0
TEXT
  5
139E
330
17
100
AcDbEntity
  8
KCADSLABEL
100
AcDbText
 10
19.92925055289137
 20
10.31778290892082
 30
0.0
 40
0.125
  1
822031
 50
360.0
 72
     1
 11
20.220604577448
 21
10.2807774516795
 31
0.0
100
AcDbText
 73
     1
  0
TEXT
  5
139F
330
17
100
AcDbEntity
  8
KCADSLABEL
100
AcDbText
 10
21.44249413189704
 20
9.689297130665098
 30
0.0
 40
0.125
  1
822120
 50
360.0
 72
     1
 11
21.73384815645366
 21
9.652291673423777
 31
0.0
100
AcDbText
 73
     1
  0
TEXT
  5
13A0
330
17
100
AcDbEntity
  8
KCADSLABEL
100
AcDbText
 10
20.77938740567801
 20
8.704103186733783
 30
0.0
 40
0.125
  1
822034
 50
360.0
 72
     1
 11
21.07074143023463
 21
8.667097729492462
 31
0.0
100
AcDbText
 73
     1
  0
TEXT
  5
13A1
330
17
100
AcDbEntity
  8
KCADSLABEL
100
AcDbText
 10
22.37764468991448
 20
5.663590863540592
 30
0.0
 40
0.125
  1
822005
 50
360.0
 72
     1
 11
22.6689987144711
 21
5.626585406299271
 31
0.0
100
AcDbText
 73
     1
  0
LINE
  5
13A2
330
17
100
AcDbEntity
  8
0
100
AcDbLine
 10
20.84179710482341
 20
8.007999979364916
 30
0.0
 11
20.96398681780282
 21
7.789768054043181
 31
0.0
  0
LINE
  5
13A3
330
17
100
AcDbEntity
  8
0
100
AcDbLine
 10
21.22375486897904
 20
7.939745208316642
 30
0.0
 11
21.10162666474969
 21
8.158012645731783
 31
0.0
  0
LINE
  5
13A4
330
17
100
AcDbEntity
  8
0
100
AcDbLine
 10
20.7825435371303
 20
7.898734381112204
 30
0.0
 11
20.7752713928266
 21
7.911853676719294
 31
0.0
  0
LWPOLYLINE
  5
13A5
330
17
100
AcDbEntity
  8
0
100
AcDbPolyline
 90
        3
 70
     0
 43
0.0
 10
20.73491501351503
 20
7.657513386173866
 10
20.67100320861103
 20
7.911224581823722
 10
20.70630093965645
 20
7.930790433637943
  0
LINE
  5
13A6
330
17
100
AcDbEntity
  8
0
100
AcDbLine
 10
22.09956171378042
 20
8.518241714246526
 30
0.0
 11
22.00606171378042
 21
8.680188464754213
 31
0.0
  0
LINE
  5
13A7
330
17
100
AcDbEntity
  8
0
100
AcDbLine
 10
22.00606171378042
 20
8.680188464754213
 30
0.0
 11
21.89780853830737
 21
8.617688464754213
 31
0.0
  0
LINE
  5
13A8
330
17
100
AcDbEntity
  8
0
100
AcDbLine
 10
21.89780853830737
 20
8.617688464754213
 30
0.0
 11
21.94455853830737
 21
8.536715089500367
 31
0.0
  0
LINE
  5
13A9
330
17
100
AcDbEntity
  8
0
100
AcDbLine
 10
21.94455853830737
 20
8.536715089500367
 30
0.0
 11
21.72805218736126
 21
8.41171508950037
 31
0.0
  0
LINE
  5
13AA
330
17
100
AcDbEntity
  8
0
100
AcDbLine
 10
21.72805218736126
 20
8.41171508950037
 30
0.0
 11
21.68130218736126
 21
8.492688464754213
 31
0.0
  0
LINE
  5
13AB
330
17
100
AcDbEntity
  8
0
100
AcDbLine
 10
21.68130218736126
 20
8.492688464754213
 30
0.0
 11
21.5730490118882
 21
8.430188464754213
 31
0.0
  0
LINE
  5
13AC
330
17
100
AcDbEntity
  8
0
100
AcDbLine
 10
21.5730490118882
 20
8.430188464754213
 30
0.0
 11
21.6665490118882
 21
8.268241714246528
 31
0.0
  0
LINE
  5
13AD
330
17
100
AcDbEntity
  8
0
100
AcDbLine
 10
22.73774053276706
 20
9.102623427856487
 30
0.0
 11
22.86278515663461
 21
8.886039786104545
 31
0.0
  0
LINE
  5
13AE
330
17
100
AcDbEntity
  8
0
100
AcDbLine
 10
22.60297753549928
 20
8.736039786104546
 30
0.0
 11
22.47793291163173
 21
8.952623427856485
 31
0.0
  0
LINE
  5
13AF
330
17
100
AcDbEntity
  8
0
100
AcDbLine
 10
23.09189185498226
 20
9.018314600068707
 30
0.0
 11
22.90774583065923
 21
9.200776032358193
 31
0.0
  0
MTEXT
  5
13B2
330
17
100
AcDbEntity
  8
KCADSLABEL
100
AcDbMText
 10
22.00291566964184
 20
1.402597390331069
 30
0.0
 40
0.375
 41
2.236369412395474
 71
     2
 72
     5
  1
PURLIN
 73
     1
 44
1.0
1001
ACAD
1000
MTEXTBEGIN
1070
    73
1070
     1
1070
    44
1040
1.0
1070
    74
1070
     0
1000
MTEXTEND
  0
TEXT
  5
14B0
330
17
100
AcDbEntity
  8
KCADSLABEL
100
AcDbText
 10
29.5428525399087
 20
8.954751898184021
 30
0.0
 40
0.125
  1
822121
 50
360.0
 72
     1
 11
29.83420656446531
 21
9.079751898184021
 31
0.0
100
AcDbText
 73
     3
  0
LINE
  5
14B1
330
17
100
AcDbEntity
  8
0
100
AcDbLine
 10
31.99040608326021
 20
7.769709031917734
 30
0.0
 11
31.61220080325774
 21
9.161898053295328
 31
0.0
  0
LWPOLYLINE
  5
14B2
330
17
100
AcDbEntity
  8
0
100
AcDbPolyline
 90
        6
 70
     0
 43
0.0
 10
32.01841566919102
 20
10.61596548063114
 42
0.2679491924364383
 10
31.98741566919049
 20
10.6159654806323
 10
28.61037756329839
 20
8.666231621255334
 10
28.56987756329838
 20
8.736379678961874
 10
31.94691566963712
 20
10.68611353834387
 42
-0.2679491924478389
 10
32.05891566964317
 20
10.68611353833122
  0
ARC
  5
14B3
330
17
100
AcDbEntity
  8
0
100
AcDbCircle
 10
31.35687477114603
 20
9.041592950911502
 30
0.0
 40
0.2822493584288441
100
AcDbArc
 50
25.22898272173602
 51
146.537517509884
  0
LWPOLYLINE
  5
14B4
330
17
100
AcDbEntity
  8
0
100
AcDbPolyline
 90
       30
 70
     1
 43
0.0
 10
29.25985574802384
 20
8.290652676092877
 42
-0.4142135623730864
 10
29.21750896050653
 20
8.301999463610194
 10
28.98600896050652
 20
8.702969225562386
 42
-0.4142135623730951
 10
28.99735574802384
 20
8.745316013079705
 10
29.322115274443
 20
8.932816013079708
 10
29.259615274443
 20
9.041069188552759
 10
29.17301273406455
 20
8.99106918855276
 10
29.18851273406455
 20
8.964222401035442
 10
28.92870511292922
 20
8.814222401035438
 10
28.91320511292923
 20
8.841069188552754
 10
28.82660257255079
 20
8.791069188552757
 10
29.20160257255079
 20
8.141550135714432
 10
29.25142308062648
 20
8.095258484468445
 10
29.27740384274001
 20
8.110258484468442
 10
29.24490384274001
 20
8.166550135714434
 10
30.03298696018385
 20
8.621550135714443
 10
30.06030746825954
 20
8.614229627638755
 10
30.06762797633522
 20
8.641550135714442
 10
30.50064067822744
 20
8.891550135714448
 10
30.52796118630313
 20
8.884229627638754
 10
30.53528169437882
 20
8.911550135714442
 10
31.04190655559271
 20
9.204050135714457
 10
30.99190655559271
 20
9.2906526760929
 10
30.66714702917355
 20
9.103152676092889
 10
30.65464702917355
 20
9.124803311187502
 10
30.2346247083381
 20
8.882303311187495
 10
30.22913432728133
 20
8.861812930130733
 10
30.20864394622456
 20
8.867303311187495
 10
29.78862162538911
 20
8.624803311187495
 10
29.80112162538911
 20
8.603152676092882
  0
LINE
  5
14B5
330
17
100
AcDbEntity
  8
0
100
AcDbLine
 10
29.48973903098087
 20
7.731132878631933
 30
0.0
 11
29.73973903098087
 21
7.298120176739715
 31
0.0
  0
LWPOLYLINE
  5
14B6
330
17
100
AcDbEntity
  8
0
100
AcDbPolyline
 90
       53
 70
     1
 43
0.0
 10
31.70770960138677
 20
7.464380063082263
 10
30.22555696322964
 20
6.608658838462128
 42
0.4142135623731063
 10
30.21457620111611
 20
6.567678076348594
 10
30.93832620111611
 20
5.314106304370622
 42
0.41421356237309
 10
30.97930696322964
 20
5.30312554225709
 10
31.87997338316546
 20
5.823125542257093
 10
31.80747783433641
 20
6.009387173840129
 42
-0.9265505782289737
 10
31.86141566950606
 20
6.03526844518749
 10
32.00291566950606
 20
5.790183255916496
 10
30.92038391477551
 20
5.165183255916494
 10
29.88913391477551
 20
6.951360651221893
 10
30.02553291587156
 20
7.030110651221898
 42
-0.4142135623730676
 10
30.0665136779851
 20
7.019129889108366
 10
30.07651367798509
 20
7.001809381032677
 10
30.03754253481479
 20
6.979309381032674
 10
30.06512997365039
 20
6.931526535318724
 42
0.3704662542213871
 10
30.25132543546405
 20
7.039026535318704
 10
30.22373799662844
 20
7.086809381032676
 10
30.18476685345814
 20
7.064309381032675
 10
30.17476685345815
 20
7.081629889108363
 42
-0.4142135623730923
 10
30.18574761557168
 20
7.122610651221897
 10
30.32214661666773
 20
7.2013606512219
 10
30.33214661666773
 20
7.184040143146209
 42
-0.4142135623730979
 10
30.32116585455419
 20
7.143059381032678
 10
30.34189959657821
 20
7.107147486416046
 42
-0.1533065830696656
 10
30.34972201285255
 20
7.072060202452501
 42
-0.2453282281231861
 10
30.22314026572163
 20
6.872844681332558
 10
30.11055696322965
 20
6.80784468133255
 42
0.4142135623730951
 10
30.09957620111612
 20
6.766863919219018
 10
30.13957620111611
 20
6.697581886916259
 42
0.4142135623730981
 10
30.18055696322965
 20
6.686601124802726
 10
30.89069779380187
 20
7.096601124496149
 42
0.4142135623730966
 10
30.91265931802894
 20
7.178562648723215
 10
30.16140931802894
 20
8.479765817909338
 10
30.26966249297098
 20
8.542265817602762
 42
-0.4142135623730951
 10
30.31064325508451
 20
8.531285055489229
 10
30.39064325508451
 20
8.392720990883718
 10
30.37332274700883
 20
8.382720990883722
 10
30.44735607328069
 20
8.294491508327528
 10
30.62314325508451
 20
7.990019178123953
 42
0.9999999999999996
 10
30.78768808180356
 20
8.085019178123953
 10
30.61190089999973
 20
8.38949150832753
 10
30.57250858987925
 20
8.497720990883721
 10
30.55518808180356
 20
8.487720990883719
 10
30.47518808180356
 20
8.62628505548923
 42
-0.4142135623731115
 10
30.48616884391709
 20
8.667265817602764
 10
30.59442201992116
 20
8.729765817909338
 10
30.92242201992116
 20
8.161653153026733
 42
-0.4142135623730951
 10
30.83091566897505
 20
7.820146802080623
 10
30.70101185840739
 20
7.745146802080624
 10
30.99926185840738
 20
7.228562648723215
 42
0.4142135623730935
 10
31.08122338263445
 20
7.206601124496151
 10
31.66270960138677
 20
7.542322349422864
  0
LINE
  5
14B7
330
17
100
AcDbEntity
  8
0
100
AcDbLine
 10
28.59051231999759
 20
7.500639229578039
 30
0.0
 11
29.75964661510657
 21
8.175639229578042
 31
0.0
  0
LINE
  5
14B8
330
17
100
AcDbEntity
  8
0
100
AcDbLine
 10
29.75964661510657
 20
8.175639229578042
 30
0.0
 11
29.88464661510657
 21
7.959132878631931
 31
0.0
  0
LINE
  5
14B9
330
17
100
AcDbEntity
  8
0
100
AcDbLine
 10
29.88464661510657
 20
7.959132878631931
 30
0.0
 11
28.71551231999758
 21
7.284132878631933
 31
0.0
  0
LINE
  5
14BA
330
17
100
AcDbEntity
  8
0
100
AcDbLine
 10
29.84134534491735
 20
7.934132878631933
 30
0.0
 11
30.09134534491735
 21
7.501120176739714
 31
0.0
  0
LINE
  5
14BB
330
17
100
AcDbEntity
  8
0
100
AcDbLine
 10
28.96551231999758
 20
6.851120176739714
 30
0.0
 11
30.13464661510657
 21
7.526120176739713
 31
0.0
  0
LINE
  5
14BC
330
17
100
AcDbEntity
  8
0
100
AcDbLine
 10
30.13464661510657
 20
7.526120176739713
 30
0.0
 11
30.25964661510657
 21
7.309613825793602
 31
0.0
  0
LINE
  5
14BD
330
17
100
AcDbEntity
  8
0
100
AcDbLine
 10
30.25964661510657
 20
7.309613825793602
 30
0.0
 11
29.09051231999758
 21
6.634613825793604
 31
0.0
  0
LWPOLYLINE
  5
14BE
330
17
100
AcDbEntity
  8
0
100
AcDbPolyline
 90
        6
 70
     0
 43
0.0
 10
29.8891339137135
 20
6.951360650608737
 10
29.7866339137135
 20
7.010539053200677
 42
-0.5773502691896213
 10
29.7866339137135
 20
7.036519815314211
 10
30.2466562340498
 20
7.302113825793611
 42
-0.4142135616547307
 10
30.26714661508818
 20
7.296623444768703
 10
30.32214661534022
 20
7.201360650455452
  0
LWPOLYLINE
  5
14BF
330
17
100
AcDbEntity
  8
0
100
AcDbPolyline
 90
       12
 70
     0
 43
0.0
 10
29.8891339137135
 20
6.951360650608737
 10
30.02553291587156
 20
7.030110651221896
 42
-0.4142135623730639
 10
30.0665136779851
 20
7.019129889108366
 10
30.0765136779851
 20
7.001809381032677
 10
30.0375425348148
 20
6.979309381032676
 10
30.06512997365039
 20
6.931526535318724
 42
0.3704662542213858
 10
30.25132543546405
 20
7.039026535318706
 10
30.22373799662845
 20
7.086809381032676
 10
30.18476685345815
 20
7.064309381032675
 10
30.17476685345815
 20
7.081629889108363
 42
-0.4142135623730832
 10
30.18574761557168
 20
7.122610651221897
 10
30.32214661534022
 20
7.201360650455452
  0
INSERT
  5
14C0
330
17
100
AcDbEntity
  8
0
100
AcDbBlockReference
  2
*X1
 10
18.37149014696075
 20
1.940761455379359
 30
0.0
  0
LWPOLYLINE
  5
14C1
330
17
100
AcDbEntity
  8
KCADSMISC
100
AcDbPolyline
 90
        4
 70
     1
 43
0.0
 10
31.95532706192774
 20
7.75283433841743
 10
31.09857706192773
 20
9.236768867802073
 10
30.6091751953942
 20
8.954212568417029
 10
31.46592519539421
 20
7.47027803903239
  0
LINE
  5
14C2
330
17
100
AcDbEntity
  8
KCADSMISC
100
AcDbLine
 10
31.09857706192773
 20
9.236768867802073
 30
0.0
 11
31.46592519539421
 21
7.47027803903239
 31
0.0
  0
LINE
  5
14C3
330
17
100
AcDbEntity
  8
KCADSMISC
100
AcDbLine
 10
30.6091751953942
 20
8.954212568417029
 30
0.0
 11
31.95532706192774
 21
7.752834338417432
 31
0.0
  0
LINE
  5
14C4
330
17
100
AcDbEntity
  8
KCADSMISC
100
AcDbLine
 10
33.3966561425559
 20
8.954212568417029
 30
0.0
 11
32.05050427602236
 21
7.752834338417432
 31
0.0
  0
LWPOLYLINE
  5
14C5
330
17
100
AcDbEntity
  8
KCADSMISC
100
AcDbPolyline
 90
        4
 70
     1
 43
0.0
 10
32.05050427602236
 20
7.75283433841743
 10
32.90725427602237
 20
9.236768867802073
 10
33.3966561425559
 20
8.954212568417029
 10
32.53990614255589
 20
7.47027803903239
  0
INSERT
  5
14C6
330
17
100
AcDbEntity
  8
0
100
AcDbBlockReference
  2
*X1
 10
45.63434119098935
 20
1.940761455379359
 30
0.0
 41
-1.0
  0
LWPOLYLINE
  5
14C7
330
17
100
AcDbEntity
  8
0
100
AcDbPolyline
 90
       10
 70
     1
 43
0.0
 10
32.00291566897505
 20
7.77102760181696
 42
0.1316524930855708
 10
31.97291567003708
 20
7.762989126044027
 10
31.1714765581075
 20
7.300278039032392
 10
31.1894765581075
 20
7.269101124496151
 10
31.98791567006306
 20
7.730080160700218
 42
-0.1316524883635151
 10
32.00291566897506
 20
7.734099398586685
 42
-0.1316524883635151
 10
32.01791566788705
 20
7.730080160700218
 10
32.8163547798426
 20
7.269101124496151
 10
32.8343547798426
 20
7.300278039032392
 10
32.03291566791302
 20
7.762989126044027
 42
0.1316524930855708
  0
LWPOLYLINE
  5
14C8
330
17
100
AcDbEntity
  8
0
100
AcDbPolyline
 90
       53
 70
     1
 43
0.0
 10
32.29812173656333
 20
7.464380063082263
 10
33.78027437472046
 20
6.608658838462128
 42
-0.4142135623731063
 10
33.791255136834
 20
6.567678076348594
 10
33.067505136834
 20
5.314106304370622
 42
-0.41421356237309
 10
33.02652437472047
 20
5.30312554225709
 10
32.12585795478464
 20
5.823125542257093
 10
32.1983535036137
 20
6.009387173840129
 42
0.9265505782289737
 10
32.14441566844404
 20
6.03526844518749
 10
32.00291566844405
 20
5.790183255916496
 10
33.08544742317458
 20
5.165183255916494
 10
34.11669742317459
 20
6.951360651221893
 10
33.98029842207854
 20
7.030110651221898
 42
0.4142135623730676
 10
33.93931765996502
 20
7.019129889108366
 10
33.92931765996501
 20
7.001809381032677
 10
33.96828880313531
 20
6.979309381032674
 10
33.94070136429971
 20
6.931526535318724
 42
-0.3704662542213871
 10
33.75450590248605
 20
7.039026535318704
 10
33.78209334132165
 20
7.086809381032676
 10
33.82106448449196
 20
7.064309381032675
 10
33.83106448449196
 20
7.081629889108363
 42
0.4142135623730923
 10
33.82008372237842
 20
7.122610651221897
 10
33.68368472128238
 20
7.2013606512219
 10
33.67368472128237
 20
7.184040143146209
 42
0.4142135623730979
 10
33.6846654833959
 20
7.143059381032678
 10
33.66393174137189
 20
7.107147486416046
 42
0.1533065830696656
 10
33.65610932509755
 20
7.072060202452501
 42
0.2453282281231861
 10
33.78269107222847
 20
6.872844681332558
 10
33.89527437472046
 20
6.80784468133255
 42
-0.4142135623730951
 10
33.90625513683399
 20
6.766863919219018
 10
33.86625513683399
 20
6.697581886916259
 42
-0.4142135623730981
 10
33.82527437472046
 20
6.686601124802726
 10
33.11513354414823
 20
7.096601124496149
 42
-0.4142135623730966
 10
33.09317201992116
 20
7.178562648723215
 10
33.84442201992117
 20
8.479765817909338
 10
33.73616884497912
 20
8.542265817602762
 42
0.4142135623730951
 10
33.69518808286559
 20
8.531285055489229
 10
33.61518808286559
 20
8.392720990883718
 10
33.63250859094128
 20
8.382720990883722
 10
33.55847526466941
 20
8.294491508327528
 10
33.38268808286559
 20
7.990019178123953
 42
-0.9999999999999996
 10
33.21814325614654
 20
8.085019178123953
 10
33.39393043795038
 20
8.38949150832753
 10
33.43332274807086
 20
8.497720990883721
 10
33.45064325614654
 20
8.487720990883719
 10
33.53064325614655
 20
8.62628505548923
 42
0.4142135623731115
 10
33.51966249403301
 20
8.667265817602764
 10
33.41140931802895
 20
8.729765817909338
 10
33.08340931802894
 20
8.161653153026733
 42
0.4142135623730951
 10
33.17491566897505
 20
7.820146802080623
 10
33.30481947954272
 20
7.745146802080624
 10
33.00656947954272
 20
7.228562648723215
 42
-0.4142135623730935
 10
32.92460795531566
 20
7.206601124496151
 10
32.34312173656333
 20
7.542322349422864
  0
LWPOLYLINE
  5
14C9
330
17
100
AcDbEntity
  8
0
100
AcDbPolyline
 90
        6
 70
     0
 43
0.0
 10
31.98741566875909
 20
10.61596548063114
 42
-0.2679491924364383
 10
32.01841566875962
 20
10.6159654806323
 10
35.39545377465171
 20
8.666231621255334
 10
35.43595377465172
 20
8.736379678961874
 10
32.05891566831299
 20
10.68611353834387
 42
0.2679491924478389
 10
31.94691566830693
 20
10.68611353833122
  0
LINE
  5
14CA
330
17
100
AcDbEntity
  8
0
100
AcDbLine
 10
33.74618472284353
 20
7.309613825793602
 30
0.0
 11
34.91531901795252
 21
6.634613825793604
 31
0.0
  0
LINE
  5
14CB
330
17
100
AcDbEntity
  8
0
100
AcDbLine
 10
35.04031901795252
 20
6.851120176739714
 30
0.0
 11
33.87118472284353
 21
7.526120176739713
 31
0.0
  0
LINE
  5
14CC
330
17
100
AcDbEntity
  8
0
100
AcDbLine
 10
34.12118472284353
 20
7.959132878631931
 30
0.0
 11
35.29031901795252
 21
7.284132878631933
 31
0.0
  0
LINE
  5
14CD
330
17
100
AcDbEntity
  8
0
100
AcDbLine
 10
35.41531901795252
 20
7.500639229578037
 30
0.0
 11
34.24618472284353
 21
8.175639229578042
 31
0.0
  0
LWPOLYLINE
  5
14CE
330
17
100
AcDbEntity
  8
0
100
AcDbPolyline
 90
       30
 70
     1
 43
0.0
 10
34.74597558992626
 20
8.290652676092877
 42
0.4142135623730864
 10
34.78832237744358
 20
8.301999463610194
 10
35.01982237744358
 20
8.702969225562386
 42
0.4142135623730951
 10
35.00847558992627
 20
8.745316013079705
 10
34.68371606350711
 20
8.932816013079708
 10
34.74621606350711
 20
9.041069188552759
 10
34.83281860388555
 20
8.99106918855276
 10
34.81731860388555
 20
8.964222401035442
 10
35.07712622502088
 20
8.814222401035438
 10
35.09262622502088
 20
8.841069188552754
 10
35.17922876539932
 20
8.791069188552757
 10
34.80422876539931
 20
8.141550135714432
 10
34.75440825732362
 20
8.095258484468445
 10
34.72842749521009
 20
8.110258484468442
 10
34.76092749521009
 20
8.166550135714434
 10
33.97284437776625
 20
8.621550135714443
 10
33.94552386969057
 20
8.614229627638755
 10
33.93820336161488
 20
8.641550135714442
 10
33.50519065972267
 20
8.891550135714448
 10
33.47787015164697
 20
8.884229627638754
 10
33.47054964357128
 20
8.911550135714442
 10
32.9639247823574
 20
9.204050135714457
 10
33.01392478235739
 20
9.2906526760929
 10
33.33868430877655
 20
9.103152676092889
 10
33.35118430877655
 20
9.124803311187502
 10
33.77120662961201
 20
8.882303311187495
 10
33.77669701066877
 20
8.861812930130733
 10
33.79718739172554
 20
8.867303311187495
 10
34.21720971256099
 20
8.624803311187495
 10
34.20470971256099
 20
8.603152676092882
  0
LWPOLYLINE
  5
14CF
330
17
100
AcDbEntity
  8
0
100
AcDbPolyline
 90
       12
 70
     0
 43
0.0
 10
34.11669742423661
 20
6.951360650608737
 10
33.98029842207854
 20
7.030110651221896
 42
0.4142135623730639
 10
33.93931765996501
 20
7.019129889108366
 10
33.92931765996501
 20
7.001809381032677
 10
33.96828880313531
 20
6.979309381032676
 10
33.94070136429971
 20
6.931526535318724
 42
-0.3704662542213858
 10
33.75450590248605
 20
7.039026535318706
 10
33.78209334132165
 20
7.086809381032676
 10
33.82106448449196
 20
7.064309381032675
 10
33.83106448449196
 20
7.081629889108363
 42
0.4142135623730832
 10
33.82008372237842
 20
7.122610651221897
 10
33.68368472260988
 20
7.201360650455452
  0
LWPOLYLINE
  5
14D0
330
17
100
AcDbEntity
  8
0
100
AcDbPolyline
 90
        6
 70
     0
 43
0.0
 10
34.11669742423661
 20
6.951360650608737
 10
34.21919742423661
 20
7.010539053200677
 42
0.5773502691896213
 10
34.21919742423661
 20
7.036519815314211
 10
33.7591751039003
 20
7.302113825793611
 42
0.4142135616547307
 10
33.73868472286194
 20
7.296623444768703
 10
33.68368472260988
 20
7.201360650455452
  0
LINE
  5
14D1
330
17
100
AcDbEntity
  8
0
100
AcDbLine
 10
34.16448599303275
 20
7.934132878631933
 30
0.0
 11
33.91448599303275
 21
7.501120176739714
 31
0.0
  0
LINE
  5
14D2
330
17
100
AcDbEntity
  8
0
100
AcDbLine
 10
34.51609230696924
 20
7.731132878631933
 30
0.0
 11
34.26609230696924
 21
7.298120176739715
 31
0.0
  0
LINE
  5
14D3
330
17
100
AcDbEntity
  8
0
100
AcDbLine
 10
34.24618472284353
 20
8.175639229578042
 30
0.0
 11
34.12118472284353
 21
7.959132878631931
 31
0.0
  0
LINE
  5
14D4
330
17
100
AcDbEntity
  8
0
100
AcDbLine
 10
33.87118472284353
 20
7.526120176739713
 30
0.0
 11
33.74618472284353
 21
7.309613825793602
 31
0.0
  0
LINE
  5
14D5
330
17
100
AcDbEntity
  8
KCADSMISC
100
AcDbLine
 10
32.90725427602237
 20
9.236768867802073
 30
0.0
 11
32.53990614255589
 21
7.47027803903239
 31
0.0
  0
TEXT
  5
14D6
330
17
100
AcDbEntity
  8
KCADSLABEL
100
AcDbText
 10
30.6719040951886
 20
6.300425606880842
 30
0.0
 40
0.125
  1
822009
 50
360.0
 72
     1
 11
30.96325811974522
 21
6.425425606880842
 31
0.0
100
AcDbText
 73
     3
  0
TEXT
  5
14D7
330
17
100
AcDbEntity
  8
KCADSLABEL
100
AcDbText
 10
33.86727839303512
 20
8.955783593444143
 30
0.0
 40
0.125
  1
822121
 72
     1
 11
34.15863241759173
 21
9.080783593444143
 31
0.0
100
AcDbText
 73
     3
  0
ARC
  5
14D8
330
17
100
AcDbEntity
  8
0
100
AcDbCircle
 10
31.30395136431562
 20
8.431014235484983
 30
0.0
 40
1.012444882526741
100
AcDbArc
 50
241.2997629808826
 51
274.3938635266596
  0
CIRCLE
  5
14D9
330
17
100
AcDbEntity
  8
0
100
AcDbCircle
 10
31.06396863753533
 20
7.40967840092192
 30
0.0
 40
0.0059
  0
CIRCLE
  5
14DA
330
17
100
AcDbEntity
  8
0
100
AcDbCircle
 10
30.88421265782509
 20
7.483857013630652
 30
0.0
 40
0.0059
  0
CIRCLE
  5
14DB
330
17
100
AcDbEntity
  8
0
100
AcDbCircle
 10
30.90370221276784
 20
7.446214094513914
 30
0.0
 40
0.0059
  0
CIRCLE
  5
14DC
330
17
100
AcDbEntity
  8
0
100
AcDbCircle
 10
30.94138199724492
 20
7.454002278357091
 30
0.0
 40
0.0059
  0
CIRCLE
  5
14DD
330
17
100
AcDbEntity
  8
0
100
AcDbCircle
 10
30.93878337361005
 20
7.409869201674652
 30
0.0
 40
0.0059
  0
CIRCLE
  5
14DE
330
17
100
AcDbEntity
  8
0
100
AcDbCircle
 10
31.00374852957059
 20
7.426743608727644
 30
0.0
 40
0.0059
  0
CIRCLE
  5
14DF
330
17
100
AcDbEntity
  8
0
100
AcDbCircle
 10
30.97256526340776
 20
7.376120374479501
 30
0.0
 40
0.0059
  0
CIRCLE
  5
14E0
330
17
100
AcDbEntity
  8
0
100
AcDbCircle
 10
31.00504782779704
 20
7.303430588800976
 30
0.0
 40
0.0059
  0
CIRCLE
  5
14E1
330
17
100
AcDbEntity
  8
0
100
AcDbCircle
 10
31.04532623590901
 20
7.34626563920594
 30
0.0
 40
0.0059
  0
CIRCLE
  5
14E2
330
17
100
AcDbEntity
  8
0
100
AcDbCircle
 10
31.00374852957059
 20
7.363140059348097
 30
0.0
 40
0.0059
  0
CIRCLE
  5
14E3
330
17
100
AcDbEntity
  8
0
100
AcDbCircle
 10
31.04402693768256
 20
7.387802663333431
 30
0.0
 40
0.0059
  0
CIRCLE
  5
14E4
330
17
100
AcDbEntity
  8
0
100
AcDbCircle
 10
31.12978091963034
 20
7.376120374479501
 30
0.0
 40
0.0059
  0
CIRCLE
  5
14E5
330
17
100
AcDbEntity
  8
0
100
AcDbCircle
 10
31.21423563053364
 20
7.387802663333431
 30
0.0
 40
0.0059
  0
CIRCLE
  5
14E6
330
17
100
AcDbEntity
  8
0
100
AcDbCircle
 10
31.27010564454505
 20
7.39169675525502
 30
0.0
 40
0.0059
  0
CIRCLE
  5
14E7
330
17
100
AcDbEntity
  8
0
100
AcDbCircle
 10
31.18565096082372
 20
7.35794792805987
 30
0.0
 40
0.0059
  0
CIRCLE
  5
14E8
330
17
100
AcDbEntity
  8
0
100
AcDbCircle
 10
31.14017535980593
 20
7.329391232152948
 30
0.0
 40
0.0059
  0
CIRCLE
  5
14E9
330
17
100
AcDbEntity
  8
0
100
AcDbCircle
 10
31.13108021785679
 20
7.293046339313685
 30
0.0
 40
0.0059
  0
CIRCLE
  5
14EA
330
17
100
AcDbEntity
  8
0
100
AcDbCircle
 10
31.07261160739247
 20
7.28396011610387
 30
0.0
 40
0.0059
  0
CIRCLE
  5
14EB
330
17
100
AcDbEntity
  8
0
100
AcDbCircle
 10
31.09729835524105
 20
7.33458335035201
 30
0.0
 40
0.0059
  0
CIRCLE
  5
14EC
330
17
100
AcDbEntity
  8
0
100
AcDbCircle
 10
31.04662553413547
 20
7.263191604040123
 30
0.0
 40
0.0059
  0
CIRCLE
  5
14ED
330
17
100
AcDbEntity
  8
0
100
AcDbCircle
 10
31.06091786899043
 20
7.229442776844974
 30
0.0
 40
0.0059
  0
CIRCLE
  5
14EE
330
17
100
AcDbEntity
  8
0
100
AcDbCircle
 10
31.11418928654893
 20
7.26059553839601
 30
0.0
 40
0.0059
  0
CIRCLE
  5
14EF
330
17
100
AcDbEntity
  8
0
100
AcDbCircle
 10
31.11029139186956
 20
7.41506133296288
 30
0.0
 40
0.0059
  0
CIRCLE
  5
14F0
330
17
100
AcDbEntity
  8
0
100
AcDbCircle
 10
31.31298264910993
 20
7.398186912820722
 30
0.0
 40
0.0059
  0
CIRCLE
  5
14F1
330
17
100
AcDbEntity
  8
0
100
AcDbCircle
 10
30.97776248349556
 20
7.32809319278631
 30
0.0
 40
0.0059
  0
CIRCLE
  5
14F2
330
17
100
AcDbEntity
  8
0
100
AcDbCircle
 10
33.00208152907254
 20
7.363140059348097
 30
0.0
 40
0.0059
  0
CIRCLE
  5
14F3
330
17
100
AcDbEntity
  8
0
100
AcDbCircle
 10
33.00208152907254
 20
7.426743608727644
 30
0.0
 40
0.0059
  0
ARC
  5
14F4
330
17
100
AcDbEntity
  8
0
100
AcDbCircle
 10
32.70187869432752
 20
8.431014235484983
 30
0.0
 40
1.012444882526741
100
AcDbArc
 50
265.6061364733403
 51
298.7002370191173
  0
CIRCLE
  5
14F5
330
17
100
AcDbEntity
  8
0
100
AcDbCircle
 10
33.02806757514757
 20
7.32809319278631
 30
0.0
 40
0.0059
  0
CIRCLE
  5
14F6
330
17
100
AcDbEntity
  8
0
100
AcDbCircle
 10
33.10212784587529
 20
7.446214094513914
 30
0.0
 40
0.0059
  0
CIRCLE
  5
14F7
330
17
100
AcDbEntity
  8
0
100
AcDbCircle
 10
33.12161740081804
 20
7.483857013630652
 30
0.0
 40
0.0059
  0
CIRCLE
  5
14F8
330
17
100
AcDbEntity
  8
0
100
AcDbCircle
 10
33.03326479523537
 20
7.376120374479501
 30
0.0
 40
0.0059
  0
CIRCLE
  5
14F9
330
17
100
AcDbEntity
  8
0
100
AcDbCircle
 10
33.06704668503309
 20
7.409869201674652
 30
0.0
 40
0.0059
  0
CIRCLE
  5
14FA
330
17
100
AcDbEntity
  8
0
100
AcDbCircle
 10
33.06444806139821
 20
7.454002278357091
 30
0.0
 40
0.0059
  0
CIRCLE
  5
14FB
330
17
100
AcDbEntity
  8
0
100
AcDbCircle
 10
32.86565469883721
 20
7.329391232152948
 30
0.0
 40
0.0059
  0
CIRCLE
  5
14FC
330
17
100
AcDbEntity
  8
0
100
AcDbCircle
 10
32.96050382273413
 20
7.34626563920594
 30
0.0
 40
0.0059
  0
CIRCLE
  5
14FD
330
17
100
AcDbEntity
  8
0
100
AcDbCircle
 10
32.93321845125066
 20
7.28396011610387
 30
0.0
 40
0.0059
  0
CIRCLE
  5
14FE
330
17
100
AcDbEntity
  8
0
100
AcDbCircle
 10
32.94491218965271
 20
7.229442776844974
 30
0.0
 40
0.0059
  0
CIRCLE
  5
14FF
330
17
100
AcDbEntity
  8
0
100
AcDbCircle
 10
32.95920452450767
 20
7.263191604040123
 30
0.0
 40
0.0059
  0
CIRCLE
  5
1500
330
17
100
AcDbEntity
  8
0
100
AcDbCircle
 10
33.00078223084609
 20
7.303430588800976
 30
0.0
 40
0.0059
  0
CIRCLE
  5
1501
330
17
100
AcDbEntity
  8
0
100
AcDbCircle
 10
32.89164077209421
 20
7.26059553839601
 30
0.0
 40
0.0059
  0
CIRCLE
  5
1502
330
17
100
AcDbEntity
  8
0
100
AcDbCircle
 10
32.90853170340208
 20
7.33458335035201
 30
0.0
 40
0.0059
  0
CIRCLE
  5
1503
330
17
100
AcDbEntity
  8
0
100
AcDbCircle
 10
32.87474984078634
 20
7.293046339313685
 30
0.0
 40
0.0059
  0
CIRCLE
  5
1504
330
17
100
AcDbEntity
  8
0
100
AcDbCircle
 10
32.96180312096058
 20
7.387802663333431
 30
0.0
 40
0.0059
  0
CIRCLE
  5
1505
330
17
100
AcDbEntity
  8
0
100
AcDbCircle
 10
32.9418614211078
 20
7.40967840092192
 30
0.0
 40
0.0059
  0
CIRCLE
  5
1506
330
17
100
AcDbEntity
  8
0
100
AcDbCircle
 10
32.89553866677358
 20
7.41506133296288
 30
0.0
 40
0.0059
  0
CIRCLE
  5
1507
330
17
100
AcDbEntity
  8
0
100
AcDbCircle
 10
32.87604913901279
 20
7.376120374479501
 30
0.0
 40
0.0059
  0
CIRCLE
  5
1508
330
17
100
AcDbEntity
  8
0
100
AcDbCircle
 10
32.79159442810949
 20
7.387802663333431
 30
0.0
 40
0.0059
  0
CIRCLE
  5
1509
330
17
100
AcDbEntity
  8
0
100
AcDbCircle
 10
32.82017909781941
 20
7.35794792805987
 30
0.0
 40
0.0059
  0
CIRCLE
  5
150A
330
17
100
AcDbEntity
  8
0
100
AcDbCircle
 10
32.73572441409808
 20
7.39169675525502
 30
0.0
 40
0.0059
  0
CIRCLE
  5
150B
330
17
100
AcDbEntity
  8
0
100
AcDbCircle
 10
32.6928474095332
 20
7.398186912820722
 30
0.0
 40
0.0059
  0
LINE
  5
150C
330
17
100
AcDbEntity
  8
0
100
AcDbLine
 10
32.00291502932156
 20
9.282197248622178
 30
0.0
 11
32.00291502932156
 21
8.799762932912198
 31
0.0
  0
LINE
  5
150D
330
17
100
AcDbEntity
  8
0
100
AcDbLine
 10
32.00291509560616
 20
9.282195682457189
 30
0.0
 11
32.00291566897505
 21
7.77102760181696
 31
0.0
  0
ARC
  5
150E
330
17
100
AcDbEntity
  8
0
100
AcDbCircle
 10
31.79178954230087
 20
9.273261027927492
 30
0.0
 40
0.2113145222412043
100
AcDbArc
 50
357.5763120533437
 51
211.8030507470507
  0
LINE
  5
150F
330
17
100
AcDbEntity
  8
0
100
AcDbLine
 10
32.01542438595104
 20
7.769709031917734
 30
0.0
 11
32.3936296659535
 21
9.161898053295328
 31
0.0
  0
ARC
  5
1510
330
17
100
AcDbEntity
  8
0
100
AcDbCircle
 10
32.64895569806522
 20
9.041592950911502
 30
0.0
 40
0.2822493584288441
100
AcDbArc
 50
33.46248249011585
 51
154.7710172782639
  0
ARC
  5
1511
330
17
100
AcDbEntity
  8
0
100
AcDbCircle
 10
32.21404092691037
 20
9.273261027927492
 30
0.0
 40
0.2113145222412043
100
AcDbArc
 50
328.1969492529493
 51
182.4236879466562
  0
LINE
  5
1512
330
17
100
AcDbEntity
  8
0
100
AcDbLine
 10
29.33566781618591
 20
8.218952740216137
 30
0.0
 11
29.46041781618591
 21
8.002879401971906
 31
0.0
  0
LINE
  5
1513
330
17
100
AcDbEntity
  8
0
100
AcDbLine
 10
29.71821735070833
 20
8.151720032625387
 30
0.0
 11
29.59547543732123
 21
8.368952740216137
 31
0.0
  0
LINE
  5
1514
330
17
100
AcDbEntity
  8
0
100
AcDbLine
 10
29.23131111783826
 20
7.870604588007743
 30
0.0
 11
29.16566251829373
 21
8.120800135714429
 31
0.0
  0
LINE
  5
1515
330
17
100
AcDbEntity
  8
0
100
AcDbLine
 10
29.16566251829373
 20
8.120800135714429
 30
0.0
 11
29.20160257255079
 21
8.141550135714432
 31
0.0
  0
LINE
  5
1516
330
17
100
AcDbEntity
  8
0
100
AcDbLine
 10
30.59491246908271
 20
8.728916335043003
 30
0.0
 11
30.5014124690827
 21
8.890863085550691
 31
0.0
  0
LINE
  5
1517
330
17
100
AcDbEntity
  8
0
100
AcDbLine
 10
30.39315929360965
 20
8.828363085550691
 30
0.0
 11
30.43990929360965
 21
8.747389710296845
 31
0.0
  0
LINE
  5
1518
330
17
100
AcDbEntity
  8
0
100
AcDbLine
 10
30.43990929360965
 20
8.747389710296845
 30
0.0
 11
30.22340294266354
 21
8.622389710296847
 31
0.0
  0
LINE
  5
1519
330
17
100
AcDbEntity
  8
0
100
AcDbLine
 10
30.22340294266354
 20
8.622389710296847
 30
0.0
 11
30.17665294266354
 21
8.703363085550691
 31
0.0
  0
LINE
  5
151A
330
17
100
AcDbEntity
  8
0
100
AcDbLine
 10
30.06839976719049
 20
8.640863085550691
 30
0.0
 11
30.16189976719048
 21
8.478916335043006
 31
0.0
  0
LINE
  5
151B
330
17
100
AcDbEntity
  8
0
100
AcDbLine
 10
33.4109188688674
 20
8.728916335043003
 30
0.0
 11
33.5044188688674
 21
8.890863085550691
 31
0.0
  0
LINE
  5
151C
330
17
100
AcDbEntity
  8
0
100
AcDbLine
 10
33.61267204434046
 20
8.828363085550691
 30
0.0
 11
33.56592204434046
 21
8.747389710296845
 31
0.0
  0
LINE
  5
151D
330
17
100
AcDbEntity
  8
0
100
AcDbLine
 10
33.56592204434046
 20
8.747389710296845
 30
0.0
 11
33.78242839528656
 21
8.622389710296847
 31
0.0
  0
LINE
  5
151E
330
17
100
AcDbEntity
  8
0
100
AcDbLine
 10
33.78242839528656
 20
8.622389710296847
 30
0.0
 11
33.82917839528656
 21
8.703363085550691
 31
0.0
  0
LINE
  5
151F
330
17
100
AcDbEntity
  8
0
100
AcDbLine
 10
33.93743157075962
 20
8.640863085550691
 30
0.0
 11
33.84393157075962
 21
8.478916335043006
 31
0.0
  0
LINE
  5
1520
330
17
100
AcDbEntity
  8
0
100
AcDbLine
 10
34.6701635217642
 20
8.218952740216137
 30
0.0
 11
34.54541352176419
 21
8.002879401971906
 31
0.0
  0
LINE
  5
1521
330
17
100
AcDbEntity
  8
0
100
AcDbLine
 10
34.28761398724177
 20
8.151720032625387
 30
0.0
 11
34.41035590062887
 21
8.368952740216137
 31
0.0
  0
LWPOLYLINE
  5
1522
330
17
100
AcDbEntity
  8
0
100
AcDbPolyline
 90
        3
 70
     0
 43
0.0
 10
34.77452022011184
 20
7.870604588007743
 10
34.84016881965637
 20
8.120800135714429
 10
34.80422876539931
 20
8.141550135714432
  0
TEXT
  5
1523
330
17
100
AcDbEntity
  8
KCADSLABEL
100
AcDbText
 10
32.81962981247523
 20
6.300425606880842
 30
0.0
 40
0.125
  1
822009
 50
360.0
 72
     1
 11
33.11098383703185
 21
6.425425606880842
 31
0.0
100
AcDbText
 73
     3
  0
MTEXT
  5
1524
330
17
100
AcDbEntity
  8
KCADSLABEL
100
AcDbMText
 10
32.00291566964184
 20
1.402086140977899
 30
0.0
 40
0.375
 41
3.36507783948707
 71
     2
 72
     5
  1
RIDGE 30%%D
 73
     1
 44
1.0
1001
ACAD
1000
MTEXTBEGIN
1070
    73
1070
     1
1070
    44
1040
1.0
1070
    74
1070
     0
1000
MTEXTEND
  0
MTEXT
  5
161D
330
17
100
AcDbEntity
  8
KCADSLABEL
100
AcDbMText
 10
22.00291566964183
 20
13.39144863723907
 30
0.0
 40
0.375
 41
3.36507783948707
 71
     2
 72
     5
  1
RIDGE 45%%D
 73
     1
 44
1.0
1001
ACAD
1000
MTEXTBEGIN
1070
    73
1070
     1
1070
    44
1040
1.0
1070
    74
1070
     0
1000
MTEXTEND
  0
TEXT
  5
1748
330
17
100
AcDbEntity
  8
KCADSLABEL
100
AcDbText
 10
17.71474034339204
 20
18.32168212535268
 30
0.0
 40
0.125
  1
822121
 72
     1
 11
18.00609436794866
 21
18.44668212535269
 31
0.0
100
AcDbText
 73
     3
  0
LWPOLYLINE
  5
1749
330
17
100
AcDbEntity
  8
0
100
AcDbPolyline
 90
       30
 70
     1
 43
0.0
 10
18.70615414078185
 20
18.40112752553697
 42
-0.4142135623730864
 10
18.66231352034828
 20
18.40112752553697
 10
18.33492308065891
 20
18.72851796522634
 42
-0.4142135623730951
 10
18.33492308065891
 20
18.7723585856599
 10
18.60008812360386
 20
19.03752362860486
 10
18.51169977595554
 20
19.12591197625317
 10
18.44098909783689
 20
19.05520129813452
 10
18.46290940805367
 20
19.03328098791774
 10
18.25077737369771
 20
18.82114895356177
 10
18.22885706348093
 20
18.84306926377855
 10
18.15814638536227
 20
18.7723585856599
 10
18.68847647125219
 20
18.24202849977
 10
18.74858054765305
 20
18.2102086946166
 10
18.76979375108865
 20
18.2314218980522
 10
18.72383181031152
 20
18.27738383882932
 10
19.36729898119127
 20
18.92085100970909
 10
19.39558325243873
 20
18.92085100970909
 10
19.39558325243873
 20
18.94913528095655
 10
19.749136643032
 20
19.30268867154983
 10
19.77742091427947
 20
19.30268867154983
 10
19.77742091427947
 20
19.33097294279729
 10
20.19107838127359
 20
19.74463040979143
 10
20.12036770315494
 20
19.81534108791008
 10
19.85520266020999
 20
19.55017604496512
 10
19.83752499068032
 20
19.56785371449478
 10
19.49457820180484
 20
19.2249069256193
 10
19.49457820180484
 20
19.20369372218371
 10
19.47336499836925
 20
19.2036937221837
 10
19.13041820949378
 20
18.86074693330823
 10
19.14809587902344
 20
18.84306926377856
  0
LINE
  5
174A
330
17
100
AcDbEntity
  8
0
100
AcDbLine
 10
19.07301872051696
 20
17.92017107462938
 30
0.0
 11
19.42657211111023
 21
17.56661768403611
 31
0.0
  0
LWPOLYLINE
  5
174B
330
17
100
AcDbEntity
  8
0
100
AcDbPolyline
 90
       53
 70
     1
 43
0.0
 10
21.28445448542009
 20
18.23656066595258
 10
20.07428192395179
 20
17.02638810448427
 42
0.4142135623731063
 10
20.07428192395179
 20
16.98396169761308
 10
21.09781898971931
 20
15.96042463184556
 42
0.41421356237309
 10
21.1402453965905
 20
15.96042463184556
 10
21.87563644902452
 20
16.69581568427957
 10
21.75740306849398
 20
16.85696737595025
 42
-0.9265505782289737
 10
21.80280445056231
 20
16.89592690335536
 10
22.0029156696381
 20
16.69581568427958
 10
21.11903219315491
 20
15.81193220779639
 10
19.66062445695766
 20
17.27033994399364
 10
19.77199377499454
 20
17.38170926203052
 42
-0.4142135623730676
 10
19.81442018186573
 20
17.38170926203052
 10
19.82856231748946
 20
17.36756712640679
 10
19.79674251233607
 20
17.3357473212534
 10
19.83575704248851
 20
17.29673279110096
 42
0.3704662542213871
 10
19.98778500044362
 20
17.44876074905605
 10
19.94877047029117
 20
17.4877752792085
 10
19.91695066513778
 20
17.45595547405511
 10
19.90280852951405
 20
17.47009760967884
 42
-0.4142135623730923
 10
19.90280852951405
 20
17.51252401655003
 10
20.01417784755093
 20
17.62389333458691
 10
20.02831998317466
 20
17.60975119896319
 42
-0.4142135623730979
 10
20.02831998317466
 20
17.56732479209199
 10
20.05764192234377
 20
17.53800285292288
 42
-0.1533065830696656
 10
20.07427905357782
 20
17.50613572947867
 42
-0.2453282281231861
 10
20.00357124583314
 20
17.28094654571144
 10
19.91164736427889
 20
17.18902266415718
 42
0.4142135623730951
 10
19.91164736427889
 20
17.14659625728599
 10
19.96821590677381
 20
17.09002771479106
 42
0.4142135623730981
 10
20.010642313645
 20
17.09002771479106
 10
20.5904698737844
 20
17.66985527493047
 42
0.4142135623730966
 10
20.5904698737844
 20
17.75470808867285
 10
19.5280419350516
 20
18.81713602740564
 10
19.61643028226636
 20
18.9055243746204
 42
-0.4142135623730951
 10
19.65885668913755
 20
18.9055243746204
 10
19.7719937741274
 20
18.79238728963055
 10
19.75785163850367
 20
18.77824515400682
 10
19.85219781078083
 20
18.71218325297712
 10
20.10079842737915
 20
18.4635826363788
 42
0.9999999999999996
 10
20.23514871580459
 20
18.59793292480425
 10
19.98654809920627
 20
18.84653354140256
 10
19.92048619817657
 20
18.94087971367973
 10
19.90634406255284
 20
18.92673757805599
 10
19.793206977563
 20
19.03987466304584
 42
-0.4142135623731115
 10
19.793206977563
 20
19.08230106991704
 10
19.88159532564488
 20
19.17068941799892
 10
20.34545737410327
 20
18.70682736954053
 42
-0.4142135623730951
 10
20.34545737410327
 20
18.35327397894726
 10
20.23939135692529
 20
18.24720796176928
 10
20.66118055190306
 20
17.8254187667915
 42
0.4142135623730935
 10
20.74603336564544
 20
17.8254187667915
 10
21.2208148751133
 20
18.30020027625937
  0
LINE
  5
174C
330
17
100
AcDbEntity
  8
0
100
AcDbLine
 10
19.3601040736787
 20
18.20725642779112
 30
0.0
 11
19.71365746427197
 21
17.85370303719785
 31
0.0
  0
LWPOLYLINE
  5
174D
330
17
100
AcDbEntity
  8
0
100
AcDbPolyline
 90
        6
 70
     0
 43
0.0
 10
19.66062445609052
 20
17.2703399431265
 10
19.54630056124636
 20
17.30097293842558
 42
-0.5773502691896213
 10
19.5395762452051
 20
17.32606842753772
 10
19.91518289691013
 20
17.70167507924275
 42
-0.4142135616547307
 10
19.93639610031971
 20
17.70167507926876
 10
20.01417784646703
 20
17.623893333503
  0
LWPOLYLINE
  5
174E
330
17
100
AcDbEntity
  8
KCADSMISC
100
AcDbPolyline
 90
        4
 70
     1
 43
0.0
 10
21.44897712549874
 20
18.57927421489025
 10
20.23734965593558
 20
19.7909016844534
 10
19.83775470521131
 20
19.39130673372912
 10
21.04938217477446
 20
18.17967926416597
  0
LINE
  5
174F
330
17
100
AcDbEntity
  8
KCADSMISC
100
AcDbLine
 10
20.23734965593558
 20
19.7909016844534
 30
0.0
 11
21.04938217477446
 21
18.17967926416597
 31
0.0
  0
LINE
  5
1750
330
17
100
AcDbEntity
  8
KCADSMISC
100
AcDbLine
 10
19.83775470521131
 20
19.39130673372912
 30
0.0
 11
21.44897712549874
 21
18.57927421489025
 31
0.0
  0
TEXT
  5
1751
330
17
100
AcDbEntity
  8
KCADSLABEL
100
AcDbText
 10
20.43460045294562
 20
16.98482615303032
 30
0.0
 40
0.125
  1
822009
 72
     1
 11
20.72595447750224
 21
17.10982615303032
 31
0.0
100
AcDbText
 73
     3
  0
LWPOLYLINE
  5
1752
330
17
100
AcDbEntity
  8
0
100
AcDbPolyline
 90
       53
 70
     1
 43
0.0
 10
22.7213768538561
 20
18.23656066595258
 10
23.9315494153244
 20
17.02638810448427
 42
-0.4142135623731063
 10
23.9315494153244
 20
16.98396169761308
 10
22.90801234955688
 20
15.96042463184556
 42
-0.41421356237309
 10
22.86558594268569
 20
15.96042463184556
 10
22.13019489025167
 20
16.69581568427957
 10
22.24842827078221
 20
16.85696737595025
 42
0.9265505782289737
 10
22.20302688871389
 20
16.89592690335536
 10
22.0029156696381
 20
16.69581568427958
 10
22.88679914612128
 20
15.81193220779639
 10
24.34520688231853
 20
17.27033994399364
 10
24.23383756428165
 20
17.38170926203052
 42
0.4142135623730676
 10
24.19141115741046
 20
17.38170926203052
 10
24.17726902178673
 20
17.36756712640679
 10
24.20908882694012
 20
17.3357473212534
 10
24.17007429678768
 20
17.29673279110096
 42
-0.3704662542213871
 10
24.01804633883257
 20
17.44876074905605
 10
24.05706086898502
 20
17.4877752792085
 10
24.08888067413841
 20
17.45595547405511
 10
24.10302280976214
 20
17.47009760967884
 42
0.4142135623730923
 10
24.10302280976214
 20
17.51252401655003
 10
23.99165349172526
 20
17.62389333458691
 10
23.97751135610153
 20
17.60975119896319
 42
0.4142135623730979
 10
23.97751135610153
 20
17.56732479209199
 10
23.94818941693243
 20
17.53800285292288
 42
0.1533065830696656
 10
23.93155228569836
 20
17.50613572947867
 42
0.2453282281231861
 10
24.00226009344306
 20
17.28094654571144
 10
24.0941839749973
 20
17.18902266415718
 42
-0.4142135623730951
 10
24.0941839749973
 20
17.14659625728599
 10
24.03761543250238
 20
17.09002771479106
 42
-0.4142135623730981
 10
23.99518902563119
 20
17.09002771479106
 10
23.41536146549179
 20
17.66985527493047
 42
-0.4142135623730966
 10
23.41536146549179
 20
17.75470808867285
 10
24.47778940422459
 20
18.81713602740564
 10
24.38940105700983
 20
18.9055243746204
 42
0.4142135623730951
 10
24.34697465013864
 20
18.9055243746204
 10
24.23383756514879
 20
18.79238728963055
 10
24.24797970077252
 20
18.77824515400682
 10
24.15363352849537
 20
18.71218325297712
 10
23.90503291189704
 20
18.4635826363788
 42
-0.9999999999999996
 10
23.7706826234716
 20
18.59793292480425
 10
24.01928324006992
 20
18.84653354140256
 10
24.08534514109961
 20
18.94087971367973
 10
24.09948727672334
 20
18.92673757805599
 10
24.2126243617132
 20
19.03987466304584
 42
0.4142135623731115
 10
24.21262436171319
 20
19.08230106991704
 10
24.12423601363131
 20
19.17068941799892
 10
23.66037396517293
 20
18.70682736954053
 42
0.4142135623730951
 10
23.66037396517293
 20
18.35327397894726
 10
23.76643998235091
 20
18.24720796176928
 10
23.34465078737314
 20
17.8254187667915
 42
-0.4142135623730935
 10
23.25979797363076
 20
17.8254187667915
 10
22.78501646416289
 20
18.30020027625937
  0
LWPOLYLINE
  5
1753
330
17
100
AcDbEntity
  8
KCADSMISC
100
AcDbPolyline
 90
        4
 70
     1
 43
0.0
 10
22.55685421377745
 20
18.57927421489025
 10
23.76848168334062
 20
19.7909016844534
 10
24.16807663406488
 20
19.39130673372912
 10
22.95644916450173
 20
18.17967926416597
  0
LINE
  5
1754
330
17
100
AcDbEntity
  8
KCADSMISC
100
AcDbLine
 10
23.76848168334062
 20
19.7909016844534
 30
0.0
 11
22.95644916450173
 21
18.17967926416597
 31
0.0
  0
LINE
  5
1755
330
17
100
AcDbEntity
  8
KCADSMISC
100
AcDbLine
 10
24.16807663406488
 20
19.39130673372912
 30
0.0
 11
22.55685421377745
 21
18.57927421489025
 31
0.0
  0
LWPOLYLINE
  5
1756
330
17
100
AcDbEntity
  8
0
100
AcDbPolyline
 90
       30
 70
     1
 43
0.0
 10
25.29967719849434
 20
18.40112752553697
 42
0.4142135623730864
 10
25.3435178189279
 20
18.40112752553697
 10
25.67090825861728
 20
18.72851796522634
 42
0.4142135623730951
 10
25.67090825861728
 20
18.7723585856599
 10
25.40574321567233
 20
19.03752362860486
 10
25.49413156332065
 20
19.12591197625317
 10
25.5648422414393
 20
19.05520129813452
 10
25.54292193122251
 20
19.03328098791774
 10
25.75505396557848
 20
18.82114895356177
 10
25.77697427579526
 20
18.84306926377855
 10
25.84768495391392
 20
18.7723585856599
 10
25.317354868024
 20
18.24202849977
 10
25.25725079162314
 20
18.2102086946166
 10
25.23603758818755
 20
18.2314218980522
 10
25.28199952896466
 20
18.27738383882932
 10
24.63853235808492
 20
18.92085100970909
 10
24.61024808683746
 20
18.92085100970909
 10
24.61024808683746
 20
18.94913528095655
 10
24.25669469624419
 20
19.30268867154983
 10
24.22841042499673
 20
19.30268867154983
 10
24.22841042499673
 20
19.33097294279729
 10
23.8147529580026
 20
19.74463040979143
 10
23.88546363612126
 20
19.81534108791008
 10
24.15062867906621
 20
19.55017604496512
 10
24.16830634859588
 20
19.56785371449478
 10
24.51125313747135
 20
19.2249069256193
 10
24.51125313747135
 20
19.20369372218371
 10
24.53246634090694
 20
19.2036937221837
 10
24.87541312978242
 20
18.86074693330823
 10
24.85773546025275
 20
18.84306926377856
  0
LWPOLYLINE
  5
1757
330
17
100
AcDbEntity
  8
0
100
AcDbPolyline
 90
       12
 70
     0
 43
0.0
 10
24.34520688318567
 20
17.2703399431265
 10
24.23383756428165
 20
17.38170926203052
 42
0.4142135623730639
 10
24.19141115741046
 20
17.38170926203052
 10
24.17726902178673
 20
17.36756712640679
 10
24.20908882694012
 20
17.3357473212534
 10
24.17007429678768
 20
17.29673279110096
 42
-0.3704662542213858
 10
24.01804633883257
 20
17.44876074905605
 10
24.05706086898501
 20
17.4877752792085
 10
24.08888067413841
 20
17.45595547405511
 10
24.10302280976214
 20
17.47009760967884
 42
0.4142135623730832
 10
24.10302280976214
 20
17.51252401655003
 10
23.99165349280917
 20
17.623893333503
  0
LWPOLYLINE
  5
1758
330
17
100
AcDbEntity
  8
0
100
AcDbPolyline
 90
        6
 70
     0
 43
0.0
 10
24.34520688318567
 20
17.2703399431265
 10
24.45953077802983
 20
17.30097293842558
 42
0.5773502691896213
 10
24.46625509407109
 20
17.32606842753772
 10
24.09064844236607
 20
17.70167507924275
 42
0.4142135616547307
 10
24.06943523895648
 20
17.70167507926876
 10
23.99165349280917
 20
17.623893333503
  0
LINE
  5
1759
330
17
100
AcDbEntity
  8
0
100
AcDbLine
 10
24.93281261875923
 20
17.92017107462938
 30
0.0
 11
24.57925922816596
 21
17.56661768403611
 31
0.0
  0
LINE
  5
175A
330
17
100
AcDbEntity
  8
0
100
AcDbLine
 10
24.64572726559749
 20
18.20725642779112
 30
0.0
 11
24.29217387500421
 21
17.85370303719785
 31
0.0
  0
LWPOLYLINE
  5
175B
102
{ACAD_REACTORS
330
175C
102
}
330
17
100
AcDbEntity
  8
0
100
AcDbPolyline
 90
        6
 70
     1
 43
0.0
 10
23.17140962598244
 20
17.91380711443983
 10
22.0029156696381
 20
19.08230107075124
 10
20.83442171329376
 20
17.91380711443983
 10
20.80896586917104
 20
17.93926295856254
 10
22.0029156696381
 20
19.1332127590296
 10
23.19686547010515
 20
17.93926295856254
  0
HATCH
  5
175C
330
17
100
AcDbEntity
  8
0
100
AcDbHatch
 10
0.0
 20
0.0
 30
0.0
210
0.0
220
0.0
230
1.0
  2
STEEL
 70
     0
 71
     1
 91
        1
 92
        1
 93
        6
 72
     1
 10
23.17140962598244
 20
17.91380711443983
 11
22.0029156696381
 21
19.08230107075124
 72
     1
 10
22.0029156696381
 20
19.08230107075124
 11
20.83442171329376
 21
17.91380711443983
 72
     1
 10
20.83442171329376
 20
17.91380711443983
 11
20.80896586917104
 21
17.93926295856254
 72
     1
 10
20.80896586917104
 20
17.93926295856254
 11
22.0029156696381
 21
19.1332127590296
 72
     1
 10
22.0029156696381
 20
19.1332127590296
 11
23.19686547010515
 21
17.93926295856254
 72
     1
 10
23.19686547010515
 20
17.93926295856254
 11
23.17140962598244
 21
17.91380711443983
 97
        1
330
175B
 75
     0
 76
     1
 52
45.0
 41
2.0
 77
     0
 78
     2
 53
90.0
 43
17.27303909403427
 44
14.140266107578
 45
-0.25
 46
0.0000000000000001
 79
     0
 53
90.0
 43
17.18465074638595
 44
14.22865445522632
 45
-0.25
 46
0.0000000000000001
 79
     0
 98
        1
 10
17.27303909403427
 20
14.140266107578
  0
LWPOLYLINE
  5
175D
330
17
100
AcDbEntity
  8
0
100
AcDbPolyline
 90
        8
 70
     1
 43
0.0
 10
22.02293329052021
 20
22.59711024883415
 42
0.3634388597141497
 10
21.98289804875598
 20
22.59711024883415
 10
17.98159940459663
 20
18.59581160489424
 10
17.92432375532052
 20
18.65308725417034
 10
21.92562572622603
 20
22.65438922440706
 42
-0.46696844864377
 10
22.08020561305525
 20
22.65438922440198
 10
26.08150758395567
 20
18.65308725417034
 10
26.02423193467955
 20
18.59581160489424
  0
LWPOLYLINE
  5
175E
330
17
100
AcDbEntity
  8
0
100
AcDbPolyline
 90
       10
 70
     0
 43
0.0
 10
21.06082168321686
 20
20.53963684606066
 42
-1.306663201088772
 10
21.57467672268207
 20
20.72061967179786
 10
21.77357716739827
 20
19.18893515877381
 10
21.06082168321683
 20
20.53963684606071
 42
1.257889868549831
 10
20.63644072323728
 20
20.18999275175508
 10
21.26966380335483
 20
18.93473311012271
 10
20.23734965593558
 20
19.7909016844534
 42
-0.9999999999999998
 10
20.63644072323727
 20
20.18999275175509
 10
21.77357716739827
 20
19.18893515877381
 42
-0.9999999999999998
 10
21.26966380335483
 20
18.93473311012271
  0
LWPOLYLINE
  5
175F
330
17
100
AcDbEntity
  8
0
100
AcDbPolyline
 90
       10
 70
     0
 43
0.0
 10
22.73616753592137
 20
18.93473311012271
 10
23.36939061603892
 20
20.18999275175509
 42
-0.9999999999999998
 10
23.76848168334062
 20
19.79090168445339
 10
22.73616753592137
 20
18.93473311012271
 42
-0.9999999999999998
 10
22.23225417187792
 20
19.18893515877381
 10
22.43100533900399
 20
20.71850706283863
 42
-1.311755320344633
 10
22.94500965605934
 20
20.53963684606067
 10
22.23225417187792
 20
19.18893515877381
 10
23.36939061603892
 20
20.18999275175509
 42
1.257889868549831
 10
22.94500965605936
 20
20.53963684606071
  0
LWPOLYLINE
  5
1760
330
17
100
AcDbEntity
  8
0
100
AcDbPolyline
 90
        4
 70
     0
 43
0.0
 10
18.68835263282617
 20
16.82839820575204
 10
19.7490128033313
 20
17.88905837625717
 10
19.92578949862794
 20
17.71228168096054
 10
18.8651293281228
 20
16.6516215104554
  0
LWPOLYLINE
  5
1761
330
17
100
AcDbEntity
  8
0
100
AcDbPolyline
 90
        4
 70
     0
 43
0.0
 10
18.15802254693626
 20
17.35872829164195
 10
19.21868271744139
 20
18.41938846214709
 10
19.39545941273802
 20
18.24261176685045
 10
18.33479924223289
 20
17.18195159634532
  0
LWPOLYLINE
  5
1762
330
17
100
AcDbEntity
  8
0
100
AcDbPolyline
 90
        4
 70
     0
 43
0.0
 10
25.31747870645002
 20
16.82839820575204
 10
24.25681853594489
 20
17.88905837625717
 10
24.08004184064826
 20
17.71228168096054
 10
25.14070201115338
 20
16.6516215104554
  0
LWPOLYLINE
  5
1763
330
17
100
AcDbEntity
  8
0
100
AcDbPolyline
 90
        4
 70
     0
 43
0.0
 10
25.84780879233994
 20
17.35872829164195
 10
24.78714862183481
 20
18.41938846214709
 10
24.61037192653817
 20
18.24261176685045
 10
25.6710320970433
 20
17.18195159634532
  0
ARC
  5
1764
330
17
100
AcDbEntity
  8
0
100
AcDbCircle
 10
22.12188391813832
 20
19.2341823688653
 30
0.0
 40
0.1192849652370586
100
AcDbArc
 50
175.8238467992876
 51
337.7084124954903
  0
LINE
  5
1765
330
17
100
AcDbEntity
  8
0
100
AcDbLine
 10
22.0029156696381
 20
19.24286907021818
 30
0.0
 11
22.41041307140449
 21
20.66015807490939
 31
0.0
  0
ARC
  5
1766
330
17
100
AcDbEntity
  8
0
100
AcDbCircle
 10
22.0029156696381
 20
20.83677842168226
 30
0.0
 40
0.4441270981830832
100
AcDbArc
 50
336.5667925739204
 51
195.4442551626057
  0
LINE
  5
1767
330
17
100
AcDbEntity
  8
0
100
AcDbLine
 10
21.57482600027224
 20
20.71850706283844
 30
0.0
 11
22.0029156696381
 21
19.24286907021818
 31
0.0
  0
ARC
  5
1768
330
17
100
AcDbEntity
  8
0
100
AcDbCircle
 10
21.88394742113787
 20
19.23418236886529
 30
0.0
 40
0.1192849652370592
100
AcDbArc
 50
202.2915875045094
 51
4.176153200712824
  0
ARC
  5
1769
330
17
100
AcDbEntity
  8
0
100
AcDbCircle
 10
20.70270531195612
 20
18.91053674857586
 30
0.0
 40
0.8552942646961305
100
AcDbArc
 50
246.3393273891596
 51
287.9792127503563
  0
CIRCLE
  5
176A
330
17
100
AcDbEntity
  8
0
100
AcDbCircle
 10
20.56526638619315
 20
18.03506741727954
 30
0.0
 40
0.0059
  0
CIRCLE
  5
176B
330
17
100
AcDbEntity
  8
0
100
AcDbCircle
 10
20.49901806135266
 20
18.04048812396949
 30
0.0
 40
0.0059
  0
CIRCLE
  5
176C
330
17
100
AcDbEntity
  8
0
100
AcDbCircle
 10
20.54030867735915
 20
18.00029560195657
 30
0.0
 40
0.0059
  0
CIRCLE
  5
176D
330
17
100
AcDbEntity
  8
0
100
AcDbCircle
 10
20.59324536859281
 20
17.99923790229688
 30
0.0
 40
0.0059
  0
CIRCLE
  5
176E
330
17
100
AcDbEntity
  8
0
100
AcDbCircle
 10
20.5868929519698
 20
17.95375689824933
 30
0.0
 40
0.0059
  0
CIRCLE
  5
176F
330
17
100
AcDbEntity
  8
0
100
AcDbCircle
 10
20.65782810875562
 20
17.91039127725735
 30
0.0
 40
0.0059
  0
CIRCLE
  5
1770
330
17
100
AcDbEntity
  8
0
100
AcDbCircle
 10
20.67582660060579
 20
17.96221847926303
 30
0.0
 40
0.0059
  0
CIRCLE
  5
1771
330
17
100
AcDbEntity
  8
0
100
AcDbCircle
 10
20.62924229969713
 20
17.94635300063152
 30
0.0
 40
0.0059
  0
CIRCLE
  5
1772
330
17
100
AcDbEntity
  8
0
100
AcDbCircle
 10
20.69594252959961
 20
18.01087258228964
 30
0.0
 40
0.0059
  0
CIRCLE
  5
1773
330
17
100
AcDbEntity
  8
0
100
AcDbCircle
 10
20.80287464378776
 20
18.0140456650049
 30
0.0
 40
0.0059
  0
CIRCLE
  5
1774
330
17
100
AcDbEntity
  8
0
100
AcDbCircle
 10
20.90768926823623
 20
18.06587286701059
 30
0.0
 40
0.0059
  0
CIRCLE
  5
1775
330
17
100
AcDbEntity
  8
0
100
AcDbCircle
 10
20.88016219089857
 20
18.03731502499043
 30
0.0
 40
0.0059
  0
CIRCLE
  5
1776
330
17
100
AcDbEntity
  8
0
100
AcDbCircle
 10
20.81134449755442
 20
17.98337243992917
 30
0.0
 40
0.0059
  0
CIRCLE
  5
1777
330
17
100
AcDbEntity
  8
0
100
AcDbCircle
 10
20.75946656433961
 20
17.96116077960334
 30
0.0
 40
0.0059
  0
CIRCLE
  5
1778
330
17
100
AcDbEntity
  8
0
100
AcDbCircle
 10
20.7562903428791
 20
18.0394304243098
 30
0.0
 40
0.0059
  0
CIRCLE
  5
1779
330
17
100
AcDbEntity
  8
0
100
AcDbCircle
 10
20.83781284317125
 20
18.03308422635168
 30
0.0
 40
0.0059
  0
CIRCLE
  5
177A
330
17
100
AcDbEntity
  8
0
100
AcDbCircle
 10
20.77746502989176
 20
17.89241041557026
 30
0.0
 40
0.0059
  0
CIRCLE
  5
177B
330
17
100
AcDbEntity
  8
0
100
AcDbCircle
 10
20.73617441388527
 20
17.90298739590333
 30
0.0
 40
0.0059
  0
CIRCLE
  5
177C
330
17
100
AcDbEntity
  8
0
100
AcDbCircle
 10
20.68323772265161
 20
17.87442955388318
 30
0.0
 40
0.0059
  0
CIRCLE
  5
177D
330
17
100
AcDbEntity
  8
0
100
AcDbCircle
 10
20.68747264953494
 20
17.84481401220334
 30
0.0
 40
0.0059
  0
CIRCLE
  5
177E
330
17
100
AcDbEntity
  8
0
100
AcDbCircle
 10
20.73088075528112
 20
17.84587171186302
 30
0.0
 40
0.0059
  0
CIRCLE
  5
177F
330
17
100
AcDbEntity
  8
0
100
AcDbCircle
 10
20.71711721661228
 20
17.87231415456381
 30
0.0
 40
0.0059
  0
CIRCLE
  5
1780
330
17
100
AcDbEntity
  8
0
100
AcDbCircle
 10
20.71923468005394
 20
17.96010307994366
 30
0.0
 40
0.0059
  0
CIRCLE
  5
1781
330
17
100
AcDbEntity
  8
0
100
AcDbCircle
 10
20.69805999304128
 20
17.91356437623641
 30
0.0
 40
0.0059
  0
CIRCLE
  5
1782
330
17
100
AcDbEntity
  8
0
100
AcDbCircle
 10
20.65465191359312
 20
18.02779574431705
 30
0.0
 40
0.0059
  0
CIRCLE
  5
1783
330
17
100
AcDbEntity
  8
0
100
AcDbCircle
 10
20.63982964320346
 20
17.98760322230412
 30
0.0
 40
0.0059
  0
CIRCLE
  5
1784
330
17
100
AcDbEntity
  8
0
100
AcDbCircle
 10
20.46407983567116
 20
18.06164208463563
 30
0.0
 40
0.0059
  0
CIRCLE
  5
1785
330
17
100
AcDbEntity
  8
0
100
AcDbCircle
 10
20.60806763898247
 20
17.89875659726459
 30
0.0
 40
0.0059
  0
ARC
  5
1786
330
17
100
AcDbEntity
  8
0
100
AcDbCircle
 10
23.30312602732008
 20
18.91053674857586
 30
0.0
 40
0.8552942646961305
100
AcDbArc
 50
252.0207872496437
 51
293.6606726108403
  0
CIRCLE
  5
1787
330
17
100
AcDbEntity
  8
0
100
AcDbCircle
 10
23.22836630938443
 20
17.89241041557026
 30
0.0
 40
0.0059
  0
CIRCLE
  5
1788
330
17
100
AcDbEntity
  8
0
100
AcDbCircle
 10
23.28871412266391
 20
17.87231415456381
 30
0.0
 40
0.0059
  0
CIRCLE
  5
1789
330
17
100
AcDbEntity
  8
0
100
AcDbCircle
 10
23.31835868974125
 20
17.84481401220334
 30
0.0
 40
0.0059
  0
CIRCLE
  5
178A
330
17
100
AcDbEntity
  8
0
100
AcDbCircle
 10
23.32259361662458
 20
17.87442955388318
 30
0.0
 40
0.0059
  0
CIRCLE
  5
178B
330
17
100
AcDbEntity
  8
0
100
AcDbCircle
 10
23.27495058399508
 20
17.84587171186302
 30
0.0
 40
0.0059
  0
CIRCLE
  5
178C
330
17
100
AcDbEntity
  8
0
100
AcDbCircle
 10
23.28659665922224
 20
17.96010307994366
 30
0.0
 40
0.0059
  0
CIRCLE
  5
178D
330
17
100
AcDbEntity
  8
0
100
AcDbCircle
 10
23.44056495308304
 20
18.03506741727954
 30
0.0
 40
0.0059
  0
CIRCLE
  5
178E
330
17
100
AcDbEntity
  8
0
100
AcDbCircle
 10
23.54175150360503
 20
18.06164208463563
 30
0.0
 40
0.0059
  0
CIRCLE
  5
178F
330
17
100
AcDbEntity
  8
0
100
AcDbCircle
 10
23.46552266191704
 20
18.00029560195657
 30
0.0
 40
0.0059
  0
CIRCLE
  5
1790
330
17
100
AcDbEntity
  8
0
100
AcDbCircle
 10
23.50681327792353
 20
18.04048812396949
 30
0.0
 40
0.0059
  0
CIRCLE
  5
1791
330
17
100
AcDbEntity
  8
0
100
AcDbCircle
 10
23.39776370029372
 20
17.89875659726459
 30
0.0
 40
0.0059
  0
CIRCLE
  5
1792
330
17
100
AcDbEntity
  8
0
100
AcDbCircle
 10
23.36600169607273
 20
17.98760322230412
 30
0.0
 40
0.0059
  0
CIRCLE
  5
1793
330
17
100
AcDbEntity
  8
0
100
AcDbCircle
 10
23.35117942568308
 20
18.02779574431705
 30
0.0
 40
0.0059
  0
CIRCLE
  5
1794
330
17
100
AcDbEntity
  8
0
100
AcDbCircle
 10
23.30777134623492
 20
17.91356437623641
 30
0.0
 40
0.0059
  0
CIRCLE
  5
1795
330
17
100
AcDbEntity
  8
0
100
AcDbCircle
 10
23.30988880967658
 20
18.01087258228964
 30
0.0
 40
0.0059
  0
CIRCLE
  5
1796
330
17
100
AcDbEntity
  8
0
100
AcDbCircle
 10
23.37658903957906
 20
17.94635300063152
 30
0.0
 40
0.0059
  0
CIRCLE
  5
1797
330
17
100
AcDbEntity
  8
0
100
AcDbCircle
 10
23.3300047386704
 20
17.96221847926303
 30
0.0
 40
0.0059
  0
CIRCLE
  5
1798
330
17
100
AcDbEntity
  8
0
100
AcDbCircle
 10
23.34800323052057
 20
17.91039127725735
 30
0.0
 40
0.0059
  0
CIRCLE
  5
1799
330
17
100
AcDbEntity
  8
0
100
AcDbCircle
 10
23.41893838730639
 20
17.95375689824933
 30
0.0
 40
0.0059
  0
CIRCLE
  5
179A
330
17
100
AcDbEntity
  8
0
100
AcDbCircle
 10
23.41258597068339
 20
17.99923790229688
 30
0.0
 40
0.0059
  0
CIRCLE
  5
179B
330
17
100
AcDbEntity
  8
0
100
AcDbCircle
 10
23.26965692539092
 20
17.90298739590333
 30
0.0
 40
0.0059
  0
CIRCLE
  5
179C
330
17
100
AcDbEntity
  8
0
100
AcDbCircle
 10
23.16801849610495
 20
18.03308422635168
 30
0.0
 40
0.0059
  0
CIRCLE
  5
179D
330
17
100
AcDbEntity
  8
0
100
AcDbCircle
 10
23.2495409963971
 20
18.0394304243098
 30
0.0
 40
0.0059
  0
CIRCLE
  5
179E
330
17
100
AcDbEntity
  8
0
100
AcDbCircle
 10
23.24636477493658
 20
17.96116077960334
 30
0.0
 40
0.0059
  0
CIRCLE
  5
179F
330
17
100
AcDbEntity
  8
0
100
AcDbCircle
 10
23.19448684172177
 20
17.98337243992917
 30
0.0
 40
0.0059
  0
CIRCLE
  5
17A0
330
17
100
AcDbEntity
  8
0
100
AcDbCircle
 10
23.20295669548843
 20
18.0140456650049
 30
0.0
 40
0.0059
  0
CIRCLE
  5
17A1
330
17
100
AcDbEntity
  8
0
100
AcDbCircle
 10
23.12566914837762
 20
18.03731502499043
 30
0.0
 40
0.0059
  0
CIRCLE
  5
17A2
330
17
100
AcDbEntity
  8
0
100
AcDbCircle
 10
23.09814207103996
 20
18.06587286701059
 30
0.0
 40
0.0059
  0
LINE
  5
17A3
330
17
100
AcDbEntity
  8
0
100
AcDbLine
 10
18.79794028430151
 20
18.35149231281931
 30
0.0
 11
18.97436342620755
 21
18.17506917091325
 31
0.0
  0
LINE
  5
17A4
330
17
100
AcDbEntity
  8
0
100
AcDbLine
 10
18.78729859033906
 20
17.98800433504476
 30
0.0
 11
18.65913153983295
 21
18.21268356835075
 31
0.0
  0
LINE
  5
17A5
330
17
100
AcDbEntity
  8
0
100
AcDbLine
 10
18.65913153983295
 20
18.21268356835075
 30
0.0
 11
18.68847647125219
 21
18.24202849977
 31
0.0
  0
LINE
  5
17A6
330
17
100
AcDbEntity
  8
0
100
AcDbLine
 10
19.18485586470987
 20
18.38556160941557
 30
0.0
 11
19.01007231865747
 21
18.56362434717527
 31
0.0
  0
LINE
  5
17A7
330
17
100
AcDbEntity
  8
0
100
AcDbLine
 10
19.8822889255008
 20
19.169995818143
 30
0.0
 11
19.75005995741891
 21
19.30222478622488
 31
0.0
  0
LINE
  5
17A8
330
17
100
AcDbEntity
  8
0
100
AcDbLine
 10
19.66167160977059
 20
19.21383643857656
 30
0.0
 11
19.72778609381154
 21
19.14772195453562
 31
0.0
  0
LINE
  5
17A9
330
17
100
AcDbEntity
  8
0
100
AcDbLine
 10
19.72778609381154
 20
19.14772195453562
 30
0.0
 11
19.5510093985149
 21
18.97094525923899
 31
0.0
  0
LINE
  5
17AA
330
17
100
AcDbEntity
  8
0
100
AcDbLine
 10
19.5510093985149
 20
18.97094525923899
 30
0.0
 11
19.48489491447396
 21
19.03705974327992
 31
0.0
  0
LINE
  5
17AB
330
17
100
AcDbEntity
  8
0
100
AcDbLine
 10
19.39650656682564
 20
18.9486713956316
 30
0.0
 11
19.52873553490752
 21
18.81644242754972
 31
0.0
  0
LINE
  5
17AC
330
17
100
AcDbEntity
  8
0
100
AcDbLine
 10
24.12354241377539
 20
19.169995818143
 30
0.0
 11
24.25577138185728
 21
19.30222478622488
 31
0.0
  0
LINE
  5
17AD
330
17
100
AcDbEntity
  8
0
100
AcDbLine
 10
24.60932477245056
 20
18.9486713956316
 30
0.0
 11
24.47709580436867
 21
18.81644242754972
 31
0.0
  0
LINE
  5
17AE
330
17
100
AcDbEntity
  8
0
100
AcDbLine
 10
25.20789105497469
 20
18.35149231281931
 30
0.0
 11
25.03146791306863
 21
18.17506917091325
 31
0.0
  0
LINE
  5
17AF
330
17
100
AcDbEntity
  8
0
100
AcDbLine
 10
25.21853274893713
 20
17.98800433504476
 30
0.0
 11
25.34669979944325
 21
18.21268356835075
 31
0.0
  0
LINE
  5
17B0
330
17
100
AcDbEntity
  8
0
100
AcDbLine
 10
25.34669979944325
 20
18.21268356835075
 30
0.0
 11
25.317354868024
 21
18.24202849976999
 31
0.0
  0
LINE
  5
17B1
330
17
100
AcDbEntity
  8
0
100
AcDbLine
 10
24.82097547456632
 20
18.38556160941557
 30
0.0
 11
24.99575902061872
 21
18.56362434717527
 31
0.0
  0
LWPOLYLINE
  5
17B2
330
17
100
AcDbEntity
  8
0
100
AcDbPolyline
 90
        4
 70
     0
 43
0.0
 10
24.3441597295056
 20
19.21383643857656
 10
24.27804524546466
 20
19.14772195453562
 10
24.45482194076129
 20
18.97094525923899
 10
24.52093642480223
 20
19.03705974327992
  0
TEXT
  5
17B3
330
17
100
AcDbEntity
  8
KCADSLABEL
100
AcDbText
 10
25.71082004089358
 20
18.32168212535268
 30
0.0
 40
0.125
  1
822121
 72
     1
 11
26.0021740654502
 21
18.44668212535269
 31
0.0
100
AcDbText
 73
     3
  0
TEXT
  5
17B4
330
17
100
AcDbEntity
  8
KCADSLABEL
100
AcDbText
 10
22.9710464210512
 20
16.98482615303032
 30
0.0
 40
0.125
  1
822009
 72
     1
 11
23.26240044560782
 21
17.10982615303032
 31
0.0
100
AcDbText
 73
     3
  0
MTEXT
  5
18EE
330
17
100
AcDbEntity
  8
KCADSLABEL
100
AcDbMText
 10
-4.997084330358163
 20
13.39195988659223
 30
0.0
 40
0.375
 41
6.406001796350608
 71
     2
 72
     5
  1
GABLE END
 73
     1
 44
1.0
1001
ACAD
1000
MTEXTBEGIN
1070
    73
1070
     1
1070
    44
1040
1.0
1070
    74
1070
     0
1000
MTEXTEND
  0
LINE
  5
1AFC
330
17
100
AcDbEntity
  8
0
100
AcDbLine
 10
-9.822498266376307
 20
-6.020862690213913
 30
0.0
 11
-9.822498266376307
 21
25.69048118937661
 31
0.0
  0
TEXT
  5
1F17
330
17
100
AcDbEntity
  8
KCADSLABEL
100
AcDbText
 10
-5.288113490122738
 20
14.62493240698794
 30
0.0
 40
0.125
  1
822001
 72
     1
 11
-4.996759465566121
 21
14.74993240698794
 31
0.0
100
AcDbText
 73
     3
  0
LINE
  5
1F18
330
17
100
AcDbEntity
  8
0
100
AcDbLine
 10
-3.62153516548242
 20
20.37722668901676
 30
0.0
 11
-3.746759465566125
 21
20.93427934197651
 31
0.0
  0
ARC
  5
1F19
330
17
100
AcDbEntity
  8
0
100
AcDbCircle
 10
-3.842175052628356
 20
20.32762729245776
 30
0.0
 40
0.2261461030811467
100
AcDbArc
 50
294.9558710818811
 51
12.66936478273873
  0
LWPOLYLINE
  5
1F1A
330
17
100
AcDbEntity
  8
0
100
AcDbPolyline
 90
        8
 70
     1
 43
0.0
 10
-1.580714021816909
 20
16.1644811893766
 10
-1.580714021816927
 20
21.5789811893766
 42
0.4142135623730947
 10
-1.611714021816926
 20
21.6099811893766
 10
-4.622084330358172
 20
21.60998118937661
 10
-4.622084330358172
 20
21.69098118937661
 10
-1.611714021816926
 20
21.69098118937661
 42
-0.4142135623730947
 10
-1.499714021816927
 20
21.5789811893766
 10
-1.49971402181691
 20
16.1644811893766
  0
LWPOLYLINE
  5
1F1B
330
17
100
AcDbEntity
  8
0
100
AcDbPolyline
 90
       12
 70
     1
 43
0.0
 10
-1.13229781530649
 20
14.40704132942181
 10
-0.623759465566117
 20
14.40704132942181
 10
-0.6237594655661205
 20
16.79692104933138
 10
-1.132297815306493
 20
16.79692104933138
 42
-1.33239341188041
 10
-1.218004802652387
 20
16.80797624893872
 10
-1.301141158361122
 20
16.82263543152795
 42
-0.8617744796823018
 10
-1.296759415986858
 20
16.85198118937659
 10
-0.5617594655661194
 20
16.85198118937659
 10
-0.5617594655661194
 20
14.35198118937659
 10
-1.296759415986855
 20
14.35198118937659
 42
-0.861774479682302
 10
-1.301141158361119
 20
14.38132694722524
 10
-1.218004802652384
 20
14.39598612981446
 42
-1.33239341188041
  0
LWPOLYLINE
  5
1F1C
330
17
100
AcDbEntity
  8
0
100
AcDbPolyline
 90
       41
 70
     1
 43
0.0
 10
-1.326759465566123
 20
15.8829811893766
 10
-1.311759465566126
 20
15.8979811893766
 10
-1.311759465566122
 20
16.7604811893766
 10
-1.376759465566124
 20
16.76048118937659
 10
-1.376759465566124
 20
16.78048118937659
 10
-1.311759465566122
 20
16.81048118937659
 10
-1.225999853216734
 20
16.7953594558643
 42
0.9999999999999998
 10
-1.127519077915515
 20
16.77799463809761
 10
-0.8932673543696552
 20
16.67485278005909
 42
-0.2973336368416808
 10
-0.8747594655661288
 20
16.6464811893766
 10
-0.8747594655661288
 20
16.60496078210783
 42
-0.5416234831226134
 10
-0.9182515767626
 20
16.57658919142533
 10
-1.048751206798765
 20
16.63404863766344
 42
0.1040635034746246
 10
-1.061243317995241
 20
16.63667704698095
 10
-1.180759465566126
 20
16.63667704698095
 42
0.4142135623730951
 10
-1.211759465566125
 20
16.60567704698095
 10
-1.211759465566125
 20
15.85198118937659
 10
-1.186759465566126
 20
15.85198118937659
 10
-1.186759465566126
 20
15.61698118937659
 10
-1.201759465566123
 20
15.60198118937659
 10
-1.186759465566126
 20
15.58698118937659
 10
-1.186759465566126
 20
15.35198118937659
 10
-1.211759465566125
 20
15.35198118937659
 10
-1.211759465566125
 20
14.59828533177224
 42
0.4142135623730951
 10
-1.180759465566126
 20
14.56728533177223
 10
-1.061243317995241
 20
14.56728533177223
 42
0.104063503474624
 10
-1.048751206798765
 20
14.56991374108974
 10
-0.9182515767626
 20
14.62737318732786
 42
-0.5416234831226135
 10
-0.8747594655661288
 20
14.59900159664536
 10
-0.8747594655661288
 20
14.55748118937659
 42
-0.2973336368416811
 10
-0.8932673543696552
 20
14.5291095986941
 10
-1.127519077915515
 20
14.42596774065559
 42
0.9999999999999998
 10
-1.225999853216734
 20
14.40860292288889
 10
-1.311759465566122
 20
14.39348118937659
 10
-1.376759465566124
 20
14.4234811893766
 10
-1.376759465566124
 20
14.4434811893766
 10
-1.311759465566126
 20
14.4434811893766
 10
-1.311759465566126
 20
15.3059811893766
 10
-1.326759465566123
 20
15.3209811893766
 10
-1.311759465566126
 20
15.3359811893766
 10
-1.311759465566126
 20
15.8679811893766
  0
LWPOLYLINE
  5
1F1D
330
17
100
AcDbEntity
  8
0
100
AcDbPolyline
 90
       12
 70
     1
 43
0.0
 10
-6.217738572509521
 20
21.95109949658161
 10
-6.203079389920297
 20
22.03423585229034
 42
1.33239341188041
 10
-6.192024190312949
 20
22.11994283963624
 10
-6.192024190312949
 20
22.62848118937661
 10
-3.802144470403383
 20
22.62848118937661
 10
-3.80214447040338
 20
22.11994283963624
 42
1.33239341188041
 10
-3.791089270796035
 20
22.03423585229034
 10
-3.776430088206812
 20
21.95109949658161
 42
0.8617744796823018
 10
-3.747084330358166
 20
21.95548123895587
 10
-3.747084330358166
 20
22.69048118937661
 10
-6.247084330358164
 20
22.69048118937661
 10
-6.247084330358164
 20
21.95548123895587
 42
0.861774479682302
  0
LWPOLYLINE
  5
1F1E
330
17
100
AcDbEntity
  8
0
100
AcDbPolyline
 90
       41
 70
     1
 43
0.0
 10
-6.03178018796253
 20
22.19099733694749
 42
-0.1040635034746242
 10
-6.029151778645022
 20
22.20348944814397
 10
-5.971692332406908
 20
22.33398907818013
 42
0.5416234831226134
 10
-6.000063923089401
 20
22.37748118937661
 10
-6.041584330358173
 20
22.37748118937661
 42
0.2973336368416811
 10
-6.069955921040666
 20
22.35897330057308
 10
-6.173097779079181
 20
22.12472157702721
 42
-0.9999999999999998
 10
-6.190462596845875
 20
22.026240801726
 10
-6.205584330358171
 20
21.94048118937661
 10
-6.175584330358168
 20
21.87548118937661
 10
-6.155584330358168
 20
21.87548118937661
 10
-6.15558433035817
 20
21.94048118937661
 10
-5.293084330358167
 20
21.94048118937661
 10
-5.278084330358167
 20
21.92548118937661
 10
-5.263084330358166
 20
21.94048118937661
 10
-4.731084330358166
 20
21.94048118937661
 10
-4.716084330358166
 20
21.92548118937661
 10
-4.701084330358165
 20
21.94048118937661
 10
-3.83858433035817
 20
21.94048118937661
 10
-3.838584330358173
 20
21.87548118937661
 10
-3.818584330358174
 20
21.87548118937661
 10
-3.788584330358169
 20
21.94048118937661
 10
-3.803706063870464
 20
22.026240801726
 42
-1.0
 10
-3.821070881637158
 20
22.12472157702721
 10
-3.924212739675674
 20
22.35897330057308
 42
0.2973336368416808
 10
-3.952584330358167
 20
22.37748118937661
 10
-3.994104737626939
 20
22.37748118937661
 42
0.5416234831226136
 10
-4.022476328309432
 20
22.33398907818013
 10
-3.965016882071317
 20
22.20348944814396
 42
-0.1040635034746244
 10
-3.96238847275381
 20
22.19099733694749
 10
-3.96238847275381
 20
22.07148118937661
 42
-0.4142135623730951
 10
-3.99338847275381
 20
22.04048118937661
 10
-4.74708433035817
 20
22.04048118937661
 10
-4.74708433035817
 20
22.06548118937661
 10
-4.982084330358169
 20
22.06548118937661
 10
-4.99708433035817
 20
22.05048118937661
 10
-5.01208433035817
 20
22.06548118937661
 10
-5.24708433035817
 20
22.06548118937661
 10
-5.24708433035817
 20
22.04048118937661
 10
-6.000780187962529
 20
22.04048118937661
 42
-0.4142135623730951
 10
-6.03178018796253
 20
22.07148118937661
  0
LINE
  5
1F1F
330
17
100
AcDbEntity
  8
0
100
AcDbLine
 10
-6.058759464952983
 20
21.44098118937661
 30
0.0
 11
-6.058759464952983
 21
20.94098118937661
 31
0.0
  0
LINE
  5
1F20
330
17
100
AcDbEntity
  8
0
100
AcDbLine
 10
-5.669349624805446
 20
21.44098118937661
 30
0.0
 11
-5.669349624805446
 21
20.94098118937661
 31
0.0
  0
LINE
  5
1F21
330
17
100
AcDbEntity
  8
0
100
AcDbLine
 10
-2.246759465566121
 20
14.8014811893766
 30
0.0
 11
-1.746759465566121
 21
14.8014811893766
 31
0.0
  0
LINE
  5
1F22
330
17
100
AcDbEntity
  8
0
100
AcDbLine
 10
-2.246759465566121
 20
14.3954811893766
 30
0.0
 11
-1.746759465566121
 21
14.3954811893766
 31
0.0
  0
LWPOLYLINE
  5
1F23
330
17
100
AcDbEntity
  8
0
100
AcDbPolyline
 90
      129
 70
     1
 43
0.0
 10
-2.64675946556612
 20
16.77948118937659
 42
0.4142135623730951
 10
-2.621759465566118
 20
16.80448118937659
 10
-2.621759465566118
 20
16.85148118937659
 10
-3.746759465566121
 20
16.85148118937659
 10
-3.746759465566118
 20
15.72648118937659
 10
-3.621759465566121
 20
15.72648118937659
 10
-3.621759465566121
 20
15.4764811893766
 10
-3.746759465566121
 20
15.4764811893766
 10
-3.746759465566121
 20
14.3514811893766
 10
-2.621759465566121
 20
14.3514811893766
 10
-2.621759465566121
 20
14.3984811893766
 42
0.4142135623730951
 10
-2.64675946556612
 20
14.42348118937659
 10
-2.66175946556612
 20
14.4234811893766
 10
-2.66175946556612
 20
14.40148118937659
 10
-2.758759465566122
 20
14.40148118937659
 42
-0.4142135623730951
 10
-2.808759465566122
 20
14.45148118937661
 10
-2.808759465566122
 20
14.4764811893766
 42
-0.4142135623730951
 10
-2.758759465566122
 20
14.5264811893766
 10
-2.66175946556612
 20
14.52648118937659
 10
-2.66175946556612
 20
14.5044811893766
 10
-2.64675946556612
 20
14.5044811893766
 42
0.4142135623730951
 10
-2.621759465566121
 20
14.5294811893766
 10
-2.621759465566121
 20
15.1644811893766
 10
-1.496759465566121
 20
15.1644811893766
 10
-1.496759465566121
 20
15.2274811893766
 42
0.4142135623730951
 10
-1.52775946556612
 20
15.2584811893766
 10
-1.621259465566119
 20
15.2584811893766
 42
-0.9999999999999998
 10
-1.621259431426445
 20
15.38348118937659
 10
-1.527759465566116
 20
15.38348118937659
 42
0.4142135623730825
 10
-1.496759465566121
 20
15.41448118937659
 10
-1.496759465566121
 20
15.4829811893766
 10
-1.512059980934488
 20
15.5094824593766
 10
-1.521759465499258
 20
15.5094824593766
 10
-1.537059981001348
 20
15.4829811893766
 10
-1.546759465566122
 20
15.4829811893766
 10
-1.562059980934488
 20
15.5094824593766
 10
-1.571759465499258
 20
15.5094824593766
 10
-1.587059981001349
 20
15.4829811893766
 10
-1.596759465566123
 20
15.4829811893766
 10
-1.612059980934485
 20
15.5094824593766
 10
-1.621759465499259
 20
15.5094824593766
 10
-1.63705998100135
 20
15.4829811893766
 10
-1.64675946556612
 20
15.4829811893766
 10
-1.662059980934486
 20
15.5094824593766
 10
-1.67175946549926
 20
15.5094824593766
 10
-1.687059981001347
 20
15.4829811893766
 10
-1.696759465566124
 20
15.4829811893766
 10
-1.712059980934487
 20
15.5094824593766
 10
-1.721759465499257
 20
15.5094824593766
 10
-1.737059981001351
 20
15.4829811893766
 10
-1.746759465566121
 20
15.4829811893766
 10
-1.762059980934488
 20
15.5094824593766
 10
-1.771759465499258
 20
15.5094824593766
 10
-1.787059981001348
 20
15.4829811893766
 10
-1.796759465566122
 20
15.4829811893766
 10
-1.812059980934488
 20
15.5094824593766
 10
-1.821759465499258
 20
15.5094824593766
 10
-1.837059981001349
 20
15.4829811893766
 10
-1.846759465566119
 20
15.4829811893766
 10
-1.862059980934485
 20
15.5094824593766
 10
-1.871759465499255
 20
15.5094824593766
 10
-1.887059981001346
 20
15.4829811893766
 10
-1.89675946556612
 20
15.4829811893766
 10
-1.912059980934486
 20
15.5094824593766
 10
-1.921759465499256
 20
15.5094824593766
 10
-1.937059981001347
 20
15.4829811893766
 10
-1.94675946556612
 20
15.4829811893766
 10
-1.962059980934487
 20
15.5094824593766
 10
-1.97175946549926
 20
15.5094824593766
 10
-1.982153290650991
 20
15.49147982628614
 42
-0.6271311136319313
 10
-2.001695632452847
 20
15.70302961126013
 10
-1.996759465499255
 20
15.6944799193766
 10
-1.987059980934485
 20
15.6944799193766
 10
-1.971759465566119
 20
15.72098118937659
 10
-1.962059981001349
 20
15.72098118937659
 10
-1.946759465499258
 20
15.6944799193766
 10
-1.937059980934488
 20
15.6944799193766
 10
-1.921759465566118
 20
15.72098118937659
 10
-1.912059981001345
 20
15.72098118937659
 10
-1.896759465499254
 20
15.6944799193766
 10
-1.887059980934484
 20
15.6944799193766
 10
-1.871759465566118
 20
15.72098118937659
 10
-1.862059981001348
 20
15.72098118937659
 10
-1.846759465499257
 20
15.6944799193766
 10
-1.837059980934487
 20
15.6944799193766
 10
-1.82175946556612
 20
15.72098118937659
 10
-1.81205998100135
 20
15.72098118937659
 10
-1.79675946549926
 20
15.6944799193766
 10
-1.787059980934483
 20
15.6944799193766
 10
-1.771759465566116
 20
15.72098118937659
 10
-1.76205998100135
 20
15.72098118937659
 10
-1.746759465499255
 20
15.6944799193766
 10
-1.737059980934485
 20
15.6944799193766
 10
-1.721759465566119
 20
15.72098118937659
 10
-1.712059981001349
 20
15.72098118937659
 10
-1.696759465499258
 20
15.6944799193766
 10
-1.687059980934485
 20
15.6944799193766
 10
-1.671759465566115
 20
15.72098118937659
 10
-1.662059981001352
 20
15.72098118937659
 10
-1.646759465499254
 20
15.6944799193766
 10
-1.637059980934484
 20
15.6944799193766
 10
-1.621759465566118
 20
15.72098118937659
 10
-1.612059981001348
 20
15.72098118937659
 10
-1.596759465499257
 20
15.6944799193766
 10
-1.587059980934487
 20
15.6944799193766
 10
-1.57175946556612
 20
15.72098118937659
 10
-1.56205998100135
 20
15.72098118937659
 10
-1.54675946549926
 20
15.6944799193766
 10
-1.537059980934483
 20
15.6944799193766
 10
-1.521759465566116
 20
15.72098118937659
 10
-1.496759465566118
 20
15.72098118937659
 10
-1.496759465566118
 20
15.78948118937659
 42
0.4142135623730951
 10
-1.52775946556612
 20
15.82048118937659
 10
-1.621259465566119
 20
15.82048118937659
 42
-1.000000000000014
 10
-1.621259465566119
 20
15.9454811893766
 10
-1.52775946556612
 20
15.94548118937659
 42
0.4142135623730951
 10
-1.496759465566118
 20
15.97648118937659
 10
-1.496759465566118
 20
16.03948118937659
 10
-2.621759465566118
 20
16.03948118937659
 10
-2.621759465566118
 20
16.67348118937659
 42
0.4142135623730951
 10
-2.64675946556612
 20
16.69848118937659
 10
-2.661759465566117
 20
16.69848118937659
 10
-2.661759465566117
 20
16.67648118937659
 10
-2.758759465566118
 20
16.67648118937659
 42
-0.4142135623730951
 10
-2.808759465566122
 20
16.72648118937659
 10
-2.808759465566122
 20
16.75148118937659
 42
-0.4142135623730898
 10
-2.758759465566118
 20
16.80148118937659
 10
-2.661759465566117
 20
16.80148118937659
 10
-2.661759465566117
 20
16.77948118937659
  0
LWPOLYLINE
  5
1F24
330
17
100
AcDbEntity
  8
0
100
AcDbPolyline
 90
       24
 70
     1
 43
0.0
 10
-2.90875946556612
 20
16.7264811893766
 10
-2.908759465566117
 20
16.76148118937659
 10
-3.656759465566121
 20
16.76148118937659
 10
-3.656759465566121
 20
15.81648118937659
 10
-3.531759465566121
 20
15.81648118937659
 10
-3.531759465566121
 20
15.38648118937659
 10
-3.656759465566121
 20
15.3864811893766
 10
-3.656759465566121
 20
14.4414811893766
 10
-2.908759465566117
 20
14.4414811893766
 10
-2.90875946556612
 20
14.4764811893766
 42
-0.4142135623730933
 10
-2.758759465566125
 20
14.6264811893766
 10
-2.711759465566121
 20
14.6264811893766
 10
-2.711759465566121
 20
15.2334811893766
 42
-0.4142135623730992
 10
-2.680759465566119
 20
15.2644811893766
 10
-1.931509465566119
 20
15.2644811893766
 42
0.9999999999999998
 10
-1.931509465566119
 20
15.38398118937659
 10
-1.94075946556612
 20
15.3839811893766
 42
-0.9999999999999998
 10
-1.94075946556612
 20
15.8199811893766
 10
-1.931509465566119
 20
15.8199811893766
 42
0.9999999999999998
 10
-1.931509465566119
 20
15.9394811893766
 10
-2.680759465566119
 20
15.9394811893766
 42
-0.4142135623730992
 10
-2.711759465566121
 20
15.9704811893766
 10
-2.711759465566121
 20
16.57648118937659
 10
-2.758759465566118
 20
16.57648118937659
 42
-0.414213562373107
  0
LWPOLYLINE
  5
1F25
330
17
100
AcDbEntity
  8
0
100
AcDbPolyline
 90
        4
 70
     0
 43
0.0
 10
-2.496759465566118
 20
13.8514811893766
 10
-2.496759465566121
 20
14.8514811893766
 10
-2.246759465566121
 20
14.8514811893766
 10
-2.246759465566121
 20
13.8514811893766
  0
LWPOLYLINE
  5
1F26
330
17
100
AcDbEntity
  8
0
100
AcDbPolyline
 90
        4
 70
     0
 43
0.0
 10
-1.746759465566121
 20
13.8514811893766
 10
-1.746759465566121
 20
14.8514811893766
 10
-1.496759465566121
 20
14.8514811893766
 10
-1.496759465566121
 20
13.8514811893766
  0
TEXT
  5
1F27
330
17
100
AcDbEntity
  8
KCADSLABEL
100
AcDbText
 10
-5.223905836302341
 20
22.15450195666495
 30
0.0
 40
0.125
  1
216051
 72
     1
 11
-4.932551811745724
 21
22.27950195666494
 31
0.0
100
AcDbText
 73
     3
  0
TEXT
  5
1F28
330
17
100
AcDbEntity
  8
KCADSLABEL
100
AcDbText
 10
-5.223905836302341
 20
22.83445604359616
 30
0.0
 40
0.125
  1
216103
 72
     1
 11
-4.932551811745724
 21
22.95945604359616
 31
0.0
100
AcDbText
 73
     3
  0
LWPOLYLINE
  5
1F29
330
17
100
AcDbEntity
  8
0
100
AcDbPolyline
 90
        8
 70
     1
 43
0.0
 10
-6.146759465566121
 20
14.4814811893766
 42
0.4142135623730973
 10
-6.116759465566122
 20
14.4514811893766
 10
-3.87675946556612
 20
14.4514811893766
 42
0.414213562373093
 10
-3.846759465566119
 20
14.4814811893766
 10
-3.846759465566123
 20
19.47098118937661
 42
0.4142135623730951
 10
-3.876759465566124
 20
19.50098118937661
 10
-6.116759465566122
 20
19.5009811893766
 42
0.4142135623730908
 10
-6.146759465566121
 20
19.4709811893766
  0
LWPOLYLINE
  5
1F2A
330
17
100
AcDbEntity
  8
0
100
AcDbPolyline
 90
       68
 70
     1
 43
0.0
 10
-3.776759465566126
 20
20.0714811893766
 10
-3.776759465566126
 20
20.1014811893766
 10
-3.904259465566124
 20
20.10148118937661
 42
0.4142135623730777
 10
-3.934259465566125
 20
20.0714811893766
 10
-3.934259465566125
 20
20.0514811893766
 10
-3.889259465566123
 20
20.0514811893766
 10
-3.889259465566123
 20
19.99630631170541
 42
-0.3704662542213866
 10
-4.104259465566117
 20
19.99630631170539
 10
-4.104259465566123
 20
20.0514811893766
 10
-4.059259465566121
 20
20.0514811893766
 10
-4.059259465566121
 20
20.0714811893766
 42
0.4142135623730864
 10
-4.089259465566122
 20
20.10148118937661
 10
-4.246759465566125
 20
20.10148118937661
 10
-4.246759465566126
 20
20.0139075962478
 42
0.1989123673796581
 10
-4.237972669001724
 20
19.9926943928122
 10
-4.10433305869493
 20
19.8590547825054
 42
0.1989123673796633
 10
-4.061906651823736
 20
19.84148118937659
 10
-3.866759465566124
 20
19.84148118937659
 42
-0.4142135623730951
 10
-3.836759465566125
 20
19.81148118937659
 10
-3.836759465566125
 20
19.6609811893766
 42
-0.4142135623730992
 10
-3.896759465566123
 20
19.6009811893766
 10
-4.846759465566123
 20
19.6009811893766
 42
-0.4142135623730951
 10
-4.946759465566122
 20
19.7009811893766
 10
-4.94675946556612
 20
20.85253221509827
 42
0.3563939586926031
 10
-4.746759465566121
 20
21.0974811893766
 10
-4.746759465566121
 20
21.75348118937661
 10
-4.871759465566121
 20
21.7534811893766
 42
0.4142135623731038
 10
-4.90175946556612
 20
21.7234811893766
 10
-4.90175946556612
 20
21.5634811893766
 10
-4.881759465566121
 20
21.5634811893766
 10
-4.90175946556612
 20
21.45005555298425
 10
-4.901759465566122
 20
21.0984811893766
 42
-0.9999999999999998
 10
-5.09175946556612
 20
21.0984811893766
 10
-5.091759465566122
 20
21.45005555298425
 10
-5.111759465566121
 20
21.5634811893766
 10
-5.091759465566122
 20
21.5634811893766
 10
-5.091759465566122
 20
21.7234811893766
 42
0.4142135623730993
 10
-5.121759465566121
 20
21.7534811893766
 10
-5.246759464952965
 20
21.75348118937661
 10
-5.246759464952944
 20
21.09749869904866
 42
0.3564136925077791
 10
-5.046759465566118
 20
20.85253221509828
 10
-5.046759465566122
 20
19.7009811893766
 42
-0.4142135623730964
 10
-5.146759465566121
 20
19.6009811893766
 10
-6.096759465566119
 20
19.6009811893766
 42
-0.4142135623730974
 10
-6.156759465566119
 20
19.6609811893766
 10
-6.156759465566119
 20
19.81148118937659
 42
-0.4142135623730996
 10
-6.12675946556612
 20
19.84148118937659
 10
-5.931612279308509
 20
19.84148118937659
 42
0.1989123673796635
 10
-5.889185872437316
 20
19.8590547825054
 10
-5.75554626213052
 20
19.9926943928122
 42
0.1989123673796573
 10
-5.746759465566118
 20
20.0139075962478
 10
-5.746759465566121
 20
20.10148118937661
 10
-5.904259465566122
 20
20.10148118937661
 42
0.4142135623730951
 10
-5.934259465566121
 20
20.0714811893766
 10
-5.934259465566121
 20
20.0514811893766
 10
-5.889259465566119
 20
20.0514811893766
 10
-5.889259465566127
 20
19.99630631170539
 42
-0.3704662542213866
 10
-6.104259465566119
 20
19.99630631170541
 10
-6.104259465566119
 20
20.0514811893766
 10
-6.059259465566118
 20
20.0514811893766
 10
-6.059259465566119
 20
20.0714811893766
 42
0.4142135623730777
 10
-6.089259465566119
 20
20.1014811893766
 10
-6.21675946556612
 20
20.1014811893766
 10
-6.21675946556612
 20
20.0714811893766
 10
-6.246759465566121
 20
20.0714811893766
 10
-6.246759465566121
 20
14.3514811893766
 10
-3.746759465566121
 20
14.3514811893766
 10
-3.746759465566125
 20
20.0714811893766
  0
LINE
  5
1F2B
330
17
100
AcDbEntity
  8
0
  6
HIDDEN
100
AcDbLine
 10
-3.746759465566121
 20
17.1014811893766
 30
0.0
 11
-6.246759465566121
 21
17.1014811893766
 31
0.0
  0
LINE
  5
1F2C
330
17
100
AcDbEntity
  8
0
  6
HIDDEN
100
AcDbLine
 10
-3.746759465566121
 20
15.6014811893766
 30
0.0
 11
-6.246759465566121
 21
15.6014811893766
 31
0.0
  0
LINE
  5
1F2D
330
17
100
AcDbEntity
  8
0
  6
HIDDEN
100
AcDbLine
 10
-3.846759465566123
 20
17.2014811893766
 30
0.0
 11
-6.146759465566121
 21
17.2014811893766
 31
0.0
  0
LINE
  5
1F2E
330
17
100
AcDbEntity
  8
0
  6
HIDDEN
100
AcDbLine
 10
-3.846759465566119
 20
15.7014811893766
 30
0.0
 11
-6.146759465566121
 21
15.7014811893766
 31
0.0
  0
TEXT
  5
1F2F
330
17
100
AcDbEntity
  8
KCADSLABEL
100
AcDbText
 10
-5.288113490122738
 20
15.85947569096428
 30
0.0
 40
0.125
  1
822002
 72
     1
 11
-4.996759465566121
 21
15.98447569096428
 31
0.0
100
AcDbText
 73
     3
  0
TEXT
  5
1F30
330
17
100
AcDbEntity
  8
KCADSLABEL
100
AcDbText
 10
-5.288113490122738
 20
17.38518485642617
 30
0.0
 40
0.125
  1
822003
 72
     1
 11
-4.996759465566121
 21
17.51018485642617
 31
0.0
100
AcDbText
 73
     3
  0
TEXT
  5
1F31
330
17
100
AcDbEntity
  8
KCADSLABEL
100
AcDbText
 10
-1.262016870756492
 20
17.20886285707919
 30
0.0
 40
0.125
  1
216051
 72
     1
 11
-0.9706628461998754
 21
17.33386285707919
 31
0.0
100
AcDbText
 73
     3
  0
LWPOLYLINE
  5
1F32
330
17
100
AcDbEntity
  8
KCADSMICS
100
AcDbPolyline
 90
        4
 70
     1
 43
0.0
 10
-3.746759465566125
 20
20.10148118937661
 10
-3.746759465566121
 20
21.60998118937661
 10
-4.744307868006327
 20
21.60998118937661
 10
-4.744307868006329
 20
20.10148118937661
  0
LINE
  5
1F33
330
17
100
AcDbEntity
  8
KCADSMICS
100
AcDbLine
 10
-4.744307868006327
 20
21.60998118937661
 30
0.0
 11
-3.746759465566125
 21
20.10148118937661
 31
0.0
  0
LINE
  5
1F34
330
17
100
AcDbEntity
  8
KCADSMICS
100
AcDbLine
 10
-4.744307868006329
 20
20.10148118937661
 30
0.0
 11
-3.746759465566121
 21
21.60998118937661
 31
0.0
  0
TEXT
  5
1F35
330
17
100
AcDbEntity
  8
KCADSLABEL
100
AcDbText
 10
-1.267696155299942
 20
14.10389997250375
 30
0.0
 40
0.125
  1
216103
 72
     1
 11
-0.9763421307433262
 21
14.22889997250375
 31
0.0
100
AcDbText
 73
     3
  0
LWPOLYLINE
  5
1F36
330
17
100
AcDbEntity
  8
0
100
AcDbPolyline
 90
        4
 70
     0
 43
0.0
 10
-6.850500881377936
 20
21.69098118937661
 10
-5.619349624805449
 20
21.69098118937661
 10
-5.619349624805449
 20
21.44098118937661
 10
-6.850500881377936
 20
21.44098118937661
  0
LWPOLYLINE
  5
1F37
330
17
100
AcDbEntity
  8
0
100
AcDbPolyline
 90
        4
 70
     0
 43
0.0
 10
-6.850500881377936
 20
20.94098118937661
 10
-5.619349624805449
 20
20.94098118937661
 10
-5.619349624805449
 20
20.69098118937661
 10
-6.850500881377936
 20
20.69098118937661
  0
TEXT
  5
1F38
330
17
100
AcDbEntity
  8
KCADSLABEL
100
AcDbText
 10
-3.268129675493645
 20
15.57454073507146
 30
0.0
 40
0.125
  1
216171
 72
     1
 11
-2.976775650937028
 21
15.69954073507146
 31
0.0
100
AcDbText
 73
     3
  0
LWPOLYLINE
  5
1F39
330
17
100
AcDbEntity
  8
KCADSMICS
100
AcDbPolyline
 90
        4
 70
     1
 43
0.0
 10
-1.580714021816909
 20
16.0394811893766
 10
-1.580714021816909
 20
16.85148118937659
 10
-2.621759465566118
 20
16.85148118937659
 10
-2.621759465566118
 20
16.03948118937659
  0
LINE
  5
1F3A
330
17
100
AcDbEntity
  8
KCADSMICS
100
AcDbLine
 10
-2.621759465566118
 20
16.85148118937659
 30
0.0
 11
-1.580714021816909
 21
16.0394811893766
 31
0.0
  0
LINE
  5
1F3B
330
17
100
AcDbEntity
  8
KCADSMICS
100
AcDbLine
 10
-1.580714021816913
 20
16.85148118937659
 30
0.0
 11
-2.621759465566118
 21
16.03948118937659
 31
0.0
  0
ARC
  5
1F3C
330
17
100
AcDbEntity
  8
0
100
AcDbCircle
 10
-3.182395483649631
 20
17.42721379736998
 30
0.0
 40
0.6028249761098609
100
AcDbArc
 50
200.5773196016355
 51
252.7572876504688
  0
CIRCLE
  5
1F3D
330
17
100
AcDbEntity
  8
0
100
AcDbCircle
 10
-3.693784919687427
 20
17.03024799206108
 30
0.0
 40
0.0059
  0
CIRCLE
  5
1F3E
330
17
100
AcDbEntity
  8
0
100
AcDbCircle
 10
-3.666140703195228
 20
16.9934250763072
 30
0.0
 40
0.0059
  0
CIRCLE
  5
1F3F
330
17
100
AcDbEntity
  8
0
100
AcDbCircle
 10
-3.696856526380162
 20
16.97501360766307
 30
0.0
 40
0.0059
  0
CIRCLE
  5
1F40
330
17
100
AcDbEntity
  8
0
100
AcDbCircle
 10
-3.604709056825353
 20
16.94279355368663
 30
0.0
 40
0.0059
  0
CIRCLE
  5
1F41
330
17
100
AcDbEntity
  8
0
100
AcDbCircle
 10
-3.636960665946485
 20
16.93819069190918
 30
0.0
 40
0.0059
  0
CIRCLE
  5
1F42
330
17
100
AcDbEntity
  8
0
100
AcDbCircle
 10
-3.673819667696545
 20
16.92284780496148
 30
0.0
 40
0.0059
  0
CIRCLE
  5
1F43
330
17
100
AcDbEntity
  8
0
100
AcDbCircle
 10
-3.718357599127582
 20
16.91210780132557
 30
0.0
 40
0.0059
  0
CIRCLE
  5
1F44
330
17
100
AcDbEntity
  8
0
100
AcDbCircle
 10
-3.690713347815037
 20
16.87221630387526
 30
0.0
 40
0.0059
  0
CIRCLE
  5
1F45
330
17
100
AcDbEntity
  8
0
100
AcDbCircle
 10
-3.626210129572772
 20
16.88295630751117
 30
0.0
 40
0.0059
  0
CIRCLE
  5
1F46
330
17
100
AcDbEntity
  8
0
100
AcDbCircle
 10
-3.560171125394315
 20
16.89062775098502
 30
0.0
 40
0.0059
  0
CIRCLE
  5
1F47
330
17
100
AcDbEntity
  8
0
100
AcDbCircle
 10
-3.503346871653366
 20
16.88295630751117
 30
0.0
 40
0.0059
  0
CIRCLE
  5
1F48
330
17
100
AcDbEntity
  8
0
100
AcDbCircle
 10
-3.581672198141735
 20
16.86761344209782
 30
0.0
 40
0.0059
  0
CIRCLE
  5
1F49
330
17
100
AcDbEntity
  8
0
100
AcDbCircle
 10
-3.458808940222329
 20
16.87221630387526
 30
0.0
 40
0.0059
  0
CIRCLE
  5
1F4A
330
17
100
AcDbEntity
  8
0
100
AcDbCircle
 10
-3.560171125394315
 20
16.92438210657686
 30
0.0
 40
0.0059
  0
CIRCLE
  5
1F4B
330
17
100
AcDbEntity
  8
0
100
AcDbCircle
 10
-3.715285992434854
 20
17.06553662773394
 30
0.0
 40
0.0059
  0
CIRCLE
  5
1F4C
330
17
100
AcDbEntity
  8
0
100
AcDbCircle
 10
-3.716821778371045
 20
17.10082526340681
 30
0.0
 40
0.0059
  0
CIRCLE
  5
1F4D
330
17
100
AcDbEntity
  8
0
100
AcDbCircle
 10
-3.733715493309883
 20
17.1376481791607
 30
0.0
 40
0.0059
  0
CIRCLE
  5
1F4E
330
17
100
AcDbEntity
  8
0
100
AcDbCircle
 10
-3.729108135501295
 20
16.99956223970002
 30
0.0
 40
0.0059
  0
CIRCLE
  5
1F4F
330
17
100
AcDbEntity
  8
0
100
AcDbCircle
 10
-3.650782774192588
 20
17.02564513028365
 30
0.0
 40
0.0059
  0
CIRCLE
  5
1F50
330
17
100
AcDbEntity
  8
0
100
AcDbCircle
 10
-3.618531199891794
 20
16.97654790927846
 30
0.0
 40
0.0059
  0
LWPOLYLINE
  5
1F51
330
17
100
AcDbEntity
  8
0
100
AcDbPolyline
 90
        5
 70
     0
 43
0.0
 10
-1.580714021816909
 20
16.90956686421084
 42
-0.37352164038349
 10
-1.74010209682887
 20
17.15959748632217
 10
-1.58175705301106
 20
21.36214022594055
 42
1.101011022899163
 10
-2.031963196785081
 20
21.36214022594055
 10
-1.767650530472909
 20
17.15177064739904
  0
LWPOLYLINE
  5
1F52
330
17
100
AcDbEntity
  8
0
100
AcDbPolyline
 90
       19
 70
     0
 43
0.0
 10
-3.746759465566135
 20
21.56836582118867
 42
-0.6603971938112637
 10
-3.39233606261498
 20
21.35061532900111
 10
-3.61357573339837
 20
17.15084521568413
 42
1.15947298965315
 10
-3.166189959533831
 20
17.15084521568413
 10
-3.181092520204803
 20
17.25119504032717
 10
-3.387429630317225
 20
21.35061532900111
 42
-1.159472989653152
 10
-2.940043856452685
 20
21.35061532900111
 10
-3.14668068044504
 20
17.24917684788636
 10
-3.161283527236076
 20
17.15084521568413
 42
1.15764599983597
 10
-2.713795195142449
 20
17.15014712292002
 10
-2.727251330708181
 20
17.24274453121945
 10
-2.939941298223597
 20
21.41635675082572
 42
-0.9674688921909904
 10
-2.486341465335648
 20
21.36214022594055
 10
-2.691962014658592
 20
17.15959748632217
 42
1.157645999835969
 10
-2.244473682564965
 20
17.15889939355806
 10
-2.484255402947376
 20
21.36214022594055
 42
-1.101011022899163
 10
-2.034049259173354
 20
21.36214022594055
 10
-2.216059370633651
 20
17.15959748632217
 42
1.157645999835969
 10
-1.768571038540024
 20
17.15889939355806
  0
LINE
  5
1F53
330
17
100
AcDbEntity
  8
0
100
AcDbLine
 10
-6.050779121354752
 20
21.94048118937661
 30
0.0
 11
-6.050779121354752
 21
21.69098118937661
 31
0.0
  0
LINE
  5
1F54
330
17
100
AcDbEntity
  8
0
100
AcDbLine
 10
-5.750779121354753
 20
21.69098118937661
 30
0.0
 11
-5.750779121354753
 21
21.94048118937661
 31
0.0
  0
LINE
  5
1F55
330
17
100
AcDbEntity
  8
0
100
AcDbLine
 10
-6.315328749283079
 20
21.69098118937661
 30
0.0
 11
-6.247084330358168
 21
21.94048118937661
 31
0.0
  0
LINE
  5
1F56
330
17
100
AcDbEntity
  8
0
100
AcDbLine
 10
-6.247084330358168
 20
21.94048118937661
 30
0.0
 11
-6.205584330358172
 21
21.94048118937661
 31
0.0
  0
LINE
  5
1F57
330
17
100
AcDbEntity
  8
0
100
AcDbLine
 10
-4.747084330358166
 20
21.7534811893766
 30
0.0
 11
-4.747084330358166
 21
21.9404811893766
 31
0.0
  0
LINE
  5
1F58
330
17
100
AcDbEntity
  8
0
100
AcDbLine
 10
-4.872084330358166
 20
21.9404811893766
 30
0.0
 11
-4.872084330358168
 21
21.8469811893766
 31
0.0
  0
LINE
  5
1F59
330
17
100
AcDbEntity
  8
0
100
AcDbLine
 10
-4.872084330358168
 20
21.8469811893766
 30
0.0
 11
-5.122084330358166
 21
21.8469811893766
 31
0.0
  0
LINE
  5
1F5A
330
17
100
AcDbEntity
  8
0
100
AcDbLine
 10
-5.122084330358166
 20
21.8469811893766
 30
0.0
 11
-5.122084330358166
 21
21.9404811893766
 31
0.0
  0
LINE
  5
1F5B
330
17
100
AcDbEntity
  8
0
100
AcDbLine
 10
-5.247084330358166
 20
21.9404811893766
 30
0.0
 11
-5.247084330358168
 21
21.75348118937661
 31
0.0
  0
LINE
  5
1F5C
330
17
100
AcDbEntity
  8
0
100
AcDbLine
 10
-3.943389539361588
 20
21.94048118937661
 30
0.0
 11
-3.943389539361588
 21
21.69098118937661
 31
0.0
  0
LINE
  5
1F5D
330
17
100
AcDbEntity
  8
0
100
AcDbLine
 10
-4.243389539361588
 20
21.69098118937661
 30
0.0
 11
-4.243389539361588
 21
21.94048118937661
 31
0.0
  0
LINE
  5
1F5E
330
17
100
AcDbEntity
  8
0
100
AcDbLine
 10
-3.678839911433261
 20
21.69098118937661
 30
0.0
 11
-3.747084330358173
 21
21.94048118937661
 31
0.0
  0
LINE
  5
1F5F
330
17
100
AcDbEntity
  8
0
100
AcDbLine
 10
-3.747084330358173
 20
21.94048118937661
 30
0.0
 11
-3.788584330358169
 21
21.94048118937661
 31
0.0
  0
ARC
  5
1F60
330
17
100
AcDbEntity
  8
0
100
AcDbCircle
 10
-2.559772683937698
 20
14.3868191551099
 30
0.0
 40
0.0686200642572517
100
AcDbArc
 50
205.3116758733068
 51
336.6775681322299
  0
ARC
  5
1F61
330
17
100
AcDbEntity
  8
0
100
AcDbCircle
 10
-2.558679202265672
 20
14.59058409357253
 30
0.0
 40
0.070707420862805
100
AcDbArc
 50
28.86997618471922
 51
153.223851498981
  0
LINE
  5
1F62
330
17
100
AcDbEntity
  8
0
100
AcDbLine
 10
-1.311759465566126
 20
14.54942080479843
 30
0.0
 11
-1.496759465566121
 21
14.54942080479843
 31
0.0
  0
LINE
  5
1F63
330
17
100
AcDbEntity
  8
0
100
AcDbLine
 10
-1.496759465566121
 20
14.84942080479842
 30
0.0
 11
-1.311759465566126
 21
14.84942080479842
 31
0.0
  0
LINE
  5
1F64
330
17
100
AcDbEntity
  8
0
100
AcDbLine
 10
-1.311759465566126
 20
14.54942080479843
 30
0.0
 11
-1.496759465566121
 21
14.54942080479843
 31
0.0
  0
LINE
  5
1F65
330
17
100
AcDbEntity
  8
0
100
AcDbLine
 10
-1.496759465566121
 20
14.2848711768701
 30
0.0
 11
-1.311759465566215
 21
14.35220567020931
 31
0.0
  0
LINE
  5
1F66
330
17
100
AcDbEntity
  8
0
100
AcDbLine
 10
-1.311759465566215
 20
14.35220567020931
 30
0.0
 11
-1.311759465566215
 21
14.39348118937658
 31
0.0
  0
LINE
  5
1F67
330
17
100
AcDbEntity
  8
0
100
AcDbLine
 10
-1.311759465566122
 20
16.65454157395476
 30
0.0
 11
-1.49971402181691
 21
16.65454157395476
 31
0.0
  0
LINE
  5
1F68
330
17
100
AcDbEntity
  8
0
100
AcDbLine
 10
-1.49971402181691
 20
16.91909120188309
 30
0.0
 11
-1.311759465566218
 21
16.85174259270239
 31
0.0
  0
LINE
  5
1F69
330
17
100
AcDbEntity
  8
0
100
AcDbLine
 10
-1.311759465566218
 20
16.85174259270239
 30
0.0
 11
-1.311759465566218
 21
16.81048118937655
 31
0.0
  0
LINE
  5
1F6A
330
17
100
AcDbEntity
  8
0
100
AcDbLine
 10
-1.49971402181691
 20
16.35454157395476
 30
0.0
 11
-1.311759465566122
 21
16.35454157395476
 31
0.0
  0
LINE
  5
1F6B
330
17
100
AcDbEntity
  8
0
100
AcDbLine
 10
-1.441759465566125
 20
15.4769811893766
 30
0.0
 11
-1.311759465566126
 21
15.4769811893766
 31
0.0
  0
LINE
  5
1F6C
330
17
100
AcDbEntity
  8
0
100
AcDbLine
 10
-1.311759465566126
 20
15.4769811893766
 30
0.0
 11
-1.311759465566126
 21
15.37698118937659
 31
0.0
  0
LINE
  5
1F6D
330
17
100
AcDbEntity
  8
0
100
AcDbLine
 10
-1.311759465566126
 20
15.37698118937659
 30
0.0
 11
-1.322759465566125
 21
15.37698118937659
 31
0.0
  0
ARC
  5
1F6E
330
17
100
AcDbEntity
  8
0
100
AcDbCircle
 10
-1.322759465566125
 20
15.35198118937659
 30
0.0
 40
0.0250000000000001
100
AcDbArc
 50
89.99999999999797
 51
179.9999999999963
  0
LINE
  5
1F6F
330
17
100
AcDbEntity
  8
0
100
AcDbLine
 10
-1.347759465566124
 20
15.3519811893766
 30
0.0
 11
-1.347759465566124
 21
15.2999811893766
 31
0.0
  0
ARC
  5
1F70
330
17
100
AcDbEntity
  8
0
100
AcDbCircle
 10
-1.322759465566125
 20
15.2999811893766
 30
0.0
 40
0.0249999999999995
100
AcDbArc
 50
180.0000000000034
 51
270.0000000000021
  0
LINE
  5
1F71
330
17
100
AcDbEntity
  8
0
100
AcDbLine
 10
-1.322759465566125
 20
15.2749811893766
 30
0.0
 11
-1.311759465566126
 21
15.2749811893766
 31
0.0
  0
LINE
  5
1F72
330
17
100
AcDbEntity
  8
0
100
AcDbLine
 10
-1.311759465566126
 20
15.2749811893766
 30
0.0
 11
-1.311759465566126
 21
15.2649811893766
 31
0.0
  0
LINE
  5
1F73
330
17
100
AcDbEntity
  8
0
100
AcDbLine
 10
-1.311759465566126
 20
15.1649811893766
 30
0.0
 11
-1.496759465566125
 21
15.1649811893766
 31
0.0
  0
LINE
  5
1F74
330
17
100
AcDbEntity
  8
0
100
AcDbLine
 10
-1.496759465566125
 20
16.0389811893766
 30
0.0
 11
-1.311759465566126
 21
16.0389811893766
 31
0.0
  0
LINE
  5
1F75
330
17
100
AcDbEntity
  8
0
100
AcDbLine
 10
-1.311759465566126
 20
15.9389811893766
 30
0.0
 11
-1.311759465566126
 21
15.9289811893766
 31
0.0
  0
LINE
  5
1F76
330
17
100
AcDbEntity
  8
0
100
AcDbLine
 10
-1.311759465566126
 20
15.9289811893766
 30
0.0
 11
-1.322759465566125
 21
15.9289811893766
 31
0.0
  0
ARC
  5
1F77
330
17
100
AcDbEntity
  8
0
100
AcDbCircle
 10
-1.322759465566125
 20
15.9039811893766
 30
0.0
 40
0.0250000000000013
100
AcDbArc
 50
90.00000000000204
 51
180.000000000002
  0
LINE
  5
1F78
330
17
100
AcDbEntity
  8
0
100
AcDbLine
 10
-1.347759465566124
 20
15.9039811893766
 30
0.0
 11
-1.347759465566124
 21
15.8519811893766
 31
0.0
  0
ARC
  5
1F79
330
17
100
AcDbEntity
  8
0
100
AcDbCircle
 10
-1.322759465566125
 20
15.8519811893766
 30
0.0
 40
0.0249999999999995
100
AcDbArc
 50
180.0000000000028
 51
270.0000000000021
  0
LINE
  5
1F7A
330
17
100
AcDbEntity
  8
0
100
AcDbLine
 10
-1.322759465566125
 20
15.8269811893766
 30
0.0
 11
-1.311759465566126
 21
15.8269811893766
 31
0.0
  0
LINE
  5
1F7B
330
17
100
AcDbEntity
  8
0
100
AcDbLine
 10
-1.311759465566126
 20
15.8269811893766
 30
0.0
 11
-1.311759465566126
 21
15.7269811893766
 31
0.0
  0
LINE
  5
1F7C
330
17
100
AcDbEntity
  8
0
100
AcDbLine
 10
-1.311759465566126
 20
15.7269811893766
 30
0.0
 11
-1.441759465566125
 21
15.7269811893766
 31
0.0
  0
ARC
  5
1F7D
330
17
100
AcDbEntity
  8
0
100
AcDbCircle
 10
-1.441759465566125
 20
15.70198118937659
 30
0.0
 40
0.0249999999999995
100
AcDbArc
 50
89.99999999999797
 51
179.9999999999979
  0
LINE
  5
1F7E
330
17
100
AcDbEntity
  8
0
100
AcDbLine
 10
-1.466759465566124
 20
15.7019811893766
 30
0.0
 11
-1.466759465566124
 21
15.6019811893766
 31
0.0
  0
LINE
  5
1F7F
330
17
100
AcDbEntity
  8
0
100
AcDbLine
 10
-1.466759465566124
 20
15.6019811893766
 30
0.0
 11
-1.466759465566124
 21
15.50198118937659
 31
0.0
  0
ARC
  5
1F80
330
17
100
AcDbEntity
  8
0
100
AcDbCircle
 10
-1.441759465566125
 20
15.50198118937659
 30
0.0
 40
0.0249999999999995
100
AcDbArc
 50
180.000000000002
 51
270.0000000000021
  0
LINE
  5
1F81
330
17
100
AcDbEntity
  8
0
100
AcDbLine
 10
-1.496759465566118
 20
15.72098118937659
 30
0.0
 11
-1.496759465566121
 21
15.4829811893766
 31
0.0
  0
LWPOLYLINE
  5
1F82
330
17
100
AcDbEntity
  8
0
100
AcDbPolyline
 90
        4
 70
     0
 43
0.0
 10
-6.21675946556614
 20
20.69098118937661
 42
0.4142135623730996
 10
-6.246759465566139
 20
20.66098118937661
 10
-6.246759465566139
 20
20.13148118937661
 42
0.4142135623730996
 10
-6.21675946556614
 20
20.10148118937661
  0
LWPOLYLINE
  5
1F83
330
17
100
AcDbEntity
  8
0
100
AcDbPolyline
 90
        4
 70
     0
 43
0.0
 10
-5.776759465566138
 20
20.10148118937661
 42
0.4142135623730906
 10
-5.746759465566137
 20
20.13148118937661
 10
-5.746759465566139
 20
20.66098118937661
 42
0.4142135623730951
 10
-5.776759465566138
 20
20.69098118937661
  0
LEADER
  5
1F84
330
17
100
AcDbEntity
  8
KCADSLABEL
100
AcDbLeader
  3
STANDARD
 76
     3
 10
-0.8932673543696552
 20
16.67485278005909
 30
0.0
 10
-0.379363637499619
 20
17.26976633285132
 30
0.0
 10
-0.5029295273386972
 20
17.26976633285132
 30
0.0
1001
ACAD
1000
DSTYLE
1002
{
1070
     5
1000

1070
    41
1040
0.125
1070
    42
1040
0.25
1070
    43
1040
0.3828125
1070
    44
1040
0.125
1070
    73
1070
     0
1070
    74
1070
     0
1070
    77
1070
     1
1070
   140
1040
0.1875
1070
   141
1040
0.09375
1070
   145
1040
1.0
1070
   270
1070
     4
1070
   271
1070
     5
1070
   272
1070
     5
1070
   273
1070
     4
1070
   287
1070
     5
1002
}
  0
INSERT
  5
225E
330
17
100
AcDbEntity
  8
0
100
AcDbBlockReference
  2
Kawneer Logo English
 10
-8.822498266376307
 20
-3.520862690213913
 30
0.0
 41
5.337
 42
5.337
 43
5.337
  0
ENDSEC
  0
SECTION
  2
OBJECTS
  0
DICTIONARY
  5
C
330
0
100
AcDbDictionary
281
     1
  3
ACAD_CIP_PREVIOUS_PRODUCT_INFO
350
112D
  3
ACAD_COLOR
350
1090
  3
ACAD_FIELDLIST
350
1151
  3
ACAD_GROUP
350
D
  3
ACAD_LAYOUT
350
102D
  3
ACAD_MATERIAL
350
105E
  3
ACAD_MLEADERSTYLE
350
10A5
  3
ACAD_MLINESTYLE
350
1A
  3
ACAD_PLOTSETTINGS
350
102E
  3
ACAD_PLOTSTYLENAME
350
102B
  3
ACAD_SCALELIST
350
1093
  3
ACAD_TABLESTYLE
350
1091
  3
ACAD_VISUALSTYLE
350
1077
  3
ACDB_RECOMPOSE_DATA
350
22BB
  3
ACDBVARIABLEDICTIONARY
350
24
  3
DWGPROPS
350
22BC
  0
DICTIONARY
  5
10E8
330
8
100
AcDbDictionary
280
     1
281
     1
  0
DICTIONARY
  5
10C4
330
2
100
AcDbDictionary
280
     1
281
     1
  3
ACAD_LAYERSTATES
360
10C5
  0
DICTIONARY
  5
10DF
330
E
100
AcDbDictionary
280
     1
281
     1
  3
ADSK_XREC_LAYER_RECONCILED
360
10E0
  0
DICTIONARY
  5
10E1
330
1E
100
AcDbDictionary
280
     1
281
     1
  3
ADSK_XREC_LAYER_RECONCILED
360
10E2
  0
DICTIONARY
  5
1142
330
1141
100
AcDbDictionary
280
     1
281
     1
  0
DICTIONARY
  5
125C
330
125B
100
AcDbDictionary
280
     1
281
     1
  0
DICTIONARY
  5
1059
330
17
100
AcDbDictionary
280
     1
281
     1
  3
ACAD_LAYOUTSELFREF
360
105A
  3
ACAD_SORTENTS
360
1A74
  0
DICTIONARY
  5
1057
330
14
100
AcDbDictionary
280
     1
281
     1
  3
ACAD_LAYOUTSELFREF
360
1058
  0
DICTIONARY
  5
225A
330
2250
100
AcDbDictionary
280
     1
281
     1
  3
ACAD_SORTENTS
360
225B
  0
DICTIONARY
  5
22B9
330
2251
100
AcDbDictionary
280
     1
281
     1
  3
ACAD_MTEXT_2008_RT
360
22BA
  0
DICTIONARY
  5
1154
330
1153
100
AcDbDictionary
280
     1
281
     1
  0
XRECORD
  5
112D
102
{ACAD_REACTORS
330
C
102
}
330
C
100
AcDbXrecord
280
     1
300
ACD
300
2012
300
85730ACD_2012_0F
  0
DICTIONARY
  5
1090
102
{ACAD_REACTORS
330
C
102
}
330
C
100
AcDbDictionary
281
     1
  0
FIELDLIST
  5
1151
102
{ACAD_REACTORS
330
C
102
}
330
C
100
AcDbIdSet
 90
        0
100
AcDbFieldList
  0
DICTIONARY
  5
D
102
{ACAD_REACTORS
330
C
102
}
330
C
100
AcDbDictionary
281
     1
  0
DICTIONARY
  5
102D
102
{ACAD_REACTORS
330
C
102
}
330
C
100
AcDbDictionary
281
     1
  3
Layout1
350
1030
  3
Model
350
102F
  0
DICTIONARY
  5
105E
102
{ACAD_REACTORS
330
C
102
}
330
C
100
AcDbDictionary
281
     1
  3
ByBlock
350
1067
  3
ByLayer
350
105F
  3
Global
350
106F
  0
DICTIONARY
  5
10A5
102
{ACAD_REACTORS
330
C
102
}
330
C
100
AcDbDictionary
281
     1
  3
Standard
350
10A6
  0
DICTIONARY
  5
1A
102
{ACAD_REACTORS
330
C
102
}
330
C
100
AcDbDictionary
281
     1
  3
STANDARD
350
1B
  0
DICTIONARY
  5
102E
102
{ACAD_REACTORS
330
C
102
}
330
C
100
AcDbDictionary
281
     1
  0
ACDBDICTIONARYWDFLT
  5
102B
102
{ACAD_REACTORS
330
C
102
}
330
C
100
AcDbDictionary
281
     1
  3
Normal
350
102C
100
AcDbDictionaryWithDefault
340
102C
  0
DICTIONARY
  5
1093
102
{ACAD_REACTORS
330
C
102
}
330
C
100
AcDbDictionary
281
     1
  3
A0
350
1094
  3
A1
350
222E
  3
A2
350
222F
  3
A3
350
2230
  3
A4
350
2231
  3
A5
350
2232
  3
A6
350
2233
  3
A7
350
2234
  3
A8
350
2235
  3
A9
350
2236
  3
B0
350
2237
  3
B1
350
2238
  3
B2
350
2239
  3
B3
350
223A
  3
B4
350
223B
  3
B5
350
223C
  3
B6
350
223D
  0
DICTIONARY
  5
1091
102
{ACAD_REACTORS
330
C
102
}
330
C
100
AcDbDictionary
281
     1
  3
Standard
350
1092
  0
DICTIONARY
  5
1077
102
{ACAD_REACTORS
330
C
102
}
330
C
100
AcDbDictionary
281
     1
  3
2dWireframe
350
107D
  3
3D Hidden
350
224E
  3
3dWireframe
350
224F
  3
Basic
350
107C
  3
Brighten
350
1083
  3
ColorChange
350
1087
  3
Conceptual
350
1080
  3
Dim
350
1082
  3
EdgeColorOff
350
108F
  3
Facepattern
350
1086
  3
Flat
350
1078
  3
FlatWithEdges
350
1079
  3
Gouraud
350
107A
  3
GouraudWithEdges
350
107B
  3
Hidden
350
107F
  3
JitterOff
350
108D
  3
Linepattern
350
1085
  3
OverhangOff
350
108E
  3
Realistic
350
1081
  3
Shaded
350
108C
  3
Shaded with edges
350
108B
  3
Shades of Gray
350
1088
  3
Sketchy
350
1089
  3
Thicken
350
1084
  3
Wireframe
350
107E
  3
X-Ray
350
108A
  0
XRECORD
  5
22BB
102
{ACAD_REACTORS
330
C
102
}
330
C
100
AcDbXrecord
280
     1
 90
        1
330
1092
330
1153
330
2251
  0
DICTIONARY
  5
24
102
{ACAD_REACTORS
330
C
102
}
330
C
100
AcDbDictionary
281
     1
  3
CANNOSCALE
350
1125
  3
CMLEADERSTYLE
350
1124
  3
CTABLESTYLE
350
1123
  3
DIMADEC
350
25
  3
DIMASSOC
350
1128
  3
INDEXCTL
350
1127
  3
LAYEREVAL
350
22AB
  3
LAYERNOTIFY
350
22AC
  3
LIGHTINGUNITS
350
22AA
  3
MSLTSCALE
350
22A9
  3
SORTENTS
350
1126
  3
XCLIPFRAME
350
22B7
  0
XRECORD
  5
22BC
102
{ACAD_REACTORS
330
C
102
}
330
C
100
AcDbXrecord
280
     1
  1
DWGPROPS COOKIE
  2

  3

  4

  6

  7

  8
quadiss
  9

300
=
301
=
302
=
303
=
304
=
305
=
306
=
307
=
308
=
309
=
 40
0.1513267939814815
 41
2450140.523167593
 42
2457809.479790209
  1

 90
        0
  0
DICTIONARY
  5
10C5
102
{ACAD_REACTORS
330
10C4
102
}
330
10C4
100
AcDbDictionary
281
     1
  0
XRECORD
  5
10E0
102
{ACAD_REACTORS
330
10DF
102
}
330
10DF
100
AcDbXrecord
280
     1
290
     1
  0
XRECORD
  5
10E2
102
{ACAD_REACTORS
330
10E1
102
}
330
10E1
100
AcDbXrecord
280
     1
290
     1
  0
XRECORD
  5
105A
102
{ACAD_REACTORS
330
1059
102
}
330
1059
100
AcDbXrecord
280
     1
340
17
  0
SORTENTSTABLE
  5
1A74
102
{ACAD_REACTORS
330
1059
102
}
330
1059
100
AcDbSortentsTable
330
17
331
C82
  5
C82
331
E7D
  5
E7D
331
151C
  5
151C
331
19A
  5
19A
331
14DD
  5
14DD
331
1518
  5
1518
331
176F
  5
176F
331
14D9
  5
14D9
331
176B
  5
176B
331
1514
  5
1514
331
13B2
  5
13B2
331
1510
  5
1510
331
F73
  5
F73
331
1001
  5
1001
331
FFD
  5
FFD
331
FF9
  5
FF9
331
17AF
  5
17AF
331
17AB
  5
17AB
331
17A7
  5
17A7
331
17A3
  5
17A3
331
12DF
  5
12DF
331
12DB
  5
12DB
331
14D5
  5
14D5
331
13AE
  5
13AE
331
1767
  5
1767
331
D55
  5
D55
331
14D1
  5
14D1
331
13AA
  5
13AA
331
150C
  5
150C
331
1763
  5
1763
331
D51
  5
D51
331
14CD
  5
14CD
331
1508
  5
1508
331
175F
  5
175F
331
13A6
  5
13A6
331
14C9
  5
14C9
331
175B
  5
175B
331
1504
  5
1504
331
13A2
  5
13A2
331
1500
  5
1500
331
F4F
  5
F4F
331
FF1
  5
FF1
331
FED
  5
FED
331
FE9
  5
FE9
331
179F
  5
179F
331
179B
  5
179B
331
12D7
  5
12D7
331
1797
  5
1797
331
12D3
  5
12D3
331
1793
  5
1793
331
12CF
  5
12CF
331
12CB
  5
12CB
331
D49
  5
D49
331
14C5
  5
14C5
331
139E
  5
139E
331
1757
  5
1757
331
D45
  5
D45
331
14C1
  5
14C1
331
139A
  5
139A
331
14FC
  5
14FC
331
1753
  5
1753
331
D41
  5
D41
331
14BD
  5
14BD
331
14F8
  5
14F8
331
174F
  5
174F
331
1396
  5
1396
331
14B9
  5
14B9
331
174B
  5
174B
331
14F4
  5
14F4
331
1392
  5
1392
331
14F0
  5
14F0
331
F96
  5
F96
331
EA3
  5
EA3
331
F92
  5
F92
331
F8E
  5
F8E
331
FE1
  5
FE1
331
E93
  5
E93
331
FDD
  5
FDD
331
178F
  5
178F
331
178B
  5
178B
331
12C7
  5
12C7
331
1787
  5
1787
331
12C3
  5
12C3
331
1783
  5
1783
331
12BF
  5
12BF
331
12BB
  5
12BB
331
11C4
  5
11C4
331
D39
  5
D39
331
14B5
  5
14B5
331
138E
  5
138E
331
14B1
  5
14B1
331
14EC
  5
14EC
331
138A
  5
138A
331
14E8
  5
14E8
331
1523
  5
1523
331
14E4
  5
14E4
331
12E2
  5
12E2
331
14E0
  5
14E0
331
E8F
  5
E8F
331
FCD
  5
FCD
331
1024
  5
1024
331
E8B
  5
E8B
331
FC9
  5
FC9
331
E83
  5
E83
331
FC5
  5
FC5
331
1018
  5
1018
331
18EE
  5
18EE
331
177F
  5
177F
331
177B
  5
177B
331
12B7
  5
12B7
331
1777
  5
1777
331
12B3
  5
12B3
331
1773
  5
1773
331
17B2
  5
17B2
331
12AF
  5
12AF
331
1160
  5
1160
331
10D5
  5
10D5
331
12AB
  5
12AB
331
C81
  5
C81
331
E7C
  5
E7C
331
151F
  5
151F
331
151B
  5
151B
331
14DC
  5
14DC
331
176E
  5
176E
331
1517
  5
1517
331
14D8
  5
14D8
331
176A
  5
176A
331
1513
  5
1513
331
F76
  5
F76
331
F72
  5
F72
331
1004
  5
1004
331
1000
  5
1000
331
FFC
  5
FFC
331
FB9
  5
FB9
331
17AE
  5
17AE
331
12A7
  5
12A7
331
17AA
  5
17AA
331
12A3
  5
12A3
331
17A6
  5
17A6
331
12DE
  5
12DE
331
17A2
  5
17A2
331
12DA
  5
12DA
331
D54
  5
D54
331
14D4
  5
14D4
331
13AD
  5
13AD
331
150F
  5
150F
331
1766
  5
1766
331
14D0
  5
14D0
331
13A9
  5
13A9
331
150B
  5
150B
331
1762
  5
1762
331
14CC
  5
14CC
331
175E
  5
175E
331
1507
  5
1507
331
13A5
  5
13A5
331
14C8
  5
14C8
331
175A
  5
175A
331
1503
  5
1503
331
13A1
  5
13A1
331
F4A
  5
F4A
331
F26
  5
F26
331
FF0
  5
FF0
331
FEC
  5
FEC
331
179E
  5
179E
331
12D6
  5
12D6
331
179A
  5
179A
331
12D2
  5
12D2
331
1796
  5
1796
331
12CE
  5
12CE
331
1792
  5
1792
331
12CA
  5
12CA
331
D48
  5
D48
331
D44
  5
D44
331
14C4
  5
14C4
331
139D
  5
139D
331
14FF
  5
14FF
331
1756
  5
1756
331
D40
  5
D40
331
14C0
  5
14C0
331
1399
  5
1399
331
14FB
  5
14FB
331
1752
  5
1752
331
14BC
  5
14BC
331
174E
  5
174E
331
14F7
  5
14F7
331
1395
  5
1395
331
14B8
  5
14B8
331
174A
  5
174A
331
14F3
  5
14F3
331
1391
  5
1391
331
F95
  5
F95
331
EA2
  5
EA2
331
F91
  5
F91
331
F8D
  5
F8D
331
FE0
  5
FE0
331
E92
  5
E92
331
178E
  5
178E
331
12C6
  5
12C6
331
178A
  5
178A
331
12C2
  5
12C2
331
1786
  5
1786
331
12BE
  5
12BE
331
1782
  5
1782
331
12BA
  5
12BA
331
D38
  5
D38
331
14B4
  5
14B4
331
14EF
  5
14EF
331
138D
  5
138D
331
14B0
  5
14B0
331
14EB
  5
14EB
331
14E7
  5
14E7
331
1522
  5
1522
331
14E3
  5
14E3
331
12E1
  5
12E1
331
1027
  5
1027
331
E8E
  5
E8E
331
FCC
  5
FCC
331
1023
  5
1023
331
FC8
  5
FC8
331
101B
  5
101B
331
E82
  5
E82
331
177E
  5
177E
331
12B6
  5
12B6
331
177A
  5
177A
331
12B2
  5
12B2
331
1776
  5
1776
331
17B1
  5
17B1
331
12AE
  5
12AE
331
1772
  5
1772
331
12AA
  5
12AA
331
1153
  5
1153
331
E7B
  5
E7B
331
151E
  5
151E
331
14DF
  5
14DF
331
151A
  5
151A
331
14DB
  5
14DB
331
176D
  5
176D
331
1516
  5
1516
331
1769
  5
1769
331
1512
  5
1512
331
F75
  5
F75
331
1003
  5
1003
331
FFF
  5
FFF
331
FB8
  5
FB8
331
F51
  5
F51
331
17AD
  5
17AD
331
17A9
  5
17A9
331
12A6
  5
12A6
331
17A5
  5
17A5
331
17A1
  5
17A1
331
12DD
  5
12DD
331
12D9
  5
12D9
331
D5B
  5
D5B
331
14D7
  5
14D7
331
D53
  5
D53
331
14D3
  5
14D3
331
13AC
  5
13AC
331
150E
  5
150E
331
1765
  5
1765
331
14CF
  5
14CF
331
13A8
  5
13A8
331
150A
  5
150A
331
1761
  5
1761
331
14CB
  5
14CB
331
175D
  5
175D
331
1506
  5
1506
331
13A4
  5
13A4
331
1759
  5
1759
331
1502
  5
1502
331
13A0
  5
13A0
331
F49
  5
F49
331
FEF
  5
FEF
331
179D
  5
179D
331
1799
  5
1799
331
12D5
  5
12D5
331
1795
  5
1795
331
12D1
  5
12D1
331
1791
  5
1791
331
12CD
  5
12CD
331
12C9
  5
12C9
331
D47
  5
D47
331
14C7
  5
14C7
331
D43
  5
D43
331
14C3
  5
14C3
331
139C
  5
139C
331
14FE
  5
14FE
331
1755
  5
1755
331
14BF
  5
14BF
331
1398
  5
1398
331
14FA
  5
14FA
331
1751
  5
1751
331
14BB
  5
14BB
331
174D
  5
174D
331
14F6
  5
14F6
331
1394
  5
1394
331
1749
  5
1749
331
14F2
  5
14F2
331
1390
  5
1390
331
EA1
  5
EA1
331
F90
  5
F90
331
E95
  5
E95
331
FDF
  5
FDF
331
E91
  5
E91
331
1AFC
  5
19FC
331
178D
  5
178D
331
1789
  5
1789
331
12C5
  5
12C5
331
1785
  5
1785
331
12C1
  5
12C1
331
1781
  5
1781
331
12BD
  5
12BD
331
12B9
  5
12B9
331
14B7
  5
14B7
331
C9B
  5
C9B
331
14B3
  5
14B3
331
138C
  5
138C
331
14EE
  5
14EE
331
161D
  5
161D
331
14EA
  5
14EA
331
14E6
  5
14E6
331
12E4
  5
12E4
331
1521
  5
1521
331
14E2
  5
14E2
331
12E0
  5
12E0
331
F84
  5
F84
331
E8D
  5
E8D
331
FCF
  5
FCF
331
1026
  5
1026
331
FCB
  5
FCB
331
FC7
  5
FC7
331
101A
  5
101A
331
FC3
  5
FC3
331
E81
  5
E81
331
F78
  5
F78
331
177D
  5
177D
331
1779
  5
1779
331
12B5
  5
12B5
331
17B4
  5
17B4
331
1775
  5
1775
331
12B1
  5
12B1
331
17B0
  5
17B0
331
1771
  5
1771
331
12AD
  5
12AD
331
12A9
  5
12A9
331
151D
  5
151D
331
E7A
  5
E7A
331
14DE
  5
14DE
331
1519
  5
1519
331
14DA
  5
14DA
331
176C
  5
176C
331
1515
  5
1515
331
1768
  5
1768
331
1511
  5
1511
331
F74
  5
F74
331
1002
  5
1002
331
FFE
  5
FFE
331
FFA
  5
FFA
331
F50
  5
F50
331
17AC
  5
17AC
331
17A8
  5
17A8
331
12A5
  5
12A5
331
17A4
  5
17A4
331
17A0
  5
17A0
331
12DC
  5
12DC
331
12D8
  5
12D8
331
D5A
  5
D5A
331
14D6
  5
14D6
331
13AF
  5
13AF
331
14D2
  5
14D2
331
13AB
  5
13AB
331
150D
  5
150D
331
1764
  5
1764
331
D52
  5
D52
331
14CE
  5
14CE
331
1509
  5
1509
331
1760
  5
1760
331
13A7
  5
13A7
331
14CA
  5
14CA
331
175C
  5
175C
331
1505
  5
1505
331
13A3
  5
13A3
331
1758
  5
1758
331
FB7
  5
FB7
331
1501
  5
1501
331
FEE
  5
FEE
331
FEA
  5
FEA
331
179C
  5
179C
331
1798
  5
1798
331
12D4
  5
12D4
331
1794
  5
1794
331
12D0
  5
12D0
331
1790
  5
1790
331
12CC
  5
12CC
331
12C8
  5
12C8
331
D4A
  5
D4A
331
14C6
  5
14C6
331
139F
  5
139F
331
D46
  5
D46
331
14C2
  5
14C2
331
139B
  5
139B
331
14FD
  5
14FD
331
1754
  5
1754
331
D42
  5
D42
331
14BE
  5
14BE
331
14F9
  5
14F9
331
1750
  5
1750
331
1397
  5
1397
331
14BA
  5
14BA
331
174C
  5
174C
331
14F5
  5
14F5
331
1393
  5
1393
331
1748
  5
1748
331
14F1
  5
14F1
331
F93
  5
F93
331
EA0
  5
EA0
331
F8F
  5
F8F
331
E94
  5
E94
331
FDE
  5
FDE
331
E90
  5
E90
331
178C
  5
178C
331
1788
  5
1788
331
12C4
  5
12C4
331
1784
  5
1784
331
12C0
  5
12C0
331
1780
  5
1780
331
12BC
  5
12BC
331
11C5
  5
11C5
331
12B8
  5
12B8
331
14B6
  5
14B6
331
138F
  5
138F
331
14B2
  5
14B2
331
14ED
  5
14ED
331
138B
  5
138B
331
C9A
  5
C9A
331
14E9
  5
14E9
331
12E3
  5
12E3
331
14E5
  5
14E5
331
1524
  5
1524
331
F87
  5
F87
331
14E1
  5
14E1
331
1520
  5
1520
331
FCE
  5
FCE
331
E8C
  5
E8C
331
FCA
  5
FCA
331
E84
  5
E84
331
FC6
  5
FC6
331
FC2
  5
FC2
331
1019
  5
1019
331
E80
  5
E80
331
177C
  5
177C
331
1778
  5
1778
331
12B4
  5
12B4
331
17B3
  5
17B3
331
1774
  5
1774
331
12B0
  5
12B0
331
1770
  5
1770
331
12AC
  5
12AC
331
12A8
  5
12A8
  0
XRECORD
  5
1058
102
{ACAD_REACTORS
330
1057
102
}
330
1057
100
AcDbXrecord
280
     1
340
14
  0
SORTENTSTABLE
  5
225B
102
{ACAD_REACTORS
330
225A
102
}
330
225A
100
AcDbSortentsTable
330
2250
  0
XRECORD
  5
22BA
102
{ACAD_REACTORS
330
22B9
102
}
330
22B9
100
AcDbXrecord
280
     1
 40
102645.0
  1
\pxqr;{\fArial TUR|b0|i0|c0|p34;\T1.05;AN ARCONIC COMPANY}
  0
LAYOUT
  5
1030
102
{ACAD_XDICTIONARY
360
22BF
102
}
102
{ACAD_REACTORS
330
102D
102
}
330
102D
100
AcDbPlotSettings
  1

  2
HP LaserJet 4MV
  4

  6

 40
0.0
 41
0.0
 42
0.0
 43
0.0
 44
0.0
 45
0.0
 46
0.0
 47
0.0
 48
0.0
 49
0.0
140
0.0
141
0.0
142
1.0
143
1.0
 70
   688
 72
     0
 73
     0
 74
     5
  7

 75
    16
147
1.0
148
0.0
149
0.0
100
AcDbLayout
  1
Layout1
 70
     1
 71
     1
 10
0.0
 20
0.0
 11
12.0
 21
9.0
 12
0.0
 22
0.0
 32
0.0
 14
1.000000000000000E+20
 24
1.000000000000000E+20
 34
1.000000000000000E+20
 15
-1.000000000000000E+20
 25
-1.000000000000000E+20
 35
-1.000000000000000E+20
146
0.0
 13
0.0
 23
0.0
 33
0.0
 16
1.0
 26
0.0
 36
0.0
 17
0.0
 27
1.0
 37
0.0
 76
     0
330
14
  0
LAYOUT
  5
102F
102
{ACAD_XDICTIONARY
360
22BD
102
}
102
{ACAD_REACTORS
330
102D
102
}
330
102D
100
AcDbPlotSettings
  1

  2
HP LaserJet 4MV
  4

  6

 40
0.0
 41
0.0
 42
0.0
 43
0.0
 44
0.0
 45
0.0
 46
0.0
 47
0.0
 48
0.0
 49
0.0
140
0.0
141
0.0
142
1.0
143
1.0
 70
  1712
 72
     0
 73
     0
 74
     0
  7

 75
     0
147
1.0
148
0.0
149
0.0
100
AcDbLayout
  1
Model
 70
     1
 71
     0
 10
0.0
 20
0.0
 11
12.0
 21
9.0
 12
0.0
 22
0.0
 32
0.0
 14
0.0
 24
0.0
 34
0.0
 15
0.0
 25
0.0
 35
0.0
146
0.0
 13
0.0
 23
0.0
 33
0.0
 16
1.0
 26
0.0
 36
0.0
 17
0.0
 27
1.0
 37
0.0
 76
     0
330
17
331
1033
  0
MATERIAL
  5
1067
102
{ACAD_XDICTIONARY
360
1068
102
}
102
{ACAD_REACTORS
330
105E
102
}
330
105E
100
AcDbMaterial
  1
ByBlock
 72
     0
 43
0.0208333333333333
 43
0.0
 43
0.0
 43
0.0
 43
0.0
 43
0.0208333333333333
 43
0.0
 43
0.0
 43
0.0
 43
0.0
 43
1.0
 43
0.0
 43
0.0
 43
0.0
 43
0.0
 43
1.0
 77
     0
 47
0.0208333333333333
 47
0.0
 47
0.0
 47
0.0
 47
0.0
 47
0.0208333333333333
 47
0.0
 47
0.0
 47
0.0
 47
0.0
 47
1.0
 47
0.0
 47
0.0
 47
0.0
 47
0.0
 47
1.0
171
     0
 49
0.0208333333333333
 49
0.0
 49
0.0
 49
0.0
 49
0.0
 49
0.0208333333333333
 49
0.0
 49
0.0
 49
0.0
 49
0.0
 49
1.0
 49
0.0
 49
0.0
 49
0.0
 49
0.0
 49
1.0
175
     0
142
0.0208333333333333
142
0.0
142
0.0
142
0.0
142
0.0
142
0.0208333333333333
142
0.0
142
0.0
142
0.0
142
0.0
142
1.0
142
0.0
142
0.0
142
0.0
142
0.0
142
1.0
179
     0
144
0.0208333333333333
144
0.0
144
0.0
144
0.0
144
0.0
144
0.0208333333333333
144
0.0
144
0.0
144
0.0
144
0.0
144
1.0
144
0.0
144
0.0
144
0.0
144
0.0
144
1.0
147
0.0208333333333333
147
0.0
147
0.0
147
0.0
147
0.0
147
0.0208333333333333
147
0.0
147
0.0
147
0.0
147
0.0
147
1.0
147
0.0
147
0.0
147
0.0
147
0.0
147
1.0
  0
MATERIAL
  5
105F
102
{ACAD_XDICTIONARY
360
1060
102
}
102
{ACAD_REACTORS
330
105E
102
}
330
105E
100
AcDbMaterial
  1
ByLayer
 72
     0
 43
0.0208333333333333
 43
0.0
 43
0.0
 43
0.0
 43
0.0
 43
0.0208333333333333
 43
0.0
 43
0.0
 43
0.0
 43
0.0
 43
1.0
 43
0.0
 43
0.0
 43
0.0
 43
0.0
 43
1.0
 77
     0
 47
0.0208333333333333
 47
0.0
 47
0.0
 47
0.0
 47
0.0
 47
0.0208333333333333
 47
0.0
 47
0.0
 47
0.0
 47
0.0
 47
1.0
 47
0.0
 47
0.0
 47
0.0
 47
0.0
 47
1.0
171
     0
 49
0.0208333333333333
 49
0.0
 49
0.0
 49
0.0
 49
0.0
 49
0.0208333333333333
 49
0.0
 49
0.0
 49
0.0
 49
0.0
 49
1.0
 49
0.0
 49
0.0
 49
0.0
 49
0.0
 49
1.0
175
     0
142
0.0208333333333333
142
0.0
142
0.0
142
0.0
142
0.0
142
0.0208333333333333
142
0.0
142
0.0
142
0.0
142
0.0
142
1.0
142
0.0
142
0.0
142
0.0
142
0.0
142
1.0
179
     0
144
0.0208333333333333
144
0.0
144
0.0
144
0.0
144
0.0
144
0.0208333333333333
144
0.0
144
0.0
144
0.0
144
0.0
144
1.0
144
0.0
144
0.0
144
0.0
144
0.0
144
1.0
147
0.0208333333333333
147
0.0
147
0.0
147
0.0
147
0.0
147
0.0208333333333333
147
0.0
147
0.0
147
0.0
147
0.0
147
1.0
147
0.0
147
0.0
147
0.0
147
0.0
147
1.0
  0
MATERIAL
  5
106F
102
{ACAD_XDICTIONARY
360
1070
102
}
102
{ACAD_REACTORS
330
105E
102
}
330
105E
100
AcDbMaterial
  1
Global
 72
     0
 43
0.0208333333333333
 43
0.0
 43
0.0
 43
0.0
 43
0.0
 43
0.0208333333333333
 43
0.0
 43
0.0
 43
0.0
 43
0.0
 43
1.0
 43
0.0
 43
0.0
 43
0.0
 43
0.0
 43
1.0
 77
     0
 47
0.0208333333333333
 47
0.0
 47
0.0
 47
0.0
 47
0.0
 47
0.0208333333333333
 47
0.0
 47
0.0
 47
0.0
 47
0.0
 47
1.0
 47
0.0
 47
0.0
 47
0.0
 47
0.0
 47
1.0
171
     0
 49
0.0208333333333333
 49
0.0
 49
0.0
 49
0.0
 49
0.0
 49
0.0208333333333333
 49
0.0
 49
0.0
 49
0.0
 49
0.0
 49
1.0
 49
0.0
 49
0.0
 49
0.0
 49
0.0
 49
1.0
175
     0
142
0.0208333333333333
142
0.0
142
0.0
142
0.0
142
0.0
142
0.0208333333333333
142
0.0
142
0.0
142
0.0
142
0.0
142
1.0
142
0.0
142
0.0
142
0.0
142
0.0
142
1.0
179
     0
144
0.0208333333333333
144
0.0
144
0.0
144
0.0
144
0.0
144
0.0208333333333333
144
0.0
144
0.0
144
0.0
144
0.0
144
1.0
144
0.0
144
0.0
144
0.0
144
0.0
144
1.0
147
0.0208333333333333
147
0.0
147
0.0
147
0.0
147
0.0
147
0.0208333333333333
147
0.0
147
0.0
147
0.0
147
0.0
147
1.0
147
0.0
147
0.0
147
0.0
147
0.0
147
1.0
  0
MLEADERSTYLE
  5
10A6
102
{ACAD_REACTORS
330
10A5
102
}
330
10A5
100
AcDbMLeaderStyle
170
     2
171
     1
172
     0
 90
        2
 40
0.0
 41
0.0
173
     1
 91
-1056964608
340
11
 92
       -2
290
     1
 42
0.09
291
     1
 43
0.36
  3
Standard
 44
0.18
300

342
F
174
     1
178
     6
175
     1
176
     0
 93
-1056964608
 45
0.18
292
     0
297
     0
 46
0.18
 94
-1056964608
 47
1.0
 49
1.0
140
1.0
293
     1
141
0.0
294
     1
177
     0
142
1.0
295
     0
296
     0
143
0.125
1001
ACAD_MLEADERVER
1070
     2
  0
MLINESTYLE
  5
1B
102
{ACAD_REACTORS
330
1A
102
}
330
1A
100
AcDbMlineStyle
  2
STANDARD
 70
     0
  3

 62
   256
 51
90.0
 52
90.0
 71
     2
 49
0.5
 62
   256
  6
BYLAYER
 49
-0.5
 62
   256
  6
BYLAYER
  0
ACDBPLACEHOLDER
  5
102C
102
{ACAD_REACTORS
330
102B
102
}
330
102B
  0
SCALE
  5
1094
102
{ACAD_REACTORS
330
1093
102
}
330
1093
100
AcDbScale
 70
     0
300
1:1
140
1.0
141
1.0
290
     1
  0
SCALE
  5
222E
102
{ACAD_REACTORS
330
1093
102
}
330
1093
100
AcDbScale
 70
     0
300
1/128" = 1'-0"
140
0.0078125
141
12.0
290
     0
  0
SCALE
  5
222F
102
{ACAD_REACTORS
330
1093
102
}
330
1093
100
AcDbScale
 70
     0
300
1/64" = 1'-0"
140
0.015625
141
12.0
290
     0
  0
SCALE
  5
2230
102
{ACAD_REACTORS
330
1093
102
}
330
1093
100
AcDbScale
 70
     0
300
1/32" = 1'-0"
140
0.03125
141
12.0
290
     0
  0
SCALE
  5
2231
102
{ACAD_REACTORS
330
1093
102
}
330
1093
100
AcDbScale
 70
     0
300
1/16" = 1'-0"
140
0.0625
141
12.0
290
     0
  0
SCALE
  5
2232
102
{ACAD_REACTORS
330
1093
102
}
330
1093
100
AcDbScale
 70
     0
300
3/32" = 1'-0"
140
0.09375
141
12.0
290
     0
  0
SCALE
  5
2233
102
{ACAD_REACTORS
330
1093
102
}
330
1093
100
AcDbScale
 70
     0
300
1/8" = 1'-0"
140
0.125
141
12.0
290
     0
  0
SCALE
  5
2234
102
{ACAD_REACTORS
330
1093
102
}
330
1093
100
AcDbScale
 70
     0
300
3/16" = 1'-0"
140
0.1875
141
12.0
290
     0
  0
SCALE
  5
2235
102
{ACAD_REACTORS
330
1093
102
}
330
1093
100
AcDbScale
 70
     0
300
1/4" = 1'-0"
140
0.25
141
12.0
290
     0
  0
SCALE
  5
2236
102
{ACAD_REACTORS
330
1093
102
}
330
1093
100
AcDbScale
 70
     0
300
3/8" = 1'-0"
140
0.375
141
12.0
290
     0
  0
SCALE
  5
2237
102
{ACAD_REACTORS
330
1093
102
}
330
1093
100
AcDbScale
 70
     0
300
1/2" = 1'-0"
140
0.5
141
12.0
290
     0
  0
SCALE
  5
2238
102
{ACAD_REACTORS
330
1093
102
}
330
1093
100
AcDbScale
 70
     0
300
3/4" = 1'-0"
140
0.75
141
12.0
290
     0
  0
SCALE
  5
2239
102
{ACAD_REACTORS
330
1093
102
}
330
1093
100
AcDbScale
 70
     0
300
1" = 1'-0"
140
1.0
141
12.0
290
     0
  0
SCALE
  5
223A
102
{ACAD_REACTORS
330
1093
102
}
330
1093
100
AcDbScale
 70
     0
300
1-1/2" = 1'-0"
140
1.5
141
12.0
290
     0
  0
SCALE
  5
223B
102
{ACAD_REACTORS
330
1093
102
}
330
1093
100
AcDbScale
 70
     0
300
3" = 1'-0"
140
3.0
141
12.0
290
     0
  0
SCALE
  5
223C
102
{ACAD_REACTORS
330
1093
102
}
330
1093
100
AcDbScale
 70
     0
300
6" = 1'-0"
140
6.0
141
12.0
290
     0
  0
SCALE
  5
223D
102
{ACAD_REACTORS
330
1093
102
}
330
1093
100
AcDbScale
 70
     0
300
1'-0" = 1'-0"
140
12.0
141
12.0
290
     0
  0
TABLESTYLE
  5
1092
102
{ACAD_XDICTIONARY
360
10E4
102
}
102
{ACAD_REACTORS
330
1091
102
}
330
1091
100
AcDbTableStyle
  3
Standard
 70
     0
 71
     0
 40
0.06
 41
0.06
280
     0
281
     0
  7
STANDARD
140
0.18
170
     2
 62
     0
 63
     7
283
     0
274
    -2
284
     1
 64
     0
275
    -2
285
     1
 65
     0
276
    -2
286
     1
 66
     0
277
    -2
287
     1
 67
     0
278
    -2
288
     1
 68
     0
279
    -2
289
     1
 69
     0
  7
STANDARD
140
0.25
170
     5
 62
     0
 63
     7
283
     0
274
    -2
284
     1
 64
     0
275
    -2
285
     1
 65
     0
276
    -2
286
     1
 66
     0
277
    -2
287
     1
 67
     0
278
    -2
288
     1
 68
     0
279
    -2
289
     1
 69
     0
  7
STANDARD
140
0.18
170
     5
 62
     0
 63
     7
283
     0
274
    -2
284
     1
 64
     0
275
    -2
285
     1
 65
     0
276
    -2
286
     1
 66
     0
277
    -2
287
     1
 67
     0
278
    -2
288
     1
 68
     0
279
    -2
289
     1
 69
     0
  0
VISUALSTYLE
  5
107D
102
{ACAD_XDICTIONARY
360
22CE
102
}
102
{ACAD_REACTORS
330
1077
102
}
330
1077
100
AcDbVisualStyle
  2
2dWireframe
 70
     4
 71
     0
 72
     2
 73
     0
 90
        0
 40
-0.6
 41
-30.0
 62
     5
 63
     7
 74
     1
 91
        4
 64
     7
 65
   257
 75
     1
175
     1
 42
1.0
 92
        0
 66
   257
 43
1.0
 76
     1
 77
     6
 78
     2
 67
     7
 79
     5
170
     0
171
     0
290
     0
174
     0
 93
        1
 44
0.0
173
     0
291
     0
 45
0.0
1001
ACAD
1000
AcDbSavedByObjectVersion
1070
     0
  0
VISUALSTYLE
  5
224E
102
{ACAD_XDICTIONARY
360
22F5
102
}
102
{ACAD_REACTORS
330
1077
102
}
330
1077
100
AcDbVisualStyle
  2
3D Hidden
 70
     6
 71
     1
 72
     2
 73
     2
 90
        0
 40
-0.6
 41
-30.0
 62
     5
 63
     7
 74
     2
 91
        2
 64
     7
 65
   257
 75
     2
175
     1
 42
40.0
 92
        0
 66
   257
 43
1.0
 76
     1
 77
     6
 78
     2
 67
     7
 79
     3
170
     0
171
     0
290
     0
174
     0
 93
        1
 44
0.0
173
     0
291
     0
 45
0.0
1001
ACAD
1000
AcDbSavedByObjectVersion
1070
     0
  0
VISUALSTYLE
  5
224F
102
{ACAD_XDICTIONARY
360
22F7
102
}
102
{ACAD_REACTORS
330
1077
102
}
330
1077
100
AcDbVisualStyle
  2
3dWireframe
 70
     5
 71
     0
 72
     2
 73
     0
 90
        0
 40
-0.6
 41
-30.0
 62
     5
 63
     7
 74
     1
 91
        4
 64
     7
 65
   257
 75
     1
175
     1
 42
1.0
 92
        0
 66
   257
 43
1.0
 76
     1
 77
     6
 78
     2
 67
     7
 79
     5
170
     0
171
     0
290
     0
174
     0
 93
        1
 44
0.0
173
     0
291
     0
 45
0.0
1001
ACAD
1000
AcDbSavedByObjectVersion
1070
     0
  0
VISUALSTYLE
  5
107C
102
{ACAD_XDICTIONARY
360
22CC
102
}
102
{ACAD_REACTORS
330
1077
102
}
330
1077
100
AcDbVisualStyle
  2
Basic
 70
     7
 71
     1
 72
     0
 73
     1
 90
        0
 40
-0.6
 41
-30.0
 62
     5
 63
     7
 74
     0
 91
        4
 64
     7
 65
   257
 75
     1
175
     1
 42
1.0
 92
        8
 66
     7
 43
1.0
 76
     1
 77
     6
 78
     2
 67
     7
 79
     5
170
     0
171
     0
290
     0
174
     0
 93
        1
 44
0.0
173
     0
291
     1
 45
0.0
1001
ACAD
1000
AcDbSavedByObjectVersion
1070
     0
  0
VISUALSTYLE
  5
1083
102
{ACAD_XDICTIONARY
360
22DA
102
}
102
{ACAD_REACTORS
330
1077
102
}
330
1077
100
AcDbVisualStyle
  2
Brighten
 70
    12
 71
     2
 72
     2
 73
     0
 90
        0
 40
-0.6
 41
-30.0
 62
     5
 63
     7
 74
     1
 91
        4
 64
     7
 65
   257
 75
     1
175
     1
 42
1.0
 92
        8
 66
     7
 43
1.0
 76
     1
 77
     6
 78
     2
 67
     7
 79
     5
170
     0
171
     0
290
     0
174
     0
 93
        1
 44
50.0
173
     0
291
     1
 45
0.0
1001
ACAD
1000
AcDbSavedByObjectVersion
1070
     0
  0
VISUALSTYLE
  5
1087
102
{ACAD_XDICTIONARY
360
22E2
102
}
102
{ACAD_REACTORS
330
1077
102
}
330
1077
100
AcDbVisualStyle
  2
ColorChange
 70
    16
 71
     2
 72
     2
 73
     3
 90
        0
 40
-0.6
 41
-30.0
 62
     5
 63
     8
 74
     1
 91
        4
 64
     7
 65
   257
 75
     1
175
     1
 42
1.0
 92
        8
 66
     8
 43
1.0
 76
     1
 77
     6
 78
     2
 67
     7
 79
     5
170
     0
171
     0
290
     0
174
     0
 93
        1
 44
0.0
173
     0
291
     1
 45
0.0
1001
ACAD
1000
AcDbSavedByObjectVersion
1070
     0
  0
VISUALSTYLE
  5
1080
102
{ACAD_XDICTIONARY
360
22D4
102
}
102
{ACAD_REACTORS
330
1077
102
}
330
1077
100
AcDbVisualStyle
  2
Conceptual
 70
     9
 71
     3
 72
     2
 73
     0
 90
        0
 40
-0.6
 41
-30.0
 62
     5
 63
     7
 74
     2
 91
        2
 64
     7
 65
   257
 75
     1
175
     1
 42
179.0
 92
        8
 66
     7
 43
1.0
 76
     1
 77
     6
 78
     2
 67
     7
 79
     3
170
     0
171
     0
290
     0
174
     0
 93
        1
 44
0.0
173
     0
291
     0
 45
0.0
1001
ACAD
1000
AcDbSavedByObjectVersion
1070
     0
  0
VISUALSTYLE
  5
1082
102
{ACAD_XDICTIONARY
360
22D8
102
}
102
{ACAD_REACTORS
330
1077
102
}
330
1077
100
AcDbVisualStyle
  2
Dim
 70
    11
 71
     2
 72
     2
 73
     0
 90
        0
 40
-0.6
 41
-30.0
 62
     5
 63
     7
 74
     1
 91
        4
 64
     7
 65
   257
 75
     1
175
     1
 42
1.0
 92
        8
 66
     7
 43
1.0
 76
     1
 77
     6
 78
     2
 67
     7
 79
     5
170
     0
171
     0
290
     0
174
     0
 93
        1
 44
-50.0
173
     0
291
     1
 45
0.0
1001
ACAD
1000
AcDbSavedByObjectVersion
1070
     0
  0
VISUALSTYLE
  5
108F
102
{ACAD_XDICTIONARY
360
22F2
102
}
102
{ACAD_REACTORS
330
1077
102
}
330
1077
100
AcDbVisualStyle
  2
EdgeColorOff
 70
    22
 71
     2
 72
     2
 73
     0
 90
        0
 40
-0.6
 41
-30.0
 62
     5
 63
     7
 74
     1
 91
        4
 64
     7
 65
   257
 75
     1
175
     1
 42
1.0
 92
        8
 66
     7
 43
1.0
 76
     1
 77
     6
 78
     2
 67
     7
 79
     5
170
     0
171
     0
290
     0
174
     0
 93
        1
 44
0.0
173
     0
291
     1
 45
0.0
1001
ACAD
1000
AcDbSavedByObjectVersion
1070
     0
  0
VISUALSTYLE
  5
1086
102
{ACAD_XDICTIONARY
360
22E0
102
}
102
{ACAD_REACTORS
330
1077
102
}
330
1077
100
AcDbVisualStyle
  2
Facepattern
 70
    15
 71
     2
 72
     2
 73
     0
 90
        0
 40
-0.6
 41
-30.0
 62
     5
 63
     7
 74
     1
 91
        4
 64
     7
 65
   257
 75
     1
175
     1
 42
1.0
 92
        8
 66
     7
 43
1.0
 76
     1
 77
     6
 78
     2
 67
     7
 79
     5
170
     0
171
     0
290
     0
174
     0
 93
        1
 44
0.0
173
     0
291
     1
 45
0.0
1001
ACAD
1000
AcDbSavedByObjectVersion
1070
     0
  0
VISUALSTYLE
  5
1078
102
{ACAD_XDICTIONARY
360
22C4
102
}
102
{ACAD_REACTORS
330
1077
102
}
330
1077
100
AcDbVisualStyle
  2
Flat
 70
     0
 71
     2
 72
     1
 73
     1
 90
        2
 40
-0.6
 41
30.0
 62
     5
 63
     7
 74
     0
 91
        0
 64
     7
 65
   257
 75
     1
175
     1
 42
1.0
 92
        8
 66
     7
 43
1.0
 76
     1
 77
     6
 78
     2
 67
     7
 79
     5
170
     0
171
     0
290
     0
174
     0
 93
       13
 44
0.0
173
     0
291
     1
 45
0.0
1001
ACAD
1000
AcDbSavedByObjectVersion
1070
     0
  0
VISUALSTYLE
  5
1079
102
{ACAD_XDICTIONARY
360
22C6
102
}
102
{ACAD_REACTORS
330
1077
102
}
330
1077
100
AcDbVisualStyle
  2
FlatWithEdges
 70
     1
 71
     2
 72
     1
 73
     1
 90
        2
 40
-0.6
 41
30.0
 62
     5
 63
     7
 74
     1
 91
        0
 64
     7
 65
   257
 75
     1
175
     1
 42
1.0
 92
        0
 66
   257
 43
1.0
 76
     1
 77
     6
 78
     2
 67
     7
 79
     5
170
     0
171
     0
290
     0
174
     0
 93
       13
 44
0.0
173
     0
291
     1
 45
0.0
1001
ACAD
1000
AcDbSavedByObjectVersion
1070
     0
  0
VISUALSTYLE
  5
107A
102
{ACAD_XDICTIONARY
360
22C8
102
}
102
{ACAD_REACTORS
330
1077
102
}
330
1077
100
AcDbVisualStyle
  2
Gouraud
 70
     2
 71
     2
 72
     2
 73
     1
 90
        2
 40
-0.6
 41
30.0
 62
     5
 63
     7
 74
     0
 91
        0
 64
     7
 65
   257
 75
     1
175
     1
 42
1.0
 92
        0
 66
     7
 43
1.0
 76
     1
 77
     6
 78
     2
 67
     7
 79
     5
170
     0
171
     0
290
     0
174
     0
 93
       13
 44
0.0
173
     0
291
     1
 45
0.0
1001
ACAD
1000
AcDbSavedByObjectVersion
1070
     0
  0
VISUALSTYLE
  5
107B
102
{ACAD_XDICTIONARY
360
22CA
102
}
102
{ACAD_REACTORS
330
1077
102
}
330
1077
100
AcDbVisualStyle
  2
GouraudWithEdges
 70
     3
 71
     2
 72
     2
 73
     1
 90
        2
 40
-0.6
 41
30.0
 62
     5
 63
     7
 74
     1
 91
        0
 64
     7
 65
   257
 75
     1
175
     1
 42
1.0
 92
        0
 66
   257
 43
1.0
 76
     1
 77
     6
 78
     2
 67
     7
 79
     5
170
     0
171
     0
290
     0
174
     0
 93
       13
 44
0.0
173
     0
291
     1
 45
0.0
1001
ACAD
1000
AcDbSavedByObjectVersion
1070
     0
  0
VISUALSTYLE
  5
107F
102
{ACAD_XDICTIONARY
360
22D2
102
}
102
{ACAD_REACTORS
330
1077
102
}
330
1077
100
AcDbVisualStyle
  2
Hidden
 70
     6
 71
     1
 72
     2
 73
     2
 90
        0
 40
-0.6
 41
-30.0
 62
     5
 63
     7
 74
     2
 91
        2
 64
     7
 65
   257
 75
     2
175
     1
 42
40.0
 92
        0
 66
   257
 43
1.0
 76
     1
 77
     6
 78
     2
 67
     7
 79
     3
170
     0
171
     0
290
     0
174
     0
 93
        1
 44
0.0
173
     0
291
     0
 45
0.0
1001
ACAD
1000
AcDbSavedByObjectVersion
1070
     0
  0
VISUALSTYLE
  5
108D
102
{ACAD_XDICTIONARY
360
22EE
102
}
102
{ACAD_REACTORS
330
1077
102
}
330
1077
100
AcDbVisualStyle
  2
JitterOff
 70
    20
 71
     2
 72
     2
 73
     0
 90
        0
 40
-0.6
 41
-30.0
 62
     5
 63
     7
 74
     1
 91
        4
 64
     7
 65
   257
 75
     1
175
     1
 42
1.0
 92
       10
 66
     7
 43
1.0
 76
     1
 77
     6
 78
     2
 67
     7
 79
     5
170
     0
171
     0
290
     0
174
     0
 93
        1
 44
0.0
173
     0
291
     1
 45
0.0
1001
ACAD
1000
AcDbSavedByObjectVersion
1070
     0
  0
VISUALSTYLE
  5
1085
102
{ACAD_XDICTIONARY
360
22DE
102
}
102
{ACAD_REACTORS
330
1077
102
}
330
1077
100
AcDbVisualStyle
  2
Linepattern
 70
    14
 71
     2
 72
     2
 73
     0
 90
        0
 40
-0.6
 41
-30.0
 62
     5
 63
     7
 74
     1
 91
        4
 64
     7
 65
   257
 75
     7
175
     7
 42
1.0
 92
        8
 66
     7
 43
1.0
 76
     1
 77
     6
 78
     2
 67
     7
 79
     5
170
     0
171
     0
290
     0
174
     0
 93
        1
 44
0.0
173
     0
291
     1
 45
0.0
1001
ACAD
1000
AcDbSavedByObjectVersion
1070
     0
  0
VISUALSTYLE
  5
108E
102
{ACAD_XDICTIONARY
360
22F0
102
}
102
{ACAD_REACTORS
330
1077
102
}
330
1077
100
AcDbVisualStyle
  2
OverhangOff
 70
    21
 71
     2
 72
     2
 73
     0
 90
        0
 40
-0.6
 41
-30.0
 62
     5
 63
     7
 74
     1
 91
        4
 64
     7
 65
   257
 75
     1
175
     1
 42
1.0
 92
        9
 66
     7
 43
1.0
 76
     1
 77
     6
 78
     2
 67
     7
 79
     5
170
     0
171
     0
290
     0
174
     0
 93
        1
 44
0.0
173
     0
291
     1
 45
0.0
1001
ACAD
1000
AcDbSavedByObjectVersion
1070
     0
  0
VISUALSTYLE
  5
1081
102
{ACAD_XDICTIONARY
360
22D6
102
}
102
{ACAD_REACTORS
330
1077
102
}
330
1077
100
AcDbVisualStyle
  2
Realistic
 70
     8
 71
     2
 72
     2
 73
     0
 90
        2
 40
-0.6
 41
30.0
 62
     5
 63
     7
 74
     0
 91
        0
 64
     7
 65
   257
 75
     1
175
     1
 42
1.0
 92
        8
 66
   257
 43
1.0
 76
     1
 77
     6
 78
     2
 67
     7
 79
     3
170
     0
171
     0
290
     0
174
     0
 93
       13
 44
0.0
173
     0
291
     0
 45
0.0
1001
ACAD
1000
AcDbSavedByObjectVersion
1070
     0
  0
VISUALSTYLE
  5
108C
102
{ACAD_XDICTIONARY
360
22EC
102
}
102
{ACAD_REACTORS
330
1077
102
}
330
1077
100
AcDbVisualStyle
  2
Shaded
 70
    27
 71
     2
 72
     2
 73
     1
 90
        2
 40
-0.6
 41
30.0
 62
     5
 63
     7
 74
     0
 91
        4
 64
     7
 65
   257
 75
     1
175
     1
 42
1.0
 92
        8
 66
   257
 43
1.0
 76
     1
 77
     6
 78
     2
 67
     8
 79
     3
170
     0
171
     0
290
     0
174
     0
 93
        5
 44
0.0
173
     0
291
     0
 45
0.0
1001
ACAD
1000
AcDbSavedByObjectVersion
1070
     0
  0
VISUALSTYLE
  5
108B
102
{ACAD_XDICTIONARY
360
22EA
102
}
102
{ACAD_REACTORS
330
1077
102
}
330
1077
100
AcDbVisualStyle
  2
Shaded with edges
 70
    26
 71
     2
 72
     2
 73
     1
 90
        2
 40
-0.6
 41
30.0
 62
     5
 63
     7
 74
     1
 91
       10
 64
     7
 65
   257
 75
     2
175
     1
 42
1.0
 92
        8
 66
   257
 43
1.0
 76
     1
 77
     6
 78
     2
 67
     7
 79
     3
170
     0
171
     0
290
     0
174
     0
 93
        5
 44
0.0
173
     0
291
     0
 45
0.0
1001
ACAD
1000
AcDbSavedByObjectVersion
1070
     0
  0
VISUALSTYLE
  5
1088
102
{ACAD_XDICTIONARY
360
22E4
102
}
102
{ACAD_REACTORS
330
1077
102
}
330
1077
100
AcDbVisualStyle
  2
Shades of Gray
 70
    23
 71
     2
 72
     2
 73
     3
 90
        0
 40
-0.6
 41
-30.0
 62
     5
 63
     7
 74
     2
 91
        2
 64
     7
 65
     7
 75
     1
175
     1
 42
40.0
 92
        8
 66
     7
 43
1.0
 76
     1
 77
     6
 78
     2
 67
     7
 79
     3
170
     0
171
     0
290
     0
174
     0
 93
        1
 44
0.0
173
     0
291
     0
 45
0.0
1001
ACAD
1000
AcDbSavedByObjectVersion
1070
     0
  0
VISUALSTYLE
  5
1089
102
{ACAD_XDICTIONARY
360
22E6
102
}
102
{ACAD_REACTORS
330
1077
102
}
330
1077
100
AcDbVisualStyle
  2
Sketchy
 70
    24
 71
     1
 72
     2
 73
     2
 90
        0
 40
-0.6
 41
-30.0
 62
     5
 63
     7
 74
     2
 91
        2
 64
     7
 65
     7
 75
     1
175
     1
 42
40.0
 92
       11
 66
     7
 43
1.0
 76
     1
 77
     6
 78
     2
 67
     7
 79
     6
170
     0
171
     0
290
     0
174
     0
 93
        1
 44
0.0
173
     0
291
     0
 45
0.0
1001
ACAD
1000
AcDbSavedByObjectVersion
1070
     0
  0
VISUALSTYLE
  5
1084
102
{ACAD_XDICTIONARY
360
22DC
102
}
102
{ACAD_REACTORS
330
1077
102
}
330
1077
100
AcDbVisualStyle
  2
Thicken
 70
    13
 71
     2
 72
     2
 73
     0
 90
        0
 40
-0.6
 41
-30.0
 62
     5
 63
     7
 74
     1
 91
        4
 64
     7
 65
   257
 75
     1
175
     1
 42
1.0
 92
       12
 66
     7
 43
1.0
 76
     1
 77
     6
 78
     2
 67
     7
 79
     5
170
     0
171
     0
290
     0
174
     0
 93
        1
 44
0.0
173
     0
291
     1
 45
0.0
1001
ACAD
1000
AcDbSavedByObjectVersion
1070
     0
  0
VISUALSTYLE
  5
107E
102
{ACAD_XDICTIONARY
360
22D0
102
}
102
{ACAD_REACTORS
330
1077
102
}
330
1077
100
AcDbVisualStyle
  2
Wireframe
 70
     5
 71
     0
 72
     2
 73
     0
 90
        0
 40
-0.6
 41
-30.0
 62
     5
 63
     7
 74
     1
 91
        4
 64
     7
 65
   257
 75
     1
175
     1
 42
1.0
 92
        0
 66
   257
 43
1.0
 76
     1
 77
     6
 78
     2
 67
     7
 79
     3
170
     0
171
     0
290
     0
174
     0
 93
        1
 44
0.0
173
     0
291
     0
 45
0.0
1001
ACAD
1000
AcDbSavedByObjectVersion
1070
     0
  0
VISUALSTYLE
  5
108A
102
{ACAD_XDICTIONARY
360
22E8
102
}
102
{ACAD_REACTORS
330
1077
102
}
330
1077
100
AcDbVisualStyle
  2
X-Ray
 70
    25
 71
     2
 72
     2
 73
     1
 90
        1
 40
0.5
 41
-30.0
 62
     5
 63
     7
 74
     1
 91
        0
 64
     7
 65
   257
 75
     1
175
     1
 42
1.0
 92
        8
 66
     7
 43
1.0
 76
     1
 77
     6
 78
     2
 67
     7
 79
     3
170
     0
171
     0
290
     0
174
     0
 93
       13
 44
0.0
173
     0
291
     0
 45
0.0
1001
ACAD
1000
AcDbSavedByObjectVersion
1070
     0
  0
DICTIONARYVAR
  5
1125
102
{ACAD_REACTORS
330
24
102
}
330
24
100
DictionaryVariables
280
     0
  1
1:1
  0
DICTIONARYVAR
  5
1124
102
{ACAD_REACTORS
330
24
102
}
330
24
100
DictionaryVariables
280
     0
  1
STANDARD
  0
DICTIONARYVAR
  5
1123
102
{ACAD_REACTORS
330
24
102
}
330
24
100
DictionaryVariables
280
     0
  1
STANDARD
  0
DICTIONARYVAR
  5
25
102
{ACAD_REACTORS
330
24
102
}
330
24
100
DictionaryVariables
280
     0
  1
0
  0
DICTIONARYVAR
  5
1128
102
{ACAD_REACTORS
330
24
102
}
330
24
100
DictionaryVariables
280
     0
  1
0
  0
DICTIONARYVAR
  5
1127
102
{ACAD_REACTORS
330
24
102
}
330
24
100
DictionaryVariables
280
     0
  1
0
  0
DICTIONARYVAR
  5
22AB
102
{ACAD_REACTORS
330
24
102
}
330
24
100
DictionaryVariables
280
     0
  1
1
  0
DICTIONARYVAR
  5
22AC
102
{ACAD_REACTORS
330
24
102
}
330
24
100
DictionaryVariables
280
     0
  1
15
  0
DICTIONARYVAR
  5
22AA
102
{ACAD_REACTORS
330
24
102
}
330
24
100
DictionaryVariables
280
     0
  1
0
  0
DICTIONARYVAR
  5
22A9
102
{ACAD_REACTORS
330
24
102
}
330
24
100
DictionaryVariables
280
     0
  1
0
  0
DICTIONARYVAR
  5
1126
102
{ACAD_REACTORS
330
24
102
}
330
24
100
DictionaryVariables
280
     0
  1
127
  0
DICTIONARYVAR
  5
22B7
102
{ACAD_REACTORS
330
24
102
}
330
24
100
DictionaryVariables
280
     0
  1
2
  0
DICTIONARY
  5
22BF
330
1030
100
AcDbDictionary
280
     1
281
     1
  3
ACAD_XREC_ROUNDTRIP
360
22C0
  0
DICTIONARY
  5
22BD
330
102F
100
AcDbDictionary
280
     1
281
     1
  3
ACAD_XREC_ROUNDTRIP
360
22BE
  0
DICTIONARY
  5
1068
330
1067
100
AcDbDictionary
280
     1
281
     1
  3
ACAD_XREC_ROUNDTRIP
360
22C2
  3
BUMPTILE
360
106A
  3
DIFFUSETILE
360
1069
  3
OPACITYTILE
360
106D
  3
REFLECTIONTILE
360
106C
  3
REFRACTIONTILE
360
106E
  3
SPECULARTILE
360
106B
  0
DICTIONARY
  5
1060
330
105F
100
AcDbDictionary
280
     1
281
     1
  3
ACAD_XREC_ROUNDTRIP
360
22C1
  3
BUMPTILE
360
1062
  3
DIFFUSETILE
360
1061
  3
OPACITYTILE
360
1065
  3
REFLECTIONTILE
360
1064
  3
REFRACTIONTILE
360
1066
  3
SPECULARTILE
360
1063
  0
DICTIONARY
  5
1070
330
106F
100
AcDbDictionary
280
     1
281
     1
  3
ACAD_XREC_ROUNDTRIP
360
22C3
  3
BUMPTILE
360
1072
  3
DIFFUSETILE
360
1071
  3
OPACITYTILE
360
1075
  3
REFLECTIONTILE
360
1074
  3
REFRACTIONTILE
360
1076
  3
SPECULARTILE
360
1073
  0
DICTIONARY
  5
10E4
330
1092
100
AcDbDictionary
280
     1
281
     1
  3
ACAD_ROUNDTRIP_2008_TABLESTYLE_CELLSTYLEMAP
360
22B8
  3
ACAD_XREC_ROUNDTRIP
360
22F4
  0
DICTIONARY
  5
22CE
330
107D
100
AcDbDictionary
280
     1
281
     1
  3
ACAD_XREC_ROUNDTRIP
360
22CF
  0
DICTIONARY
  5
22F5
330
224E
100
AcDbDictionary
280
     1
281
     1
  3
ACAD_XREC_ROUNDTRIP
360
22F6
  0
DICTIONARY
  5
22F7
330
224F
100
AcDbDictionary
280
     1
281
     1
  3
ACAD_XREC_ROUNDTRIP
360
22F8
  0
DICTIONARY
  5
22CC
330
107C
100
AcDbDictionary
280
     1
281
     1
  3
ACAD_XREC_ROUNDTRIP
360
22CD
  0
DICTIONARY
  5
22DA
330
1083
100
AcDbDictionary
280
     1
281
     1
  3
ACAD_XREC_ROUNDTRIP
360
22DB
  0
DICTIONARY
  5
22E2
330
1087
100
AcDbDictionary
280
     1
281
     1
  3
ACAD_XREC_ROUNDTRIP
360
22E3
  0
DICTIONARY
  5
22D4
330
1080
100
AcDbDictionary
280
     1
281
     1
  3
ACAD_XREC_ROUNDTRIP
360
22D5
  0
DICTIONARY
  5
22D8
330
1082
100
AcDbDictionary
280
     1
281
     1
  3
ACAD_XREC_ROUNDTRIP
360
22D9
  0
DICTIONARY
  5
22F2
330
108F
100
AcDbDictionary
280
     1
281
     1
  3
ACAD_XREC_ROUNDTRIP
360
22F3
  0
DICTIONARY
  5
22E0
330
1086
100
AcDbDictionary
280
     1
281
     1
  3
ACAD_XREC_ROUNDTRIP
360
22E1
  0
DICTIONARY
  5
22C4
330
1078
100
AcDbDictionary
280
     1
281
     1
  3
ACAD_XREC_ROUNDTRIP
360
22C5
  0
DICTIONARY
  5
22C6
330
1079
100
AcDbDictionary
280
     1
281
     1
  3
ACAD_XREC_ROUNDTRIP
360
22C7
  0
DICTIONARY
  5
22C8
330
107A
100
AcDbDictionary
280
     1
281
     1
  3
ACAD_XREC_ROUNDTRIP
360
22C9
  0
DICTIONARY
  5
22CA
330
107B
100
AcDbDictionary
280
     1
281
     1
  3
ACAD_XREC_ROUNDTRIP
360
22CB
  0
DICTIONARY
  5
22D2
330
107F
100
AcDbDictionary
280
     1
281
     1
  3
ACAD_XREC_ROUNDTRIP
360
22D3
  0
DICTIONARY
  5
22EE
330
108D
100
AcDbDictionary
280
     1
281
     1
  3
ACAD_XREC_ROUNDTRIP
360
22EF
  0
DICTIONARY
  5
22DE
330
1085
100
AcDbDictionary
280
     1
281
     1
  3
ACAD_XREC_ROUNDTRIP
360
22DF
  0
DICTIONARY
  5
22F0
330
108E
100
AcDbDictionary
280
     1
281
     1
  3
ACAD_XREC_ROUNDTRIP
360
22F1
  0
DICTIONARY
  5
22D6
330
1081
100
AcDbDictionary
280
     1
281
     1
  3
ACAD_XREC_ROUNDTRIP
360
22D7
  0
DICTIONARY
  5
22EC
330
108C
100
AcDbDictionary
280
     1
281
     1
  3
ACAD_XREC_ROUNDTRIP
360
22ED
  0
DICTIONARY
  5
22EA
330
108B
100
AcDbDictionary
280
     1
281
     1
  3
ACAD_XREC_ROUNDTRIP
360
22EB
  0
DICTIONARY
  5
22E4
330
1088
100
AcDbDictionary
280
     1
281
     1
  3
ACAD_XREC_ROUNDTRIP
360
22E5
  0
DICTIONARY
  5
22E6
330
1089
100
AcDbDictionary
280
     1
281
     1
  3
ACAD_XREC_ROUNDTRIP
360
22E7
  0
DICTIONARY
  5
22DC
330
1084
100
AcDbDictionary
280
     1
281
     1
  3
ACAD_XREC_ROUNDTRIP
360
22DD
  0
DICTIONARY
  5
22D0
330
107E
100
AcDbDictionary
280
     1
281
     1
  3
ACAD_XREC_ROUNDTRIP
360
22D1
  0
DICTIONARY
  5
22E8
330
108A
100
AcDbDictionary
280
     1
281
     1
  3
ACAD_XREC_ROUNDTRIP
360
22E9
  0
XRECORD
  5
22C0
102
{ACAD_REACTORS
330
22BF
102
}
330
22BF
100
AcDbXrecord
280
     1
102
SHADEPLOT
 70
     0
102
SHADEPLOTRESLEVEL
 70
     2
102
SHADEPLOTCUSTOMDPI
 70
   300
  0
XRECORD
  5
22BE
102
{ACAD_REACTORS
330
22BD
102
}
330
22BD
100
AcDbXrecord
280
     1
102
SHADEPLOT
 70
     0
102
SHADEPLOTRESLEVEL
 70
     2
102
SHADEPLOTCUSTOMDPI
 70
   300
  0
XRECORD
  5
22C2
102
{ACAD_REACTORS
330
1068
102
}
330
1068
100
AcDbXrecord
280
     1
102
MATERIAL
148
0.0
149
0.0
149
0.0
 93
        0
 94
      127
282
     0
 72
     0
 77
     0
171
     0
175
     0
179
     0
273
     0
  0
XRECORD
  5
106A
102
{ACAD_REACTORS
330
1068
102
}
330
1068
100
AcDbXrecord
280
     1
270
     1
271
     1
  0
XRECORD
  5
1069
102
{ACAD_REACTORS
330
1068
102
}
330
1068
100
AcDbXrecord
280
     1
270
     1
271
     1
  0
XRECORD
  5
106D
102
{ACAD_REACTORS
330
1068
102
}
330
1068
100
AcDbXrecord
280
     1
270
     1
271
     1
  0
XRECORD
  5
106C
102
{ACAD_REACTORS
330
1068
102
}
330
1068
100
AcDbXrecord
280
     1
270
     1
271
     1
  0
XRECORD
  5
106E
102
{ACAD_REACTORS
330
1068
102
}
330
1068
100
AcDbXrecord
280
     1
270
     1
271
     1
  0
XRECORD
  5
106B
102
{ACAD_REACTORS
330
1068
102
}
330
1068
100
AcDbXrecord
280
     1
270
     1
271
     1
  0
XRECORD
  5
22C1
102
{ACAD_REACTORS
330
1060
102
}
330
1060
100
AcDbXrecord
280
     1
102
MATERIAL
148
0.0
149
0.0
149
0.0
 93
        0
 94
      127
282
     0
 72
     0
 77
     0
171
     0
175
     0
179
     0
273
     0
  0
XRECORD
  5
1062
102
{ACAD_REACTORS
330
1060
102
}
330
1060
100
AcDbXrecord
280
     1
270
     1
271
     1
  0
XRECORD
  5
1061
102
{ACAD_REACTORS
330
1060
102
}
330
1060
100
AcDbXrecord
280
     1
270
     1
271
     1
  0
XRECORD
  5
1065
102
{ACAD_REACTORS
330
1060
102
}
330
1060
100
AcDbXrecord
280
     1
270
     1
271
     1
  0
XRECORD
  5
1064
102
{ACAD_REACTORS
330
1060
102
}
330
1060
100
AcDbXrecord
280
     1
270
     1
271
     1
  0
XRECORD
  5
1066
102
{ACAD_REACTORS
330
1060
102
}
330
1060
100
AcDbXrecord
280
     1
270
     1
271
     1
  0
XRECORD
  5
1063
102
{ACAD_REACTORS
330
1060
102
}
330
1060
100
AcDbXrecord
280
     1
270
     1
271
     1
  0
XRECORD
  5
22C3
102
{ACAD_REACTORS
330
1070
102
}
330
1070
100
AcDbXrecord
280
     1
102
MATERIAL
148
0.0
149
0.0
149
0.0
 93
        0
 94
      127
282
     0
 72
     0
 77
     0
171
     0
175
     0
179
     0
273
     0
  0
XRECORD
  5
1072
102
{ACAD_REACTORS
330
1070
102
}
330
1070
100
AcDbXrecord
280
     1
270
     1
271
     1
  0
XRECORD
  5
1071
102
{ACAD_REACTORS
330
1070
102
}
330
1070
100
AcDbXrecord
280
     1
270
     1
271
     1
  0
XRECORD
  5
1075
102
{ACAD_REACTORS
330
1070
102
}
330
1070
100
AcDbXrecord
280
     1
270
     1
271
     1
  0
XRECORD
  5
1074
102
{ACAD_REACTORS
330
1070
102
}
330
1070
100
AcDbXrecord
280
     1
270
     1
271
     1
  0
XRECORD
  5
1076
102
{ACAD_REACTORS
330
1070
102
}
330
1070
100
AcDbXrecord
280
     1
270
     1
271
     1
  0
XRECORD
  5
1073
102
{ACAD_REACTORS
330
1070
102
}
330
1070
100
AcDbXrecord
280
     1
270
     1
271
     1
  0
CELLSTYLEMAP
  5
22B8
102
{ACAD_REACTORS
330
10E4
102
}
330
10E4
100
AcDbCellStyleMap
 90
        3
300
CELLSTYLE
  1
TABLEFORMAT_BEGIN
 90
        5
170
     1
 91
        0
 92
    32768
 62
   257
 93
        1
300
CONTENTFORMAT
  1
CONTENTFORMAT_BEGIN
 90
        0
 91
        0
 92
      512
 93
        0
300

 40
0.0
140
1.0
 94
        5
 62
     0
340
F
144
0.25
309
CONTENTFORMAT_END
171
     0
 94
        0
309
TABLEFORMAT_END
  1
CELLSTYLE_BEGIN
 90
        1
 91
        1
300
_TITLE
309
CELLSTYLE_END
300
CELLSTYLE
  1
TABLEFORMAT_BEGIN
 90
        5
170
     1
 91
        0
 92
        0
 62
   257
 93
        1
300
CONTENTFORMAT
  1
CONTENTFORMAT_BEGIN
 90
        0
 91
        0
 92
      512
 93
        0
300

 40
0.0
140
1.0
 94
        5
 62
     0
340
F
144
0.18
309
CONTENTFORMAT_END
171
     0
 94
        0
309
TABLEFORMAT_END
  1
CELLSTYLE_BEGIN
 90
        2
 91
        1
300
_HEADER
309
CELLSTYLE_END
300
CELLSTYLE
  1
TABLEFORMAT_BEGIN
 90
        5
170
     1
 91
        0
 92
        0
 62
   257
 93
        1
300
CONTENTFORMAT
  1
CONTENTFORMAT_BEGIN
 90
        0
 91
        0
 92
      512
 93
        0
300

 40
0.0
140
1.0
 94
        2
 62
     0
340
F
144
0.18
309
CONTENTFORMAT_END
171
     0
 94
        0
309
TABLEFORMAT_END
  1
CELLSTYLE_BEGIN
 90
        3
 91
        2
300
_DATA
309
CELLSTYLE_END
  0
XRECORD
  5
22F4
102
{ACAD_REACTORS
330
10E4
102
}
330
10E4
100
AcDbXrecord
280
     1
102
ACAD_ROUNDTRIP_PRE2007_TABLESTYLE
 90
      512
 91
        0
  1

 92
      512
 93
        0
  2

 94
      512
 95
        0
  3

  0
XRECORD
  5
22CF
102
{ACAD_REACTORS
330
22CE
102
}
330
22CE
100
AcDbXrecord
280
     1
102
RTVSPropertyOp0
 70
     1
102
RTVSPropertyOp1
 70
     1
102
RTVSPropertyOp2
 70
     1
102
RTVSPropertyOp3
 70
     1
102
RTVSPropertyOp4
 70
     1
102
RTVSPropertyOp5
 70
     1
102
RTVSPropertyOp6
 70
     1
102
RTVSPropertyOp7
 70
     1
102
RTVSPropertyOp8
 70
     1
102
RTVSPropertyOp9
 70
     1
102
RTVSPropertyOp10
 70
     1
102
RTVSPropertyOp11
 70
     1
102
RTVSPropertyOp12
 70
     1
102
RTVSPropertyOp13
 70
     1
102
RTVSPropertyOp14
 70
     1
102
RTVSPropertyOp15
 70
     1
102
RTVSPropertyOp16
 70
     1
102
RTVSPropertyOp17
 70
     1
102
RTVSPropertyOp18
 70
     1
102
RTVSPropertyOp19
 70
     1
102
RTVSPropertyOp20
 70
     1
102
RTVSPropertyOp21
 70
     1
102
RTVSPropertyOp22
 70
     1
102
RTVSPropertyOp23
 70
     1
102
RTVSPropertyOp24
 70
     1
102
RTVSPropertyOp25
 70
     1
102
RTVSPropertyOp26
 70
     1
102
RTVSPropertyOp27
 70
     1
102
RTVSPropertyOp28
 70
     1
102
RTVSPropertyOp29
 70
     1
102
RTVSPropertyOp30
 70
     1
102
RTVSPropertyOp31
 70
     1
102
RTVSPropertyOp32
 70
     1
  0
XRECORD
  5
22F6
102
{ACAD_REACTORS
330
22F5
102
}
330
22F5
100
AcDbXrecord
280
     1
102
RTVSPropertyOp0
 70
     1
102
RTVSPropertyOp1
 70
     1
102
RTVSPropertyOp2
 70
     1
102
RTVSPropertyOp3
 70
     1
102
RTVSPropertyOp4
 70
     1
102
RTVSPropertyOp5
 70
     1
102
RTVSPropertyOp6
 70
     1
102
RTVSPropertyOp7
 70
     1
102
RTVSPropertyOp8
 70
     1
102
RTVSPropertyOp9
 70
     1
102
RTVSPropertyOp10
 70
     1
102
RTVSPropertyOp11
 70
     1
102
RTVSPropertyOp12
 70
     1
102
RTVSPropertyOp13
 70
     1
102
RTVSPropertyOp14
 70
     1
102
RTVSPropertyOp15
 70
     1
102
RTVSPropertyOp16
 70
     1
102
RTVSPropertyOp17
 70
     1
102
RTVSPropertyOp18
 70
     1
102
RTVSPropertyOp19
 70
     1
102
RTVSPropertyOp20
 70
     1
102
RTVSPropertyOp21
 70
     1
102
RTVSPropertyOp22
 70
     1
102
RTVSPropertyOp23
 70
     1
102
RTVSPropertyOp24
 70
     1
102
RTVSPropertyOp25
 70
     1
102
RTVSPropertyOp26
 70
     1
102
RTVSPropertyOp27
 70
     1
102
RTVSPropertyOp28
 70
     1
102
RTVSPropertyOp29
 70
     1
102
RTVSPropertyOp30
 70
     1
102
RTVSPropertyOp31
 70
     1
102
RTVSPropertyOp32
 70
     1
  0
XRECORD
  5
22F8
102
{ACAD_REACTORS
330
22F7
102
}
330
22F7
100
AcDbXrecord
280
     1
102
RTVSPropertyOp0
 70
     1
102
RTVSPropertyOp1
 70
     1
102
RTVSPropertyOp2
 70
     1
102
RTVSPropertyOp3
 70
     1
102
RTVSPropertyOp4
 70
     1
102
RTVSPropertyOp5
 70
     1
102
RTVSPropertyOp6
 70
     1
102
RTVSPropertyOp7
 70
     1
102
RTVSPropertyOp8
 70
     1
102
RTVSPropertyOp9
 70
     1
102
RTVSPropertyOp10
 70
     1
102
RTVSPropertyOp11
 70
     1
102
RTVSPropertyOp12
 70
     1
102
RTVSPropertyOp13
 70
     1
102
RTVSPropertyOp14
 70
     1
102
RTVSPropertyOp15
 70
     1
102
RTVSPropertyOp16
 70
     1
102
RTVSPropertyOp17
 70
     1
102
RTVSPropertyOp18
 70
     1
102
RTVSPropertyOp19
 70
     1
102
RTVSPropertyOp20
 70
     1
102
RTVSPropertyOp21
 70
     1
102
RTVSPropertyOp22
 70
     1
102
RTVSPropertyOp23
 70
     1
102
RTVSPropertyOp24
 70
     1
102
RTVSPropertyOp25
 70
     1
102
RTVSPropertyOp26
 70
     1
102
RTVSPropertyOp27
 70
     1
102
RTVSPropertyOp28
 70
     1
102
RTVSPropertyOp29
 70
     1
102
RTVSPropertyOp30
 70
     1
102
RTVSPropertyOp31
 70
     1
102
RTVSPropertyOp32
 70
     1
  0
XRECORD
  5
22CD
102
{ACAD_REACTORS
330
22CC
102
}
330
22CC
100
AcDbXrecord
280
     1
102
RTVSPropertyOp0
 70
     1
102
RTVSPropertyOp1
 70
     1
102
RTVSPropertyOp2
 70
     1
102
RTVSPropertyOp3
 70
     1
102
RTVSPropertyOp4
 70
     1
102
RTVSPropertyOp5
 70
     1
102
RTVSPropertyOp6
 70
     1
102
RTVSPropertyOp7
 70
     1
102
RTVSPropertyOp8
 70
     1
102
RTVSPropertyOp9
 70
     1
102
RTVSPropertyOp10
 70
     1
102
RTVSPropertyOp11
 70
     1
102
RTVSPropertyOp12
 70
     1
102
RTVSPropertyOp13
 70
     1
102
RTVSPropertyOp14
 70
     1
102
RTVSPropertyOp15
 70
     1
102
RTVSPropertyOp16
 70
     1
102
RTVSPropertyOp17
 70
     1
102
RTVSPropertyOp18
 70
     1
102
RTVSPropertyOp19
 70
     1
102
RTVSPropertyOp20
 70
     1
102
RTVSPropertyOp21
 70
     1
102
RTVSPropertyOp22
 70
     1
102
RTVSPropertyOp23
 70
     1
102
RTVSPropertyOp24
 70
     1
102
RTVSPropertyOp25
 70
     1
102
RTVSPropertyOp26
 70
     1
102
RTVSPropertyOp27
 70
     1
102
RTVSPropertyOp28
 70
     1
102
RTVSPropertyOp29
 70
     1
102
RTVSPropertyOp30
 70
     1
102
RTVSPropertyOp31
 70
     1
102
RTVSPropertyOp32
 70
     1
  0
XRECORD
  5
22DB
102
{ACAD_REACTORS
330
22DA
102
}
330
22DA
100
AcDbXrecord
280
     1
102
RTVSPropertyOp0
 70
     1
102
RTVSPropertyOp1
 70
     1
102
RTVSPropertyOp2
 70
     1
102
RTVSPropertyOp3
 70
     1
102
RTVSPropertyOp4
 70
     1
102
RTVSPropertyOp5
 70
     1
102
RTVSPropertyOp6
 70
     1
102
RTVSPropertyOp7
 70
     1
102
RTVSPropertyOp8
 70
     1
102
RTVSPropertyOp9
 70
     1
102
RTVSPropertyOp10
 70
     1
102
RTVSPropertyOp11
 70
     1
102
RTVSPropertyOp12
 70
     1
102
RTVSPropertyOp13
 70
     1
102
RTVSPropertyOp14
 70
     1
102
RTVSPropertyOp15
 70
     1
102
RTVSPropertyOp16
 70
     1
102
RTVSPropertyOp17
 70
     1
102
RTVSPropertyOp18
 70
     1
102
RTVSPropertyOp19
 70
     1
102
RTVSPropertyOp20
 70
     1
102
RTVSPropertyOp21
 70
     1
102
RTVSPropertyOp22
 70
     1
102
RTVSPropertyOp23
 70
     1
102
RTVSPropertyOp24
 70
     1
102
RTVSPropertyOp25
 70
     1
102
RTVSPropertyOp26
 70
     1
102
RTVSPropertyOp27
 70
     1
102
RTVSPropertyOp28
 70
     1
102
RTVSPropertyOp29
 70
     1
102
RTVSPropertyOp30
 70
     1
102
RTVSPropertyOp31
 70
     1
102
RTVSPropertyOp32
 70
     1
  0
XRECORD
  5
22E3
102
{ACAD_REACTORS
330
22E2
102
}
330
22E2
100
AcDbXrecord
280
     1
102
RTVSPropertyOp0
 70
     1
102
RTVSPropertyOp1
 70
     1
102
RTVSPropertyOp2
 70
     1
102
RTVSPropertyOp3
 70
     1
102
RTVSPropertyOp4
 70
     1
102
RTVSPropertyOp5
 70
     1
102
RTVSPropertyOp6
 70
     1
102
RTVSPropertyOp7
 70
     1
102
RTVSPropertyOp8
 70
     1
102
RTVSPropertyOp9
 70
     1
102
RTVSPropertyOp10
 70
     1
102
RTVSPropertyOp11
 70
     1
102
RTVSPropertyOp12
 70
     1
102
RTVSPropertyOp13
 70
     1
102
RTVSPropertyOp14
 70
     1
102
RTVSPropertyOp15
 70
     1
102
RTVSPropertyOp16
 70
     1
102
RTVSPropertyOp17
 70
     1
102
RTVSPropertyOp18
 70
     1
102
RTVSPropertyOp19
 70
     1
102
RTVSPropertyOp20
 70
     1
102
RTVSPropertyOp21
 70
     1
102
RTVSPropertyOp22
 70
     1
102
RTVSPropertyOp23
 70
     1
102
RTVSPropertyOp24
 70
     1
102
RTVSPropertyOp25
 70
     1
102
RTVSPropertyOp26
 70
     1
102
RTVSPropertyOp27
 70
     1
102
RTVSPropertyOp28
 70
     1
102
RTVSPropertyOp29
 70
     1
102
RTVSPropertyOp30
 70
     1
102
RTVSPropertyOp31
 70
     1
102
RTVSPropertyOp32
 70
     1
  0
XRECORD
  5
22D5
102
{ACAD_REACTORS
330
22D4
102
}
330
22D4
100
AcDbXrecord
280
     1
102
RTVSPropertyOp0
 70
     1
102
RTVSPropertyOp1
 70
     1
102
RTVSPropertyOp2
 70
     1
102
RTVSPropertyOp3
 70
     1
102
RTVSPropertyOp4
 70
     1
102
RTVSPropertyOp5
 70
     1
102
RTVSPropertyOp6
 70
     1
102
RTVSPropertyOp7
 70
     1
102
RTVSPropertyOp8
 70
     1
102
RTVSPropertyOp9
 70
     1
102
RTVSPropertyOp10
 70
     1
102
RTVSPropertyOp11
 70
     1
102
RTVSPropertyOp12
 70
     1
102
RTVSPropertyOp13
 70
     1
102
RTVSPropertyOp14
 70
     1
102
RTVSPropertyOp15
 70
     1
102
RTVSPropertyOp16
 70
     1
102
RTVSPropertyOp17
 70
     1
102
RTVSPropertyOp18
 70
     1
102
RTVSPropertyOp19
 70
     1
102
RTVSPropertyOp20
 70
     1
102
RTVSPropertyOp21
 70
     1
102
RTVSPropertyOp22
 70
     1
102
RTVSPropertyOp23
 70
     1
102
RTVSPropertyOp24
 70
     1
102
RTVSPropertyOp25
 70
     1
102
RTVSPropertyOp26
 70
     1
102
RTVSPropertyOp27
 70
     1
102
RTVSPropertyOp28
 70
     1
102
RTVSPropertyOp29
 70
     1
102
RTVSPropertyOp30
 70
     1
102
RTVSPropertyOp31
 70
     1
102
RTVSPropertyOp32
 70
     1
  0
XRECORD
  5
22D9
102
{ACAD_REACTORS
330
22D8
102
}
330
22D8
100
AcDbXrecord
280
     1
102
RTVSPropertyOp0
 70
     1
102
RTVSPropertyOp1
 70
     1
102
RTVSPropertyOp2
 70
     1
102
RTVSPropertyOp3
 70
     1
102
RTVSPropertyOp4
 70
     1
102
RTVSPropertyOp5
 70
     1
102
RTVSPropertyOp6
 70
     1
102
RTVSPropertyOp7
 70
     1
102
RTVSPropertyOp8
 70
     1
102
RTVSPropertyOp9
 70
     1
102
RTVSPropertyOp10
 70
     1
102
RTVSPropertyOp11
 70
     1
102
RTVSPropertyOp12
 70
     1
102
RTVSPropertyOp13
 70
     1
102
RTVSPropertyOp14
 70
     1
102
RTVSPropertyOp15
 70
     1
102
RTVSPropertyOp16
 70
     1
102
RTVSPropertyOp17
 70
     1
102
RTVSPropertyOp18
 70
     1
102
RTVSPropertyOp19
 70
     1
102
RTVSPropertyOp20
 70
     1
102
RTVSPropertyOp21
 70
     1
102
RTVSPropertyOp22
 70
     1
102
RTVSPropertyOp23
 70
     1
102
RTVSPropertyOp24
 70
     1
102
RTVSPropertyOp25
 70
     1
102
RTVSPropertyOp26
 70
     1
102
RTVSPropertyOp27
 70
     1
102
RTVSPropertyOp28
 70
     1
102
RTVSPropertyOp29
 70
     1
102
RTVSPropertyOp30
 70
     1
102
RTVSPropertyOp31
 70
     1
102
RTVSPropertyOp32
 70
     1
  0
XRECORD
  5
22F3
102
{ACAD_REACTORS
330
22F2
102
}
330
22F2
100
AcDbXrecord
280
     1
102
RTVSPropertyOp0
 70
     0
102
RTVSPropertyOp1
 70
     0
102
RTVSPropertyOp2
 70
     0
102
RTVSPropertyOp3
 70
     0
102
RTVSPropertyOp4
 70
     0
102
RTVSPropertyOp5
 70
     0
102
RTVSPropertyOp6
 70
     0
102
RTVSPropertyOp7
 70
     0
102
RTVSPropertyOp8
 70
     0
102
RTVSPropertyOp9
 70
     0
102
RTVSPropertyOp10
 70
     0
102
RTVSPropertyOp11
 70
     0
102
RTVSPropertyOp12
 70
     0
102
RTVSPropertyOp13
 70
     0
102
RTVSPropertyOp14
 70
     2
102
RTVSPropertyOp15
 70
     0
102
RTVSPropertyOp16
 70
     0
102
RTVSPropertyOp17
 70
     0
102
RTVSPropertyOp18
 70
     0
102
RTVSPropertyOp19
 70
     0
102
RTVSPropertyOp20
 70
     0
102
RTVSPropertyOp21
 70
     0
102
RTVSPropertyOp22
 70
     0
102
RTVSPropertyOp23
 70
     0
102
RTVSPropertyOp24
 70
     0
102
RTVSPropertyOp25
 70
     0
102
RTVSPropertyOp26
 70
     0
102
RTVSPropertyOp27
 70
     0
102
RTVSPropertyOp28
 70
     1
102
RTVSPropertyOp29
 70
     1
102
RTVSPropertyOp30
 70
     1
102
RTVSPropertyOp31
 70
     1
102
RTVSPropertyOp32
 70
     1
  0
XRECORD
  5
22E1
102
{ACAD_REACTORS
330
22E0
102
}
330
22E0
100
AcDbXrecord
280
     1
102
RTVSPropertyOp0
 70
     1
102
RTVSPropertyOp1
 70
     1
102
RTVSPropertyOp2
 70
     1
102
RTVSPropertyOp3
 70
     1
102
RTVSPropertyOp4
 70
     1
102
RTVSPropertyOp5
 70
     1
102
RTVSPropertyOp6
 70
     1
102
RTVSPropertyOp7
 70
     1
102
RTVSPropertyOp8
 70
     1
102
RTVSPropertyOp9
 70
     1
102
RTVSPropertyOp10
 70
     1
102
RTVSPropertyOp11
 70
     1
102
RTVSPropertyOp12
 70
     1
102
RTVSPropertyOp13
 70
     1
102
RTVSPropertyOp14
 70
     1
102
RTVSPropertyOp15
 70
     1
102
RTVSPropertyOp16
 70
     1
102
RTVSPropertyOp17
 70
     1
102
RTVSPropertyOp18
 70
     1
102
RTVSPropertyOp19
 70
     1
102
RTVSPropertyOp20
 70
     1
102
RTVSPropertyOp21
 70
     1
102
RTVSPropertyOp22
 70
     1
102
RTVSPropertyOp23
 70
     1
102
RTVSPropertyOp24
 70
     1
102
RTVSPropertyOp25
 70
     1
102
RTVSPropertyOp26
 70
     1
102
RTVSPropertyOp27
 70
     1
102
RTVSPropertyOp28
 70
     1
102
RTVSPropertyOp29
 70
     1
102
RTVSPropertyOp30
 70
     1
102
RTVSPropertyOp31
 70
     1
102
RTVSPropertyOp32
 70
     1
  0
XRECORD
  5
22C5
102
{ACAD_REACTORS
330
22C4
102
}
330
22C4
100
AcDbXrecord
280
     1
102
RTVSPropertyOp0
 70
     1
102
RTVSPropertyOp1
 70
     1
102
RTVSPropertyOp2
 70
     1
102
RTVSPropertyOp3
 70
     1
102
RTVSPropertyOp4
 70
     1
102
RTVSPropertyOp5
 70
     1
102
RTVSPropertyOp6
 70
     1
102
RTVSPropertyOp7
 70
     1
102
RTVSPropertyOp8
 70
     1
102
RTVSPropertyOp9
 70
     1
102
RTVSPropertyOp10
 70
     1
102
RTVSPropertyOp11
 70
     1
102
RTVSPropertyOp12
 70
     1
102
RTVSPropertyOp13
 70
     1
102
RTVSPropertyOp14
 70
     1
102
RTVSPropertyOp15
 70
     1
102
RTVSPropertyOp16
 70
     1
102
RTVSPropertyOp17
 70
     1
102
RTVSPropertyOp18
 70
     1
102
RTVSPropertyOp19
 70
     1
102
RTVSPropertyOp20
 70
     1
102
RTVSPropertyOp21
 70
     1
102
RTVSPropertyOp22
 70
     1
102
RTVSPropertyOp23
 70
     1
102
RTVSPropertyOp24
 70
     1
102
RTVSPropertyOp25
 70
     1
102
RTVSPropertyOp26
 70
     1
102
RTVSPropertyOp27
 70
     1
102
RTVSPropertyOp28
 70
     1
102
RTVSPropertyOp29
 70
     1
102
RTVSPropertyOp30
 70
     1
102
RTVSPropertyOp31
 70
     1
102
RTVSPropertyOp32
 70
     1
  0
XRECORD
  5
22C7
102
{ACAD_REACTORS
330
22C6
102
}
330
22C6
100
AcDbXrecord
280
     1
102
RTVSPropertyOp0
 70
     1
102
RTVSPropertyOp1
 70
     1
102
RTVSPropertyOp2
 70
     1
102
RTVSPropertyOp3
 70
     1
102
RTVSPropertyOp4
 70
     1
102
RTVSPropertyOp5
 70
     1
102
RTVSPropertyOp6
 70
     1
102
RTVSPropertyOp7
 70
     1
102
RTVSPropertyOp8
 70
     1
102
RTVSPropertyOp9
 70
     1
102
RTVSPropertyOp10
 70
     1
102
RTVSPropertyOp11
 70
     1
102
RTVSPropertyOp12
 70
     1
102
RTVSPropertyOp13
 70
     1
102
RTVSPropertyOp14
 70
     1
102
RTVSPropertyOp15
 70
     1
102
RTVSPropertyOp16
 70
     1
102
RTVSPropertyOp17
 70
     1
102
RTVSPropertyOp18
 70
     1
102
RTVSPropertyOp19
 70
     1
102
RTVSPropertyOp20
 70
     1
102
RTVSPropertyOp21
 70
     1
102
RTVSPropertyOp22
 70
     1
102
RTVSPropertyOp23
 70
     1
102
RTVSPropertyOp24
 70
     1
102
RTVSPropertyOp25
 70
     1
102
RTVSPropertyOp26
 70
     1
102
RTVSPropertyOp27
 70
     1
102
RTVSPropertyOp28
 70
     1
102
RTVSPropertyOp29
 70
     1
102
RTVSPropertyOp30
 70
     1
102
RTVSPropertyOp31
 70
     1
102
RTVSPropertyOp32
 70
     1
  0
XRECORD
  5
22C9
102
{ACAD_REACTORS
330
22C8
102
}
330
22C8
100
AcDbXrecord
280
     1
102
RTVSPropertyOp0
 70
     1
102
RTVSPropertyOp1
 70
     1
102
RTVSPropertyOp2
 70
     1
102
RTVSPropertyOp3
 70
     1
102
RTVSPropertyOp4
 70
     1
102
RTVSPropertyOp5
 70
     1
102
RTVSPropertyOp6
 70
     1
102
RTVSPropertyOp7
 70
     1
102
RTVSPropertyOp8
 70
     1
102
RTVSPropertyOp9
 70
     1
102
RTVSPropertyOp10
 70
     1
102
RTVSPropertyOp11
 70
     1
102
RTVSPropertyOp12
 70
     1
102
RTVSPropertyOp13
 70
     1
102
RTVSPropertyOp14
 70
     1
102
RTVSPropertyOp15
 70
     1
102
RTVSPropertyOp16
 70
     1
102
RTVSPropertyOp17
 70
     1
102
RTVSPropertyOp18
 70
     1
102
RTVSPropertyOp19
 70
     1
102
RTVSPropertyOp20
 70
     1
102
RTVSPropertyOp21
 70
     1
102
RTVSPropertyOp22
 70
     1
102
RTVSPropertyOp23
 70
     1
102
RTVSPropertyOp24
 70
     1
102
RTVSPropertyOp25
 70
     1
102
RTVSPropertyOp26
 70
     1
102
RTVSPropertyOp27
 70
     1
102
RTVSPropertyOp28
 70
     1
102
RTVSPropertyOp29
 70
     1
102
RTVSPropertyOp30
 70
     1
102
RTVSPropertyOp31
 70
     1
102
RTVSPropertyOp32
 70
     1
  0
XRECORD
  5
22CB
102
{ACAD_REACTORS
330
22CA
102
}
330
22CA
100
AcDbXrecord
280
     1
102
RTVSPropertyOp0
 70
     1
102
RTVSPropertyOp1
 70
     1
102
RTVSPropertyOp2
 70
     1
102
RTVSPropertyOp3
 70
     1
102
RTVSPropertyOp4
 70
     1
102
RTVSPropertyOp5
 70
     1
102
RTVSPropertyOp6
 70
     1
102
RTVSPropertyOp7
 70
     1
102
RTVSPropertyOp8
 70
     1
102
RTVSPropertyOp9
 70
     1
102
RTVSPropertyOp10
 70
     1
102
RTVSPropertyOp11
 70
     1
102
RTVSPropertyOp12
 70
     1
102
RTVSPropertyOp13
 70
     1
102
RTVSPropertyOp14
 70
     1
102
RTVSPropertyOp15
 70
     1
102
RTVSPropertyOp16
 70
     1
102
RTVSPropertyOp17
 70
     1
102
RTVSPropertyOp18
 70
     1
102
RTVSPropertyOp19
 70
     1
102
RTVSPropertyOp20
 70
     1
102
RTVSPropertyOp21
 70
     1
102
RTVSPropertyOp22
 70
     1
102
RTVSPropertyOp23
 70
     1
102
RTVSPropertyOp24
 70
     1
102
RTVSPropertyOp25
 70
     1
102
RTVSPropertyOp26
 70
     1
102
RTVSPropertyOp27
 70
     1
102
RTVSPropertyOp28
 70
     1
102
RTVSPropertyOp29
 70
     1
102
RTVSPropertyOp30
 70
     1
102
RTVSPropertyOp31
 70
     1
102
RTVSPropertyOp32
 70
     1
  0
XRECORD
  5
22D3
102
{ACAD_REACTORS
330
22D2
102
}
330
22D2
100
AcDbXrecord
280
     1
102
RTVSPropertyOp0
 70
     1
102
RTVSPropertyOp1
 70
     1
102
RTVSPropertyOp2
 70
     1
102
RTVSPropertyOp3
 70
     1
102
RTVSPropertyOp4
 70
     1
102
RTVSPropertyOp5
 70
     1
102
RTVSPropertyOp6
 70
     1
102
RTVSPropertyOp7
 70
     1
102
RTVSPropertyOp8
 70
     1
102
RTVSPropertyOp9
 70
     1
102
RTVSPropertyOp10
 70
     1
102
RTVSPropertyOp11
 70
     1
102
RTVSPropertyOp12
 70
     1
102
RTVSPropertyOp13
 70
     1
102
RTVSPropertyOp14
 70
     1
102
RTVSPropertyOp15
 70
     1
102
RTVSPropertyOp16
 70
     1
102
RTVSPropertyOp17
 70
     1
102
RTVSPropertyOp18
 70
     1
102
RTVSPropertyOp19
 70
     1
102
RTVSPropertyOp20
 70
     1
102
RTVSPropertyOp21
 70
     1
102
RTVSPropertyOp22
 70
     1
102
RTVSPropertyOp23
 70
     1
102
RTVSPropertyOp24
 70
     1
102
RTVSPropertyOp25
 70
     1
102
RTVSPropertyOp26
 70
     1
102
RTVSPropertyOp27
 70
     1
102
RTVSPropertyOp28
 70
     1
102
RTVSPropertyOp29
 70
     1
102
RTVSPropertyOp30
 70
     1
102
RTVSPropertyOp31
 70
     1
102
RTVSPropertyOp32
 70
     1
  0
XRECORD
  5
22EF
102
{ACAD_REACTORS
330
22EE
102
}
330
22EE
100
AcDbXrecord
280
     1
102
RTVSPropertyOp0
 70
     0
102
RTVSPropertyOp1
 70
     0
102
RTVSPropertyOp2
 70
     0
102
RTVSPropertyOp3
 70
     0
102
RTVSPropertyOp4
 70
     0
102
RTVSPropertyOp5
 70
     0
102
RTVSPropertyOp6
 70
     0
102
RTVSPropertyOp7
 70
     0
102
RTVSPropertyOp8
 70
     0
102
RTVSPropertyOp9
 70
     0
102
RTVSPropertyOp10
 70
     0
102
RTVSPropertyOp11
 70
     0
102
RTVSPropertyOp12
 70
     0
102
RTVSPropertyOp13
 70
     0
102
RTVSPropertyOp14
 70
     2
102
RTVSPropertyOp15
 70
     0
102
RTVSPropertyOp16
 70
     0
102
RTVSPropertyOp17
 70
     0
102
RTVSPropertyOp18
 70
     0
102
RTVSPropertyOp19
 70
     0
102
RTVSPropertyOp20
 70
     0
102
RTVSPropertyOp21
 70
     0
102
RTVSPropertyOp22
 70
     0
102
RTVSPropertyOp23
 70
     0
102
RTVSPropertyOp24
 70
     0
102
RTVSPropertyOp25
 70
     0
102
RTVSPropertyOp26
 70
     0
102
RTVSPropertyOp27
 70
     0
102
RTVSPropertyOp28
 70
     1
102
RTVSPropertyOp29
 70
     1
102
RTVSPropertyOp30
 70
     1
102
RTVSPropertyOp31
 70
     1
102
RTVSPropertyOp32
 70
     1
  0
XRECORD
  5
22DF
102
{ACAD_REACTORS
330
22DE
102
}
330
22DE
100
AcDbXrecord
280
     1
102
RTVSPropertyOp0
 70
     1
102
RTVSPropertyOp1
 70
     1
102
RTVSPropertyOp2
 70
     1
102
RTVSPropertyOp3
 70
     1
102
RTVSPropertyOp4
 70
     1
102
RTVSPropertyOp5
 70
     1
102
RTVSPropertyOp6
 70
     1
102
RTVSPropertyOp7
 70
     1
102
RTVSPropertyOp8
 70
     1
102
RTVSPropertyOp9
 70
     1
102
RTVSPropertyOp10
 70
     1
102
RTVSPropertyOp11
 70
     1
102
RTVSPropertyOp12
 70
     1
102
RTVSPropertyOp13
 70
     1
102
RTVSPropertyOp14
 70
     1
102
RTVSPropertyOp15
 70
     1
102
RTVSPropertyOp16
 70
     1
102
RTVSPropertyOp17
 70
     1
102
RTVSPropertyOp18
 70
     1
102
RTVSPropertyOp19
 70
     1
102
RTVSPropertyOp20
 70
     1
102
RTVSPropertyOp21
 70
     1
102
RTVSPropertyOp22
 70
     1
102
RTVSPropertyOp23
 70
     1
102
RTVSPropertyOp24
 70
     1
102
RTVSPropertyOp25
 70
     1
102
RTVSPropertyOp26
 70
     1
102
RTVSPropertyOp27
 70
     1
102
RTVSPropertyOp28
 70
     1
102
RTVSPropertyOp29
 70
     1
102
RTVSPropertyOp30
 70
     1
102
RTVSPropertyOp31
 70
     1
102
RTVSPropertyOp32
 70
     1
  0
XRECORD
  5
22F1
102
{ACAD_REACTORS
330
22F0
102
}
330
22F0
100
AcDbXrecord
280
     1
102
RTVSPropertyOp0
 70
     0
102
RTVSPropertyOp1
 70
     0
102
RTVSPropertyOp2
 70
     0
102
RTVSPropertyOp3
 70
     0
102
RTVSPropertyOp4
 70
     0
102
RTVSPropertyOp5
 70
     0
102
RTVSPropertyOp6
 70
     0
102
RTVSPropertyOp7
 70
     0
102
RTVSPropertyOp8
 70
     0
102
RTVSPropertyOp9
 70
     0
102
RTVSPropertyOp10
 70
     0
102
RTVSPropertyOp11
 70
     0
102
RTVSPropertyOp12
 70
     0
102
RTVSPropertyOp13
 70
     0
102
RTVSPropertyOp14
 70
     2
102
RTVSPropertyOp15
 70
     0
102
RTVSPropertyOp16
 70
     0
102
RTVSPropertyOp17
 70
     0
102
RTVSPropertyOp18
 70
     0
102
RTVSPropertyOp19
 70
     0
102
RTVSPropertyOp20
 70
     0
102
RTVSPropertyOp21
 70
     0
102
RTVSPropertyOp22
 70
     0
102
RTVSPropertyOp23
 70
     0
102
RTVSPropertyOp24
 70
     0
102
RTVSPropertyOp25
 70
     0
102
RTVSPropertyOp26
 70
     0
102
RTVSPropertyOp27
 70
     0
102
RTVSPropertyOp28
 70
     1
102
RTVSPropertyOp29
 70
     1
102
RTVSPropertyOp30
 70
     1
102
RTVSPropertyOp31
 70
     1
102
RTVSPropertyOp32
 70
     1
  0
XRECORD
  5
22D7
102
{ACAD_REACTORS
330
22D6
102
}
330
22D6
100
AcDbXrecord
280
     1
102
RTVSPropertyOp0
 70
     1
102
RTVSPropertyOp1
 70
     1
102
RTVSPropertyOp2
 70
     1
102
RTVSPropertyOp3
 70
     1
102
RTVSPropertyOp4
 70
     1
102
RTVSPropertyOp5
 70
     1
102
RTVSPropertyOp6
 70
     1
102
RTVSPropertyOp7
 70
     1
102
RTVSPropertyOp8
 70
     1
102
RTVSPropertyOp9
 70
     1
102
RTVSPropertyOp10
 70
     1
102
RTVSPropertyOp11
 70
     1
102
RTVSPropertyOp12
 70
     1
102
RTVSPropertyOp13
 70
     1
102
RTVSPropertyOp14
 70
     1
102
RTVSPropertyOp15
 70
     1
102
RTVSPropertyOp16
 70
     1
102
RTVSPropertyOp17
 70
     1
102
RTVSPropertyOp18
 70
     1
102
RTVSPropertyOp19
 70
     1
102
RTVSPropertyOp20
 70
     1
102
RTVSPropertyOp21
 70
     1
102
RTVSPropertyOp22
 70
     1
102
RTVSPropertyOp23
 70
     1
102
RTVSPropertyOp24
 70
     1
102
RTVSPropertyOp25
 70
     1
102
RTVSPropertyOp26
 70
     1
102
RTVSPropertyOp27
 70
     1
102
RTVSPropertyOp28
 70
     1
102
RTVSPropertyOp29
 70
     1
102
RTVSPropertyOp30
 70
     1
102
RTVSPropertyOp31
 70
     1
102
RTVSPropertyOp32
 70
     1
  0
XRECORD
  5
22ED
102
{ACAD_REACTORS
330
22EC
102
}
330
22EC
100
AcDbXrecord
280
     1
102
RTVSPropertyOp0
 70
     1
102
RTVSPropertyOp1
 70
     1
102
RTVSPropertyOp2
 70
     1
102
RTVSPropertyOp3
 70
     1
102
RTVSPropertyOp4
 70
     1
102
RTVSPropertyOp5
 70
     1
102
RTVSPropertyOp6
 70
     1
102
RTVSPropertyOp7
 70
     1
102
RTVSPropertyOp8
 70
     1
102
RTVSPropertyOp9
 70
     1
102
RTVSPropertyOp10
 70
     1
102
RTVSPropertyOp11
 70
     1
102
RTVSPropertyOp12
 70
     1
102
RTVSPropertyOp13
 70
     1
102
RTVSPropertyOp14
 70
     1
102
RTVSPropertyOp15
 70
     1
102
RTVSPropertyOp16
 70
     1
102
RTVSPropertyOp17
 70
     1
102
RTVSPropertyOp18
 70
     1
102
RTVSPropertyOp19
 70
     1
102
RTVSPropertyOp20
 70
     1
102
RTVSPropertyOp21
 70
     1
102
RTVSPropertyOp22
 70
     1
102
RTVSPropertyOp23
 70
     1
102
RTVSPropertyOp24
 70
     1
102
RTVSPropertyOp25
 70
     1
102
RTVSPropertyOp26
 70
     1
102
RTVSPropertyOp27
 70
     1
102
RTVSPropertyOp28
 70
     1
102
RTVSPropertyOp29
 70
     1
102
RTVSPropertyOp30
 70
     1
102
RTVSPropertyOp31
 70
     1
102
RTVSPropertyOp32
 70
     1
  0
XRECORD
  5
22EB
102
{ACAD_REACTORS
330
22EA
102
}
330
22EA
100
AcDbXrecord
280
     1
102
RTVSPropertyOp0
 70
     1
102
RTVSPropertyOp1
 70
     1
102
RTVSPropertyOp2
 70
     1
102
RTVSPropertyOp3
 70
     1
102
RTVSPropertyOp4
 70
     1
102
RTVSPropertyOp5
 70
     1
102
RTVSPropertyOp6
 70
     1
102
RTVSPropertyOp7
 70
     1
102
RTVSPropertyOp8
 70
     1
102
RTVSPropertyOp9
 70
     1
102
RTVSPropertyOp10
 70
     1
102
RTVSPropertyOp11
 70
     1
102
RTVSPropertyOp12
 70
     1
102
RTVSPropertyOp13
 70
     1
102
RTVSPropertyOp14
 70
     1
102
RTVSPropertyOp15
 70
     1
102
RTVSPropertyOp16
 70
     1
102
RTVSPropertyOp17
 70
     1
102
RTVSPropertyOp18
 70
     1
102
RTVSPropertyOp19
 70
     1
102
RTVSPropertyOp20
 70
     1
102
RTVSPropertyOp21
 70
     1
102
RTVSPropertyOp22
 70
     1
102
RTVSPropertyOp23
 70
     1
102
RTVSPropertyOp24
 70
     1
102
RTVSPropertyOp25
 70
     1
102
RTVSPropertyOp26
 70
     1
102
RTVSPropertyOp27
 70
     1
102
RTVSPropertyOp28
 70
     1
102
RTVSPropertyOp29
 70
     1
102
RTVSPropertyOp30
 70
     1
102
RTVSPropertyOp31
 70
     1
102
RTVSPropertyOp32
 70
     1
  0
XRECORD
  5
22E5
102
{ACAD_REACTORS
330
22E4
102
}
330
22E4
100
AcDbXrecord
280
     1
102
RTVSPropertyOp0
 70
     1
102
RTVSPropertyOp1
 70
     1
102
RTVSPropertyOp2
 70
     1
102
RTVSPropertyOp3
 70
     1
102
RTVSPropertyOp4
 70
     1
102
RTVSPropertyOp5
 70
     1
102
RTVSPropertyOp6
 70
     1
102
RTVSPropertyOp7
 70
     1
102
RTVSPropertyOp8
 70
     1
102
RTVSPropertyOp9
 70
     1
102
RTVSPropertyOp10
 70
     1
102
RTVSPropertyOp11
 70
     1
102
RTVSPropertyOp12
 70
     1
102
RTVSPropertyOp13
 70
     1
102
RTVSPropertyOp14
 70
     1
102
RTVSPropertyOp15
 70
     1
102
RTVSPropertyOp16
 70
     1
102
RTVSPropertyOp17
 70
     1
102
RTVSPropertyOp18
 70
     1
102
RTVSPropertyOp19
 70
     1
102
RTVSPropertyOp20
 70
     1
102
RTVSPropertyOp21
 70
     1
102
RTVSPropertyOp22
 70
     1
102
RTVSPropertyOp23
 70
     1
102
RTVSPropertyOp24
 70
     1
102
RTVSPropertyOp25
 70
     1
102
RTVSPropertyOp26
 70
     1
102
RTVSPropertyOp27
 70
     1
102
RTVSPropertyOp28
 70
     1
102
RTVSPropertyOp29
 70
     1
102
RTVSPropertyOp30
 70
     1
102
RTVSPropertyOp31
 70
     1
102
RTVSPropertyOp32
 70
     1
  0
XRECORD
  5
22E7
102
{ACAD_REACTORS
330
22E6
102
}
330
22E6
100
AcDbXrecord
280
     1
102
RTVSPropertyOp0
 70
     1
102
RTVSPropertyOp1
 70
     1
102
RTVSPropertyOp2
 70
     1
102
RTVSPropertyOp3
 70
     1
102
RTVSPropertyOp4
 70
     1
102
RTVSPropertyOp5
 70
     1
102
RTVSPropertyOp6
 70
     1
102
RTVSPropertyOp7
 70
     1
102
RTVSPropertyOp8
 70
     1
102
RTVSPropertyOp9
 70
     1
102
RTVSPropertyOp10
 70
     1
102
RTVSPropertyOp11
 70
     1
102
RTVSPropertyOp12
 70
     1
102
RTVSPropertyOp13
 70
     1
102
RTVSPropertyOp14
 70
     1
102
RTVSPropertyOp15
 70
     1
102
RTVSPropertyOp16
 70
     1
102
RTVSPropertyOp17
 70
     1
102
RTVSPropertyOp18
 70
     1
102
RTVSPropertyOp19
 70
     1
102
RTVSPropertyOp20
 70
     1
102
RTVSPropertyOp21
 70
     1
102
RTVSPropertyOp22
 70
     1
102
RTVSPropertyOp23
 70
     1
102
RTVSPropertyOp24
 70
     1
102
RTVSPropertyOp25
 70
     1
102
RTVSPropertyOp26
 70
     1
102
RTVSPropertyOp27
 70
     1
102
RTVSPropertyOp28
 70
     1
102
RTVSPropertyOp29
 70
     1
102
RTVSPropertyOp30
 70
     1
102
RTVSPropertyOp31
 70
     1
102
RTVSPropertyOp32
 70
     1
  0
XRECORD
  5
22DD
102
{ACAD_REACTORS
330
22DC
102
}
330
22DC
100
AcDbXrecord
280
     1
102
RTVSPropertyOp0
 70
     1
102
RTVSPropertyOp1
 70
     1
102
RTVSPropertyOp2
 70
     1
102
RTVSPropertyOp3
 70
     1
102
RTVSPropertyOp4
 70
     1
102
RTVSPropertyOp5
 70
     1
102
RTVSPropertyOp6
 70
     1
102
RTVSPropertyOp7
 70
     1
102
RTVSPropertyOp8
 70
     1
102
RTVSPropertyOp9
 70
     1
102
RTVSPropertyOp10
 70
     1
102
RTVSPropertyOp11
 70
     1
102
RTVSPropertyOp12
 70
     1
102
RTVSPropertyOp13
 70
     1
102
RTVSPropertyOp14
 70
     1
102
RTVSPropertyOp15
 70
     1
102
RTVSPropertyOp16
 70
     1
102
RTVSPropertyOp17
 70
     1
102
RTVSPropertyOp18
 70
     1
102
RTVSPropertyOp19
 70
     1
102
RTVSPropertyOp20
 70
     1
102
RTVSPropertyOp21
 70
     1
102
RTVSPropertyOp22
 70
     1
102
RTVSPropertyOp23
 70
     1
102
RTVSPropertyOp24
 70
     1
102
RTVSPropertyOp25
 70
     1
102
RTVSPropertyOp26
 70
     1
102
RTVSPropertyOp27
 70
     1
102
RTVSPropertyOp28
 70
     1
102
RTVSPropertyOp29
 70
     1
102
RTVSPropertyOp30
 70
     1
102
RTVSPropertyOp31
 70
     1
102
RTVSPropertyOp32
 70
     1
  0
XRECORD
  5
22D1
102
{ACAD_REACTORS
330
22D0
102
}
330
22D0
100
AcDbXrecord
280
     1
102
RTVSPropertyOp0
 70
     1
102
RTVSPropertyOp1
 70
     1
102
RTVSPropertyOp2
 70
     1
102
RTVSPropertyOp3
 70
     1
102
RTVSPropertyOp4
 70
     1
102
RTVSPropertyOp5
 70
     1
102
RTVSPropertyOp6
 70
     1
102
RTVSPropertyOp7
 70
     1
102
RTVSPropertyOp8
 70
     1
102
RTVSPropertyOp9
 70
     1
102
RTVSPropertyOp10
 70
     1
102
RTVSPropertyOp11
 70
     1
102
RTVSPropertyOp12
 70
     1
102
RTVSPropertyOp13
 70
     1
102
RTVSPropertyOp14
 70
     1
102
RTVSPropertyOp15
 70
     1
102
RTVSPropertyOp16
 70
     1
102
RTVSPropertyOp17
 70
     1
102
RTVSPropertyOp18
 70
     1
102
RTVSPropertyOp19
 70
     1
102
RTVSPropertyOp20
 70
     1
102
RTVSPropertyOp21
 70
     1
102
RTVSPropertyOp22
 70
     1
102
RTVSPropertyOp23
 70
     1
102
RTVSPropertyOp24
 70
     1
102
RTVSPropertyOp25
 70
     1
102
RTVSPropertyOp26
 70
     1
102
RTVSPropertyOp27
 70
     1
102
RTVSPropertyOp28
 70
     1
102
RTVSPropertyOp29
 70
     1
102
RTVSPropertyOp30
 70
     1
102
RTVSPropertyOp31
 70
     1
102
RTVSPropertyOp32
 70
     1
  0
XRECORD
  5
22E9
102
{ACAD_REACTORS
330
22E8
102
}
330
22E8
100
AcDbXrecord
280
     1
102
RTVSPropertyOp0
 70
     1
102
RTVSPropertyOp1
 70
     1
102
RTVSPropertyOp2
 70
     1
102
RTVSPropertyOp3
 70
     1
102
RTVSPropertyOp4
 70
     1
102
RTVSPropertyOp5
 70
     1
102
RTVSPropertyOp6
 70
     1
102
RTVSPropertyOp7
 70
     1
102
RTVSPropertyOp8
 70
     1
102
RTVSPropertyOp9
 70
     1
102
RTVSPropertyOp10
 70
     1
102
RTVSPropertyOp11
 70
     1
102
RTVSPropertyOp12
 70
     1
102
RTVSPropertyOp13
 70
     1
102
RTVSPropertyOp14
 70
     1
102
RTVSPropertyOp15
 70
     1
102
RTVSPropertyOp16
 70
     1
102
RTVSPropertyOp17
 70
     1
102
RTVSPropertyOp18
 70
     1
102
RTVSPropertyOp19
 70
     1
102
RTVSPropertyOp20
 70
     1
102
RTVSPropertyOp21
 70
     1
102
RTVSPropertyOp22
 70
     1
102
RTVSPropertyOp23
 70
     1
102
RTVSPropertyOp24
 70
     1
102
RTVSPropertyOp25
 70
     1
102
RTVSPropertyOp26
 70
     1
102
RTVSPropertyOp27
 70
     1
102
RTVSPropertyOp28
 70
     1
102
RTVSPropertyOp29
 70
     1
102
RTVSPropertyOp30
 70
     1
102
RTVSPropertyOp31
 70
     1
102
RTVSPropertyOp32
 70
     1
  0
ENDSEC
  0
EOF
