  0
SECTION
  2
HEADER
  9
$ACADVER
  1
AC1015
  9
$ACADMAINTVER
 70
    20
  9
$DWGCODEPAGE
  3
ANSI_1252
  9
$INSBASE
 10
9.464814862643089
 20
4.206281095300671
 30
0.0
  9
$EXTMIN
 10
-9.825531227386619
 20
-6.022798108439772
 30
-0.0000000000000076
  9
$EXTMAX
 10
39.87484323310045
 20
25.69241690294641
 30
0.0000000000000076
  9
$LIMMIN
 10
0.0
 20
0.0
  9
$LIMMAX
 10
15.8
 20
9.8
  9
$ORTHOMODE
 70
     0
  9
$REGENMODE
 70
     1
  9
$FILLMODE
 70
     1
  9
$QTEXTMODE
 70
     0
  9
$MIRRTEXT
 70
     1
  9
$LTSCALE
 40
1.0
  9
$ATTMODE
 70
     1
  9
$TEXTSIZE
 40
0.1875
  9
$TRACEWID
 40
0.05
  9
$TEXTSTYLE
  7
STANDARD
  9
$CLAYER
  8
0
  9
$CELTYPE
  6
BYLAYER
  9
$CECOLOR
 62
   256
  9
$CELTSCALE
 40
1.0
  9
$DISPSILH
 70
     0
  9
$DIMSCALE
 40
0.0
  9
$DIMASZ
 40
0.125
  9
$DIMEXO
 40
0.25
  9
$DIMDLI
 40
0.3828125
  9
$DIMRND
 40
0.0
  9
$DIMDLE
 40
0.0
  9
$DIMEXE
 40
0.125
  9
$DIMTP
 40
0.0
  9
$DIMTM
 40
0.0
  9
$DIMTXT
 40
0.1875
  9
$DIMCEN
 40
0.09375
  9
$DIMTSZ
 40
0.0
  9
$DIMTOL
 70
     0
  9
$DIMLIM
 70
     0
  9
$DIMTIH
 70
     0
  9
$DIMTOH
 70
     0
  9
$DIMSE1
 70
     0
  9
$DIMSE2
 70
     0
  9
$DIMTAD
 70
     1
  9
$DIMZIN
 70
     0
  9
$DIMBLK
  1

  9
$DIMASO
 70
     0
  9
$DIMSHO
 70
     1
  9
$DIMPOST
  1

  9
$DIMAPOST
  1

  9
$DIMALT
 70
     0
  9
$DIMALTD
 70
     2
  9
$DIMALTF
 40
25.4
  9
$DIMLFAC
 40
1.0
  9
$DIMTOFL
 70
     0
  9
$DIMTVP
 40
1.0
  9
$DIMTIX
 70
     0
  9
$DIMSOXD
 70
     0
  9
$DIMSAH
 70
     0
  9
$DIMBLK1
  1

  9
$DIMBLK2
  1

  9
$DIMSTYLE
  2
STANDARD
  9
$DIMCLRD
 70
     0
  9
$DIMCLRE
 70
     0
  9
$DIMCLRT
 70
     0
  9
$DIMTFAC
 40
1.0
  9
$DIMGAP
 40
0.09
  9
$DIMJUST
 70
     0
  9
$DIMSD1
 70
     0
  9
$DIMSD2
 70
     0
  9
$DIMTOLJ
 70
     1
  9
$DIMTZIN
 70
     0
  9
$DIMALTZ
 70
     0
  9
$DIMALTTZ
 70
     0
  9
$DIMUPT
 70
     0
  9
$DIMDEC
 70
     5
  9
$DIMTDEC
 70
     5
  9
$DIMALTU
 70
     4
  9
$DIMALTTD
 70
     2
  9
$DIMTXSTY
  7
STANDARD
  9
$DIMAUNIT
 70
     0
  9
$DIMADEC
 70
     0
  9
$DIMALTRND
 40
0.0
  9
$DIMAZIN
 70
     0
  9
$DIMDSEP
 70
    46
  9
$DIMATFIT
 70
     3
  9
$DIMFRAC
 70
     0
  9
$DIMLDRBLK
  1

  9
$DIMLUNIT
 70
     4
  9
$DIMLWD
 70
    -2
  9
$DIMLWE
 70
    -2
  9
$DIMTMOVE
 70
     2
  9
$LUNITS
 70
     2
  9
$LUPREC
 70
     5
  9
$SKETCHINC
 40
0.1
  9
$FILLETRAD
 40
0.0
  9
$AUNITS
 70
     1
  9
$AUPREC
 70
     4
  9
$MENU
  1
acad
  9
$ELEVATION
 40
0.0
  9
$PELEVATION
 40
0.0
  9
$THICKNESS
 40
0.0
  9
$LIMCHECK
 70
     0
  9
$CHAMFERA
 40
0.0
  9
$CHAMFERB
 40
0.0
  9
$CHAMFERC
 40
0.0
  9
$CHAMFERD
 40
0.0
  9
$SKPOLY
 70
     0
  9
$TDCREATE
 40
2450140.523167593
  9
$TDUCREATE
 40
2450140.731500926
  9
$TDUPDATE
 40
2457809.619237558
  9
$TDUUPDATE
 40
2457809.827570891
  9
$TDINDWG
 40
0.1598071875
  9
$TDUSRTIMER
 40
0.1598071875
  9
$USRTIMER
 70
     1
  9
$ANGBASE
 50
0.0
  9
$ANGDIR
 70
     0
  9
$PDMODE
 70
    34
  9
$PDSIZE
 40
0.3
  9
$PLINEWID
 40
0.0
  9
$SPLFRAME
 70
     0
  9
$SPLINETYPE
 70
     6
  9
$SPLINESEGS
 70
     8
  9
$HANDSEED
  5
2A21
  9
$SURFTAB1
 70
     6
  9
$SURFTAB2
 70
     6
  9
$SURFTYPE
 70
     6
  9
$SURFU
 70
     6
  9
$SURFV
 70
     6
  9
$UCSBASE
  2

  9
$UCSNAME
  2

  9
$UCSORG
 10
-9.822498266376307
 20
-6.020862690213913
 30
0.0
  9
$UCSXDIR
 10
1.0
 20
0.0
 30
0.0
  9
$UCSYDIR
 10
0.0
 20
1.0
 30
0.0
  9
$UCSORTHOREF
  2

  9
$UCSORTHOVIEW
 70
     0
  9
$UCSORGTOP
 10
0.0
 20
0.0
 30
0.0
  9
$UCSORGBOTTOM
 10
0.0
 20
0.0
 30
0.0
  9
$UCSORGLEFT
 10
0.0
 20
0.0
 30
0.0
  9
$UCSORGRIGHT
 10
0.0
 20
0.0
 30
0.0
  9
$UCSORGFRONT
 10
0.0
 20
0.0
 30
0.0
  9
$UCSORGBACK
 10
0.0
 20
0.0
 30
0.0
  9
$PUCSBASE
  2

  9
$PUCSNAME
  2

  9
$PUCSORG
 10
0.0
 20
0.0
 30
0.0
  9
$PUCSXDIR
 10
1.0
 20
0.0
 30
0.0
  9
$PUCSYDIR
 10
0.0
 20
1.0
 30
0.0
  9
$PUCSORTHOREF
  2

  9
$PUCSORTHOVIEW
 70
     0
  9
$PUCSORGTOP
 10
0.0
 20
0.0
 30
0.0
  9
$PUCSORGBOTTOM
 10
0.0
 20
0.0
 30
0.0
  9
$PUCSORGLEFT
 10
0.0
 20
0.0
 30
0.0
  9
$PUCSORGRIGHT
 10
0.0
 20
0.0
 30
0.0
  9
$PUCSORGFRONT
 10
0.0
 20
0.0
 30
0.0
  9
$PUCSORGBACK
 10
0.0
 20
0.0
 30
0.0
  9
$USERI1
 70
     0
  9
$USERI2
 70
     0
  9
$USERI3
 70
     0
  9
$USERI4
 70
     0
  9
$USERI5
 70
     0
  9
$USERR1
 40
0.0
  9
$USERR2
 40
0.0
  9
$USERR3
 40
0.0
  9
$USERR4
 40
0.0
  9
$USERR5
 40
0.0
  9
$WORLDVIEW
 70
     1
  9
$SHADEDGE
 70
     3
  9
$SHADEDIF
 70
    70
  9
$TILEMODE
 70
     1
  9
$MAXACTVP
 70
    16
  9
$PINSBASE
 10
0.0
 20
0.0
 30
0.0
  9
$PLIMCHECK
 70
     0
  9
$PEXTMIN
 10
1.000000000000000E+20
 20
1.000000000000000E+20
 30
1.000000000000000E+20
  9
$PEXTMAX
 10
-1.000000000000000E+20
 20
-1.000000000000000E+20
 30
-1.000000000000000E+20
  9
$PLIMMIN
 10
0.0
 20
0.0
  9
$PLIMMAX
 10
12.0
 20
9.0
  9
$UNITMODE
 70
     0
  9
$VISRETAIN
 70
     0
  9
$PLINEGEN
 70
     0
  9
$PSLTSCALE
 70
     1
  9
$TREEDEPTH
 70
  3020
  9
$CMLSTYLE
  2
STANDARD
  9
$CMLJUST
 70
     0
  9
$CMLSCALE
 40
1.0
  9
$PROXYGRAPHICS
 70
     1
  9
$MEASUREMENT
 70
     0
  9
$CELWEIGHT
370
    -1
  9
$ENDCAPS
280
     0
  9
$JOINSTYLE
280
     0
  9
$LWDISPLAY
290
     0
  9
$INSUNITS
 70
     0
  9
$HYPERLINKBASE
  1

  9
$STYLESHEET
  1

  9
$XEDIT
290
     1
  9
$CEPSNTYPE
380
     0
  9
$PSTYLEMODE
290
     1
  9
$FINGERPRINTGUID
  2
{B9A079D0-CE13-11D5-B0F0-00B0D0DA680F}
  9
$VERSIONGUID
  2
{097F5B6B-DFAE-4958-B7E0-286D748E1643}
  9
$EXTNAMES
290
     1
  9
$PSVPSCALE
 40
0.0
  9
$OLESTARTUP
290
     0
  0
ENDSEC
  0
SECTION
  2
CLASSES
  0
CLASS
  1
DICTIONARYVAR
  2
AcDbDictionaryVar
  3
ObjectDBX Classes
 90
        0
280
     0
281
     0
  0
CLASS
  1
ACDBDICTIONARYWDFLT
  2
AcDbDictionaryWithDefault
  3
ObjectDBX Classes
 90
        0
280
     0
281
     0
  0
CLASS
  1
ACDBPLACEHOLDER
  2
AcDbPlaceHolder
  3
ObjectDBX Classes
 90
        0
280
     0
281
     0
  0
CLASS
  1
LAYOUT
  2
AcDbLayout
  3
ObjectDBX Classes
 90
        0
280
     0
281
     0
  0
CLASS
  1
MATERIAL
  2
AcDbMaterial
  3
ObjectDBX Classes
 90
     1153
280
     0
281
     0
  0
CLASS
  1
VISUALSTYLE
  2
AcDbVisualStyle
  3
ObjectDBX Classes
 90
     4095
280
     0
281
     0
  0
CLASS
  1
TABLESTYLE
  2
AcDbTableStyle
  3
ObjectDBX Classes
 90
     4095
280
     0
281
     0
  0
CLASS
  1
SCALE
  2
AcDbScale
  3
ObjectDBX Classes
 90
     1153
280
     0
281
     0
  0
CLASS
  1
MLEADERSTYLE
  2
AcDbMLeaderStyle
  3
ACDB_MLEADERSTYLE_CLASS
 90
     4095
280
     0
281
     0
  0
CLASS
  1
SORTENTSTABLE
  2
AcDbSortentsTable
  3
ObjectDBX Classes
 90
        0
280
     0
281
     0
  0
CLASS
  1
CELLSTYLEMAP
  2
AcDbCellStyleMap
  3
ObjectDBX Classes
 90
     1152
280
     0
281
     0
  0
CLASS
  1
EXACXREFPANELOBJECT
  2
ExAcXREFPanelObject
  3
EXAC_ESW
 90
     1025
280
     0
281
     0
  0
CLASS
  1
NPOCOLLECTION
  2
AcDbImpNonPersistentObjectsCollection
  3
ObjectDBX Classes
 90
     1153
280
     0
281
     0
  0
CLASS
  1
FIELD
  2
AcDbField
  3
ObjectDBX Classes
 90
    33920
280
     0
281
     0
  0
CLASS
  1
FIELDLIST
  2
AcDbFieldList
  3
ObjectDBX Classes
 90
     1152
280
     0
281
     0
  0
ENDSEC
  0
SECTION
  2
TABLES
  0
TABLE
  2
VPORT
  5
8
102
{ACAD_XDICTIONARY
360
10E8
102
}
330
0
100
AcDbSymbolTable
 70
     1
  0
VPORT
  5
1033
330
8
100
AcDbSymbolTableRecord
100
AcDbViewportTableRecord
  2
*Active
 70
     0
 10
0.0
 20
0.0
 11
1.0
 21
1.0
 12
15.02465600285692
 22
9.834809397253316
 13
0.0
 23
0.0
 14
1.0
 24
1.0
 15
0.0
 25
0.0
 16
0.0
 26
0.0
 36
1.0
 17
0.0
 27
0.0
 37
0.0
 40
32.00752114052338
 41
2.389230769230769
 42
50.0
 43
0.0
 44
0.0
 50
0.0
 51
0.0
 71
     0
 72
   100
 73
     1
 74
     0
 75
     0
 76
     0
 77
     0
 78
     0
281
     0
 65
     1
110
-9.822498266376307
120
-6.020862690213913
130
0.0
111
1.0
121
0.0
131
0.0
112
0.0
122
1.0
132
0.0
 79
     0
146
0.0
1001
ACAD_NAV_VCDISPLAY
1070
     3
  0
ENDTAB
  0
TABLE
  2
LTYPE
  5
5
330
0
100
AcDbSymbolTable
 70
     6
  0
LTYPE
  5
11
330
5
100
AcDbSymbolTableRecord
100
AcDbLinetypeTableRecord
  2
BYBLOCK
 70
     0
  3

 72
    65
 73
     0
 40
0.0
  0
LTYPE
  5
12
330
5
100
AcDbSymbolTableRecord
100
AcDbLinetypeTableRecord
  2
BYLAYER
 70
     0
  3

 72
    65
 73
     0
 40
0.0
  0
LTYPE
  5
13
330
5
100
AcDbSymbolTableRecord
100
AcDbLinetypeTableRecord
  2
CONTINUOUS
 70
     0
  3
Solid line
 72
    65
 73
     0
 40
0.0
  0
LTYPE
  5
297C
330
5
100
AcDbSymbolTableRecord
100
AcDbLinetypeTableRecord
  2
DASHED
 70
     0
  3
Dashed __ __ __ __ __ __ __ __ __ __ __ __ __ _
 72
    65
 73
     2
 40
0.75
 49
0.5
 74
     0
 49
-0.25
 74
     0
  0
LTYPE
  5
297D
330
5
100
AcDbSymbolTableRecord
100
AcDbLinetypeTableRecord
  2
DOT
 70
     0
  3
Dot . . . . . . . . . . . . . . . . . . . . . .
 72
    65
 73
     2
 40
0.25
 49
0.0
 74
     0
 49
-0.25
 74
     0
  0
ENDTAB
  0
TABLE
  2
LAYER
  5
2
102
{ACAD_XDICTIONARY
360
10C4
102
}
330
0
100
AcDbSymbolTable
 70
     7
  0
LAYER
  5
E
102
{ACAD_XDICTIONARY
360
10DF
102
}
330
2
100
AcDbSymbolTableRecord
100
AcDbLayerTableRecord
  2
0
 70
     0
 62
     4
  6
CONTINUOUS
370
    -3
390
102C
  0
LAYER
  5
1E
102
{ACAD_XDICTIONARY
360
10E1
102
}
330
2
100
AcDbSymbolTableRecord
100
AcDbLayerTableRecord
  2
KCADSLABEL
 70
     0
 62
     3
  6
CONTINUOUS
370
    -3
390
102C
  0
LAYER
  5
1141
102
{ACAD_XDICTIONARY
360
1142
102
}
330
2
100
AcDbSymbolTableRecord
100
AcDbLayerTableRecord
  2
TEXT
 70
     0
 62
     3
  6
CONTINUOUS
370
    -3
390
102C
  0
LAYER
  5
125B
102
{ACAD_XDICTIONARY
360
125C
102
}
330
2
100
AcDbSymbolTableRecord
100
AcDbLayerTableRecord
  2
KCADSMISC
 70
     0
 62
     1
  6
CONTINUOUS
370
    -3
390
102C
  0
LAYER
  5
297E
330
2
100
AcDbSymbolTableRecord
100
AcDbLayerTableRecord
  2
Kawneer Logo-English
 70
     0
 62
     7
  6
CONTINUOUS
370
    -3
390
102C
1001
AcAecLayerStandard
1000

1000

1001
AcCmTransparency
1071
        0
  0
ENDTAB
  0
TABLE
  2
STYLE
  5
3
330
0
100
AcDbSymbolTable
 70
     1
  0
STYLE
  5
F
330
3
100
AcDbSymbolTableRecord
100
AcDbTextStyleTableRecord
  2
STANDARD
 70
     0
 40
0.125
 41
1.0
 50
0.0
 71
     0
 42
0.1875
  3
arial.ttf
  4

1001
ACAD
1000
Arial
1071
       34
  0
ENDTAB
  0
TABLE
  2
VIEW
  5
6
330
0
100
AcDbSymbolTable
 70
     0
  0
ENDTAB
  0
TABLE
  2
UCS
  5
7
330
0
100
AcDbSymbolTable
 70
     0
  0
ENDTAB
  0
TABLE
  2
APPID
  5
9
330
0
100
AcDbSymbolTable
 70
    23
  0
APPID
  5
10
330
9
100
AcDbSymbolTableRecord
100
AcDbRegAppTableRecord
  2
ACAD
 70
     0
  0
APPID
  5
1145
330
9
100
AcDbSymbolTableRecord
100
AcDbRegAppTableRecord
  2
ACAD_NAV_VCDISPLAY
 70
     0
  0
APPID
  5
297F
330
9
100
AcDbSymbolTableRecord
100
AcDbRegAppTableRecord
  2
ACAD_EXEMPT_FROM_CAD_STANDARDS
 70
     0
  0
APPID
  5
2980
330
9
100
AcDbSymbolTableRecord
100
AcDbRegAppTableRecord
  2
GradientColor1ACI
 70
     0
  0
APPID
  5
2981
330
9
100
AcDbSymbolTableRecord
100
AcDbRegAppTableRecord
  2
GradientColor2ACI
 70
     0
  0
APPID
  5
2982
330
9
100
AcDbSymbolTableRecord
100
AcDbRegAppTableRecord
  2
ACAD_MLEADERVER
 70
     0
  0
APPID
  5
2983
330
9
100
AcDbSymbolTableRecord
100
AcDbRegAppTableRecord
  2
ACAD_PSEXT
 70
     0
  0
APPID
  5
2984
330
9
100
AcDbSymbolTableRecord
100
AcDbRegAppTableRecord
  2
ACAD_DSTYLE_DIMJAG
 70
     0
  0
APPID
  5
2985
330
9
100
AcDbSymbolTableRecord
100
AcDbRegAppTableRecord
  2
ACAD_DSTYLE_DIMTALN
 70
     0
  0
APPID
  5
2986
330
9
100
AcDbSymbolTableRecord
100
AcDbRegAppTableRecord
  2
ACAD_DSTYLE_DIMBREAK
 70
     0
  0
APPID
  5
2987
330
9
100
AcDbSymbolTableRecord
100
AcDbRegAppTableRecord
  2
AcDbDynamicBlockGUID
 70
     0
  0
APPID
  5
2988
330
9
100
AcDbSymbolTableRecord
100
AcDbRegAppTableRecord
  2
ACAUTHENVIRON
 70
     0
  0
APPID
  5
2989
330
9
100
AcDbSymbolTableRecord
100
AcDbRegAppTableRecord
  2
AcDbDynamicBlockTrueName
 70
     0
  0
APPID
  5
298A
330
9
100
AcDbSymbolTableRecord
100
AcDbRegAppTableRecord
  2
AcAecLayerStandard
 70
     0
  0
APPID
  5
298B
330
9
100
AcDbSymbolTableRecord
100
AcDbRegAppTableRecord
  2
AcCmTransparency
 70
     0
  0
ENDTAB
  0
TABLE
  2
DIMSTYLE
  5
A
330
0
100
AcDbSymbolTable
 70
     1
100
AcDbDimStyleTable
 71
     1
340
138
  0
DIMSTYLE
105
138
330
A
100
AcDbSymbolTableRecord
100
AcDbDimStyleTableRecord
  2
STANDARD
 70
     0
340
F
  0
ENDTAB
  0
TABLE
  2
BLOCK_RECORD
  5
1
330
0
100
AcDbSymbolTable
 70
     3
  0
BLOCK_RECORD
  5
17
102
{ACAD_XDICTIONARY
360
1059
102
}
330
1
100
AcDbSymbolTableRecord
100
AcDbBlockTableRecord
  2
*MODEL_SPACE
340
102F
  0
BLOCK_RECORD
  5
14
102
{ACAD_XDICTIONARY
360
1057
102
}
330
1
100
AcDbSymbolTableRecord
100
AcDbBlockTableRecord
  2
*PAPER_SPACE
340
1030
  0
BLOCK_RECORD
  5
2322
330
1
100
AcDbSymbolTableRecord
100
AcDbBlockTableRecord
  2
*X1
340
0
102
{BLKREFS
331
23BB
102
}
  0
BLOCK_RECORD
  5
298E
102
{ACAD_XDICTIONARY
360
2998
102
}
330
1
100
AcDbSymbolTableRecord
100
AcDbBlockTableRecord
  2
Kawneer Logo English
340
0
102
{BLKREFS
331
299C
102
}
1001
ACAD
1000
DesignCenter Data
1002
{
1070
     1
1070
     1
1002
}
  0
ENDTAB
  0
ENDSEC
  0
SECTION
  2
BLOCKS
  0
BLOCK
  5
22
330
17
100
AcDbEntity
  8
0
100
AcDbBlockBegin
  2
*MODEL_SPACE
 70
     0
 10
0.0
 20
0.0
 30
0.0
  3
*MODEL_SPACE
  1

  0
ENDBLK
  5
23
330
17
100
AcDbEntity
  8
0
100
AcDbBlockEnd
  0
BLOCK
  5
20
330
14
100
AcDbEntity
 67
     1
  8
0
100
AcDbBlockBegin
  2
*PAPER_SPACE
 70
     0
 10
0.0
 20
0.0
 30
0.0
  3
*PAPER_SPACE
  1

  0
ENDBLK
  5
21
330
14
100
AcDbEntity
 67
     1
  8
0
100
AcDbBlockEnd
  0
BLOCK
  5
2323
330
2322
100
AcDbEntity
  8
0
100
AcDbBlockBegin
  2
*X1
 70
     1
 10
0.0
 20
0.0
 30
0.0
  3
*X1
  1

  0
LINE
  5
2324
330
2322
100
AcDbEntity
  8
0
 62
     0
100
AcDbLine
 10
2.132999999999999
 20
2.132999999999999
 30
0.0
 11
2.168899999999999
 21
2.168899999999999
 31
0.0
  0
LINE
  5
2325
330
2322
100
AcDbEntity
  8
0
 62
     0
100
AcDbLine
 10
2.132999999999999
 20
2.398165042944954
 30
0.0
 11
2.168899999999999
 21
2.434065042944955
 31
0.0
  0
LINE
  5
2326
330
2322
100
AcDbEntity
  8
0
 62
     0
100
AcDbLine
 10
2.132999999999999
 20
2.663330085889909
 30
0.0
 11
2.168899999999999
 21
2.69923008588991
 31
0.0
  0
LINE
  5
2327
330
2322
100
AcDbEntity
  8
0
 62
     0
100
AcDbLine
 10
2.132999999999998
 20
2.928495128834864
 30
0.0
 11
2.168899999999999
 21
2.964395128834865
 31
0.0
  0
LINE
  5
2328
330
2322
100
AcDbEntity
  8
0
 62
     0
100
AcDbLine
 10
2.132999999999998
 20
3.19366017177982
 30
0.0
 11
2.168899999999999
 21
3.22956017177982
 31
0.0
  0
LINE
  5
2329
330
2322
100
AcDbEntity
  8
0
 62
     0
100
AcDbLine
 10
3.138403850866441
 20
4.199064022646262
 30
0.0
 11
3.247685883169215
 21
4.308346054949036
 31
0.0
  0
LINE
  5
232A
330
2322
100
AcDbEntity
  8
0
 62
     0
100
AcDbLine
 10
2.132999999999998
 20
3.458825214724775
 30
0.0
 11
2.168899999999998
 21
3.494725214724775
 31
0.0
  0
LINE
  5
232B
330
2322
100
AcDbEntity
  8
0
 62
     0
100
AcDbLine
 10
2.511016623063086
 20
3.836841837787862
 30
0.0
 11
2.620298655365857
 21
3.946123870090633
 31
0.0
  0
LINE
  5
232C
330
2322
100
AcDbEntity
  8
0
 62
     0
100
AcDbLine
 10
2.132999999999999
 20
1.867834957055044
 30
0.0
 11
2.1689
 21
1.903734957055044
 31
0.0
  0
LINE
  5
232D
330
2322
100
AcDbEntity
  8
0
 62
     0
100
AcDbLine
 10
2.132999999999999
 20
1.602669914110089
 30
0.0
 11
2.1689
 21
1.638569914110089
 31
0.0
  0
LINE
  5
232E
330
2322
100
AcDbEntity
  8
0
 62
     0
100
AcDbLine
 10
2.133
 20
1.337504871165134
 30
0.0
 11
2.1689
 21
1.373404871165134
 31
0.0
  0
LINE
  5
232F
330
2322
100
AcDbEntity
  8
0
 62
     0
100
AcDbLine
 10
2.133
 20
1.072339828220178
 30
0.0
 11
2.1689
 21
1.108239828220179
 31
0.0
  0
LINE
  5
2330
330
2322
100
AcDbEntity
  8
0
 62
     0
100
AcDbLine
 10
2.132999999999999
 20
2.226749999999999
 30
0.0
 11
2.168899999999999
 21
2.262649999999999
 31
0.0
  0
LINE
  5
2331
330
2322
100
AcDbEntity
  8
0
 62
     0
100
AcDbLine
 10
2.132999999999999
 20
2.491915042944954
 30
0.0
 11
2.168899999999999
 21
2.527815042944955
 31
0.0
  0
LINE
  5
2332
330
2322
100
AcDbEntity
  8
0
 62
     0
100
AcDbLine
 10
2.132999999999999
 20
2.757080085889909
 30
0.0
 11
2.168899999999999
 21
2.79298008588991
 31
0.0
  0
LINE
  5
2333
330
2322
100
AcDbEntity
  8
0
 62
     0
100
AcDbLine
 10
2.132999999999998
 20
3.022245128834864
 30
0.0
 11
2.168899999999999
 21
3.058145128834865
 31
0.0
  0
LINE
  5
2334
330
2322
100
AcDbEntity
  8
0
 62
     0
100
AcDbLine
 10
2.132999999999998
 20
3.287410171779819
 30
0.0
 11
2.168899999999999
 21
3.32331017177982
 31
0.0
  0
LINE
  5
2335
330
2322
100
AcDbEntity
  8
0
 62
     0
100
AcDbLine
 10
2.91658896926165
 20
4.070999141041472
 30
0.0
 11
3.025871001564423
 21
4.180281173344244
 31
0.0
  0
LINE
  5
2336
330
2322
100
AcDbEntity
  8
0
 62
     0
100
AcDbLine
 10
2.132999999999998
 20
3.552575214724774
 30
0.0
 11
2.168899999999998
 21
3.588475214724775
 31
0.0
  0
LINE
  5
2337
330
2322
100
AcDbEntity
  8
0
 62
     0
100
AcDbLine
 10
2.289201741458295
 20
3.708776956183072
 30
0.0
 11
2.398483773761065
 21
3.818058988485842
 31
0.0
  0
LINE
  5
2338
330
2322
100
AcDbEntity
  8
0
 62
     0
100
AcDbLine
 10
2.132999999999999
 20
1.961584957055044
 30
0.0
 11
2.1689
 21
1.997484957055044
 31
0.0
  0
LINE
  5
2339
330
2322
100
AcDbEntity
  8
0
 62
     0
100
AcDbLine
 10
2.132999999999999
 20
1.696419914110089
 30
0.0
 11
2.1689
 21
1.732319914110089
 31
0.0
  0
LINE
  5
233A
330
2322
100
AcDbEntity
  8
0
 62
     0
100
AcDbLine
 10
2.133
 20
1.431254871165133
 30
0.0
 11
2.1689
 21
1.467154871165134
 31
0.0
  0
LINE
  5
233B
330
2322
100
AcDbEntity
  8
0
 62
     0
100
AcDbLine
 10
2.133
 20
1.166089828220178
 30
0.0
 11
2.1689
 21
1.201989828220179
 31
0.0
  0
ENDBLK
  5
233C
330
2322
100
AcDbEntity
  8
0
100
AcDbBlockEnd
  0
BLOCK
  5
299A
330
298E
100
AcDbEntity
  8
0
100
AcDbBlockBegin
  2
Kawneer Logo English
 70
     0
 10
0.0
 20
0.0
 30
0.0
  3
Kawneer Logo English
  1

  0
MTEXT
  5
298F
102
{ACAD_XDICTIONARY
360
29E1
102
}
330
298E
100
AcDbEntity
  8
Kawneer Logo-English
100
AcDbMText
 10
1.510096758583198
 20
0.0372523876656778
 30
0.0
 40
0.036
 41
0.6125900866323382
 71
     3
 72
     5
  1
{\fArial TUR|b0|i0|c0|p34;\T1.05;AN ARCONIC COMPANY}
 73
     1
 44
1.0
1001
ACAD
1000
ACAD_MTEXT_COLUMN_INFO_BEGIN
1070
    75
1070
     2
1070
    79
1070
     0
1070
    76
1070
     1
1070
    78
1070
     0
1070
    48
1040
0.6125900866323382
1070
    49
1040
1.0
1070
    50
1070
     1
1040
0.0
1000
ACAD_MTEXT_COLUMN_INFO_END
1000
MTEXTBEGIN
1070
    73
1070
     1
1070
    44
1040
1.0
1070
    74
1070
     0
1000
MTEXTEND
  0
HATCH
  5
2990
330
298E
100
AcDbEntity
  8
Kawneer Logo-English
100
AcDbHatch
 10
0.0
 20
0.0
 30
0.0
210
0.0
220
0.0
230
1.0
  2
SOLID
 70
     1
 71
     0
 91
        1
 92
        1
 93
       81
 72
     1
 10
0.2706169776412204
 20
0.0336337282279411
 11
0.2687512969786691
 21
0.0350329887248546
 72
     1
 10
0.2687512969786696
 20
0.0350329887248547
 11
0.2633408230572721
 21
0.039137486182467
 72
     1
 10
0.2633408230572729
 20
0.0391374861824669
 11
0.2550385441089194
 21
0.0453875164020133
 72
     1
 10
0.2550385441089191
 20
0.0453875164020132
 11
0.2442175962661241
 21
0.053596511317238
 72
     1
 10
0.2442175962661235
 20
0.0535965113172379
 11
0.2314376837276472
 21
0.0632980507625037
 72
     1
 10
0.2314376837276479
 20
0.0632980507625037
 11
0.2172585106922595
 21
0.0741189986052996
 72
     1
 10
0.2172585106922598
 20
0.0741189986052996
 11
0.2019599292593419
 21
0.0856862187131167
 72
     1
 10
0.201959929259341
 20
0.0856862187131167
 11
0.1862882116939105
 21
0.0976265749534437
 72
     1
 10
0.1862882116939102
 20
0.0976265749534437
 11
0.1706164941284813
 21
0.1095669311937706
 72
     1
 10
0.1706164941284811
 20
0.1095669311937709
 11
0.1553179126955632
 21
0.1211341513015875
 72
     1
 10
0.1553179126955642
 20
0.1211341513015876
 11
0.1411387396601757
 21
0.131955099144384
 72
     1
 10
0.1411387396601755
 20
0.1319550991443839
 11
0.1284521111548274
 21
0.141749922622777
 72
     1
 10
0.1284521111548278
 20
0.1417499226227768
 11
0.117631163312031
 21
0.1499589175380016
 72
     1
 10
0.1176311633120304
 20
0.1499589175380017
 11
0.1094221683968068
 21
0.1563022317906752
 72
     1
 10
0.1094221683968062
 20
0.1563022317906754
 11
0.1041049785085351
 21
0.1604067292482882
 72
     1
 10
0.1041049785085351
 20
0.1604067292482878
 11
0.1023325818791119
 21
0.1618992737783286
 72
     1
 10
0.1023325818791116
 20
0.1618992737783289
 11
0.1043848306079176
 21
0.1636716704077524
 72
     1
 10
0.1043848306079194
 20
0.1636716704077524
 11
0.1100751566286996
 21
0.1683358720641301
 72
     1
 10
0.1100751566286986
 20
0.1683358720641301
 11
0.1189371397758159
 21
0.1757053106812067
 72
     1
 10
0.1189371397758161
 20
0.1757053106812067
 11
0.1304110758505067
 21
0.1851269980270901
 72
     1
 10
0.1304110758505059
 20
0.1851269980270902
 11
0.1439372606540007
 21
0.1963210820023967
 72
     1
 10
0.1439372606540017
 20
0.1963210820023967
 11
0.1589559899875385
 21
0.2087278584083611
 72
     1
 10
0.1589559899875379
 20
0.2087278584083611
 11
0.1750941277186041
 21
0.2220674751456017
 72
     1
 10
0.1750941277186047
 20
0.2220674751456017
 11
0.19169868561531
 21
0.2358735120484796
 72
     1
 10
0.1916986856153105
 20
0.2358735120484796
 11
0.208303243512014
 21
0.2495862649182301
 72
     1
 10
0.2083032435120131
 20
0.2495862649182304
 11
0.2244413812430811
 21
0.2628325976223432
 72
     1
 10
0.2244413812430812
 20
0.2628325976223429
 11
0.239460110576618
 21
0.2753326580614352
 72
     1
 10
0.2394601105766174
 20
0.2753326580614351
 11
0.2529862953801122
 21
0.2864334580036143
 72
     1
 10
0.2529862953801132
 20
0.2864334580036143
 11
0.2643669474216756
 21
0.2958551453494973
 72
     1
 10
0.2643669474216757
 20
0.2958551453494973
 11
0.2731356465356649
 21
0.3031312999334466
 72
     1
 10
0.273135646535664
 20
0.3031312999334466
 11
0.2788259725564443
 21
0.3077955015898243
 72
     1
 10
0.278825972556445
 20
0.3077955015898246
 11
0.2807849372521245
 21
0.3094746141861208
 72
     1
 10
0.2807849372521249
 20
0.3094746141861205
 11
0.2798520969208501
 21
0.3094746141861205
 72
     1
 10
0.2798520969208496
 20
0.3094746141861205
 11
0.2769602918938953
 21
0.3095678982192478
 72
     1
 10
0.2769602918938943
 20
0.3095678982192481
 11
0.2724826583037715
 21
0.3095678982192481
 72
     1
 10
0.2724826583037729
 20
0.3095678982192481
 11
0.2666057642167363
 21
0.3095678982192481
 72
     1
 10
0.266605764216735
 20
0.3095678982192481
 11
0.2597027457652953
 21
0.3095678982192481
 72
     1
 10
0.2597027457652956
 20
0.3095678982192481
 11
0.2519601710157094
 21
0.3095678982192481
 72
     1
 10
0.2519601710157104
 20
0.3095678982192481
 11
0.2437511761004851
 21
0.3095678982192481
 72
     1
 10
0.243751176100484
 20
0.3095678982192481
 11
0.2351690450527495
 21
0.3095678982192481
 72
     1
 10
0.2351690450527495
 20
0.3095678982192481
 11
0.2266801980381413
 21
0.3095678982192481
 72
     1
 10
0.2266801980381423
 20
0.3095678982192481
 11
0.2183779190897905
 21
0.3094746141861208
 72
     1
 10
0.2183779190897899
 20
0.3094746141861205
 11
0.2106353443402037
 21
0.3094746141861205
 72
     1
 10
0.2106353443402029
 20
0.3094746141861205
 11
0.2037323258887632
 21
0.3094746141861205
 72
     1
 10
0.203732325888764
 20
0.3094746141861205
 11
0.1978554318017273
 21
0.3094746141861205
 72
     1
 10
0.1978554318017278
 20
0.3094746141861205
 11
0.1932845141784786
 21
0.3094746141861205
 72
     1
 10
0.1932845141784787
 20
0.3094746141861205
 11
0.1903927091515244
 21
0.3094746141861205
 72
     1
 10
0.1903927091515234
 20
0.3094746141861205
 11
0.1893665847871204
 21
0.3094746141861205
 72
     1
 10
0.1893665847871206
 20
0.3094746141861205
 11
0.1879673242902067
 21
0.3077955015898243
 72
     1
 10
0.1879673242902076
 20
0.3077955015898246
 11
0.1841426789319786
 21
0.3030380159003196
 72
     1
 10
0.1841426789319787
 20
0.3030380159003192
 11
0.1780792167786874
 21
0.29576186131637
 72
     1
 10
0.1780792167786873
 20
0.29576186131637
 11
0.170243357995973
 21
0.2862468899373593
 72
     1
 10
0.170243357995973
 20
0.2862468899373593
 11
0.1610082387163447
 21
0.2750528059620528
 72
     1
 10
0.1610082387163438
 20
0.2750528059620528
 11
0.1507469950723126
 21
0.2624594614898328
 72
     1
 10
0.1507469950723133
 20
0.2624594614898328
 11
0.1396461951301336
 21
0.2491198447525922
 72
     1
 10
0.1396461951301333
 20
0.2491198447525922
 11
0.1282655430885727
 21
0.2352205238165866
 72
     1
 10
0.1282655430885726
 20
0.2352205238165868
 11
0.1168848910470102
 21
0.2214144869137089
 72
     1
 10
0.1168848910470102
 20
0.2214144869137087
 11
0.1058773751379587
 21
0.2079815861433408
 72
     1
 10
0.105877375137958
 20
0.2079815861433408
 11
0.0955228474608004
 21
0.1954815257042486
 72
     1
 10
0.0955228474608019
 20
0.1954815257042488
 11
0.0862877281811736
 21
0.1842874417289424
 72
     1
 10
0.0862877281811727
 20
0.1842874417289424
 11
0.0784518693984583
 21
0.1747724703499316
 72
     1
 10
0.0784518693984584
 20
0.1747724703499314
 11
0.0723884072451672
 21
0.1674963157659821
 72
     1
 10
0.0723884072451671
 20
0.1674963157659822
 11
0.0685637618869363
 21
0.1627388300764767
 72
     1
 10
0.0685637618869364
 20
0.1627388300764767
 11
0.0671645013900242
 21
0.1611530015133082
 72
     1
 10
0.0671645013900251
 20
0.1611530015133082
 11
0.0680040576881734
 21
0.1596604569832674
 72
     1
 10
0.0680040576881726
 20
0.1596604569832674
 11
0.0704294425494878
 21
0.1556492435587824
 72
     1
 10
0.0704294425494871
 20
0.1556492435587824
 11
0.0742540879077179
 21
0.1493059293061089
 72
     1
 10
0.0742540879077192
 20
0.1493059293061089
 11
0.0791048576303511
 21
0.1411902184240116
 72
     1
 10
0.0791048576303508
 20
0.1411902184240116
 11
0.0848884676842594
 21
0.1314886789787458
 72
     1
 10
0.0848884676842596
 20
0.1314886789787459
 11
0.0913250659700619
 21
0.1207610151690772
 72
     1
 10
0.0913250659700613
 20
0.1207610151690775
 11
0.0982280844214992
 21
0.1091937950612604
 72
     1
 10
0.0982280844214985
 20
0.1091937950612603
 11
0.1053176709391927
 21
0.0973467228540611
 72
     1
 10
0.105317670939193
 20
0.0973467228540612
 11
0.1124072574568872
 21
0.0854996506468619
 72
     1
 10
0.1124072574568871
 20
0.0854996506468617
 11
0.1193102759083267
 21
0.0739324305390446
 72
     1
 10
0.1193102759083278
 20
0.0739324305390448
 11
0.1257468741941283
 21
0.0632047667293762
 72
     1
 10
0.1257468741941277
 20
0.063204766729376
 11
0.1315304842480362
 21
0.0535032272841102
 72
     1
 10
0.1315304842480365
 20
0.0535032272841104
 11
0.1363812539706702
 21
0.0453875164020132
 72
     1
 10
0.1363812539706699
 20
0.0453875164020132
 11
0.1402058993288989
 21
0.0391374861824667
 72
     1
 10
0.1402058993288988
 20
0.0391374861824669
 11
0.1426312841902157
 21
0.0350329887248546
 72
     1
 10
0.1426312841902164
 20
0.0350329887248547
 11
0.1434708404883648
 21
0.0336337282279412
 72
     1
 10
0.143470840488364
 20
0.0336337282279411
 11
0.2706169776412211
 21
0.0336337282279411
 97
        0
 75
     0
 76
     1
 98
        1
 10
-0.3743130907707726
 20
-0.2500502867693841
1001
ACAD
1010
0.0
1020
0.0
1030
0.0
  0
HATCH
  5
2991
330
298E
100
AcDbEntity
  8
Kawneer Logo-English
100
AcDbHatch
 10
0.0
 20
0.0
 30
0.0
210
0.0
220
0.0
230
1.0
  2
SOLID
 70
     1
 71
     0
 91
        1
 92
        1
 93
       18
 72
     1
 10
0.0001865656044393
 20
0.2563959993365415
 11
-0.0000000024618153
 21
0.113671428651383
 72
     1
 10
-0.0000000024618159
 20
0.1136714286513832
 11
0.0012126899688416
 21
0.1152572572145516
 72
     1
 10
0.0012126899688421
 20
0.1152572572145516
 11
0.0045709151614355
 21
0.1197348908046738
 72
     1
 10
0.004570915161435
 20
0.119734890804674
 11
0.0098881050497044
 21
0.1268244773223682
 72
     1
 10
0.0098881050497044
 20
0.1268244773223682
 11
0.0166978394680158
 21
0.1359663125688683
 72
     1
 10
0.016697839468016
 20
0.1359663125688683
 11
0.0248135503501131
 21
0.1467872604116651
 72
     1
 10
0.024813550350113
 20
0.1467872604116652
 11
0.0338621015634867
 21
0.1588209006851195
 72
     1
 10
0.0338621015634872
 20
0.1588209006851194
 11
0.0434703569756247
 21
0.1716940972567221
 72
     1
 10
0.0434703569756247
 20
0.1716940972567224
 11
0.0534517485202732
 21
0.1850337139939626
 72
     1
 10
0.0534517485202724
 20
0.1850337139939624
 11
0.0634331400649208
 21
0.1983733307312025
 72
     1
 10
0.0634331400649222
 20
0.1983733307312024
 11
0.0730413954770597
 21
0.2112465273028051
 72
     1
 10
0.0730413954770595
 20
0.2112465273028053
 11
0.0820899466904331
 21
0.2233734516093873
 72
     1
 10
0.0820899466904321
 20
0.2233734516093873
 11
0.0902056575725293
 21
0.2341943994521837
 72
     1
 10
0.0902056575725308
 20
0.2341943994521837
 11
0.0970153919908422
 21
0.2433362346986839
 72
     1
 10
0.0970153919908405
 20
0.2433362346986839
 11
0.1022392978459834
 21
0.2503325371832507
 72
     1
 10
0.1022392978459843
 20
0.2503325371832508
 11
0.1056908070717041
 21
0.2549034548065008
 72
     1
 10
0.1056908070717046
 20
0.254903454806501
 11
0.1069034995023621
 21
0.2564892833696694
 72
     1
 10
0.1069034995023625
 20
0.2564892833696695
 11
0.0001865656044399
 21
0.2563959993365418
 97
        0
 75
     0
 76
     1
 98
        1
 10
-0.3743130907707726
 20
-0.2500502867693841
1001
ACAD
1010
0.0
1020
0.0
1030
0.0
  0
HATCH
  5
2992
330
298E
100
AcDbEntity
  8
Kawneer Logo-English
100
AcDbHatch
 10
0.0
 20
0.0
 30
0.0
210
0.0
220
0.0
230
1.0
  2
SOLID
 70
     1
 71
     0
 91
        2
 92
       16
 93
       76
 72
     1
 10
1.358402087941634
 20
0.1650709309046659
 11
1.358402087941634
 21
0.16796273593162
 72
     1
 10
1.358402087941634
 20
0.1679627359316202
 11
1.358402087941634
 21
0.1729067896873803
 72
     1
 10
1.358402087941634
 20
0.1729067896873803
 11
1.358402087941634
 21
0.1791568199069267
 72
     1
 10
1.358402087941634
 20
0.1791568199069267
 11
1.358402087941634
 21
0.1861531223914932
 72
     1
 10
1.358402087941634
 20
0.186153122391493
 11
1.358402087941634
 21
0.1931494248760595
 72
     1
 10
1.358402087941634
 20
0.1931494248760596
 11
1.358402087941634
 21
0.1994927391287338
 72
     1
 10
1.358402087941634
 20
0.1994927391287336
 11
1.358402087941634
 21
0.2044367928844937
 72
     1
 10
1.358402087941634
 20
0.2044367928844937
 11
1.358402087941634
 21
0.2072353138783208
 72
     1
 10
1.358402087941634
 20
0.2072353138783208
 11
1.359894632471676
 21
0.2072353138783208
 72
     1
 10
1.359894632471676
 20
0.2072353138783208
 11
1.362693153465502
 21
0.2072353138783208
 72
     1
 10
1.362693153465502
 20
0.2072353138783208
 11
1.366424514790605
 21
0.2072353138783208
 72
     1
 10
1.366424514790606
 20
0.2072353138783208
 11
1.371088716446983
 21
0.2072353138783208
 72
     1
 10
1.371088716446982
 20
0.2072353138783208
 11
1.376405906335254
 21
0.2072353138783208
 72
     1
 10
1.376405906335254
 20
0.2072353138783208
 11
1.382282800422289
 21
0.2072353138783208
 72
     1
 10
1.38228280042229
 20
0.2072353138783208
 11
1.388346262575581
 21
0.2072353138783208
 72
     1
 10
1.388346262575579
 20
0.2072353138783208
 11
1.394596292795125
 21
0.2072353138783208
 72
     1
 10
1.394596292795125
 20
0.2072353138783208
 11
1.400753038981545
 21
0.2072353138783208
 72
     1
 10
1.400753038981546
 20
0.2072353138783208
 11
1.406723217101709
 21
0.2072353138783208
 72
     1
 10
1.406723217101708
 20
0.2072353138783208
 11
1.412320259089362
 21
0.2072353138783208
 72
     1
 10
1.412320259089362
 20
0.2072353138783208
 11
1.417264312845122
 21
0.2072353138783208
 72
     1
 10
1.417264312845123
 20
0.2072353138783208
 11
1.421368810302735
 21
0.2072353138783208
 72
     1
 10
1.421368810302734
 20
0.2072353138783208
 11
1.424540467429071
 21
0.2072353138783208
 72
     1
 10
1.424540467429072
 20
0.2072353138783208
 11
1.426592716157878
 21
0.2072353138783208
 72
     1
 10
1.426592716157878
 20
0.2072353138783208
 11
1.427338988422898
 21
0.2072353138783208
 72
     1
 10
1.427338988422898
 20
0.2072353138783208
 11
1.430977065714873
 21
0.207142029845193
 72
     1
 10
1.430977065714872
 20
0.207142029845193
 11
1.434335290907465
 21
0.2068621777458102
 72
     1
 10
1.434335290907465
 20
0.2068621777458102
 11
1.435921119470633
 21
0.2066756096795552
 72
     1
 10
1.435921119470633
 20
0.206675609679555
 11
1.437413664000673
 21
0.2063957575801723
 72
     1
 10
1.437413664000674
 20
0.2063957575801723
 11
1.438906208530714
 21
0.2061159054807895
 72
     1
 10
1.438906208530714
 20
0.2061159054807898
 11
1.440398753060756
 21
0.2056494853151523
 72
     1
 10
1.440398753060756
 20
0.2056494853151521
 11
1.441704729524542
 21
0.2050897811163865
 72
     1
 10
1.441704729524542
 20
0.2050897811163866
 11
1.443010705988328
 21
0.204530076917621
 72
     1
 10
1.443010705988329
 20
0.204530076917621
 11
1.444223398418986
 21
0.2036905206194736
 72
     1
 10
1.444223398418985
 20
0.2036905206194736
 11
1.445436090849643
 21
0.2028509643213252
 72
     1
 10
1.445436090849643
 20
0.2028509643213252
 11
1.446555499247174
 21
0.2018248399569224
 72
     1
 10
1.446555499247173
 20
0.2018248399569223
 11
1.447581623611576
 21
0.2007054315593917
 72
     1
 10
1.447581623611578
 20
0.2007054315593915
 11
1.448607747975981
 21
0.1993061710624781
 72
     1
 10
1.448607747975981
 20
0.1993061710624781
 11
1.449540588307258
 21
0.1978136265324374
 72
     1
 10
1.449540588307256
 20
0.1978136265324373
 11
1.450380144605403
 21
0.1961345139361415
 72
     1
 10
1.450380144605404
 20
0.1961345139361415
 11
1.451126416870426
 21
0.1944554013398453
 72
     1
 10
1.451126416870426
 20
0.1944554013398454
 11
1.451592837036063
 21
0.1929628568098046
 72
     1
 10
1.451592837036062
 20
0.1929628568098046
 11
1.451965973168573
 21
0.1913770282466361
 72
     1
 10
1.451965973168574
 20
0.1913770282466361
 11
1.452245825267955
 21
0.1899777677497231
 72
     1
 10
1.452245825267954
 20
0.1899777677497231
 11
1.452432393334211
 21
0.188671791285937
 72
     1
 10
1.452432393334211
 20
0.1886717912859369
 11
1.452432393334211
 21
0.1874590988552789
 72
     1
 10
1.452432393334211
 20
0.1874590988552789
 11
1.452525677367338
 21
0.1863396904577482
 72
     1
 10
1.452525677367337
 20
0.1863396904577481
 11
1.452432393334211
 21
0.1844740097951972
 72
     1
 10
1.452432393334211
 20
0.1844740097951974
 11
1.452245825267955
 21
0.1827948971989012
 72
     1
 10
1.452245825267954
 20
0.1827948971989009
 11
1.451872689135445
 21
0.1810225005694773
 72
     1
 10
1.451872689135446
 20
0.1810225005694774
 11
1.451406268969809
 21
0.1794366720063093
 72
     1
 10
1.451406268969809
 20
0.1794366720063094
 11
1.450846564771043
 21
0.1779441274762682
 72
     1
 10
1.450846564771041
 20
0.1779441274762681
 11
1.450100292506021
 21
0.1764515829462274
 72
     1
 10
1.450100292506023
 20
0.1764515829462275
 11
1.449260736207875
 21
0.1750523224493141
 72
     1
 10
1.449260736207873
 20
0.1750523224493139
 11
1.448327895876597
 21
0.1737463459855283
 72
     1
 10
1.448327895876596
 20
0.1737463459855281
 11
1.44702191941281
 21
0.1723470854886151
 72
     1
 10
1.447021919412811
 20
0.1723470854886151
 11
1.445715942949025
 21
0.1711343930579568
 72
     1
 10
1.445715942949026
 20
0.1711343930579568
 11
1.444316682452114
 21
0.1700149846604262
 72
     1
 10
1.444316682452114
 20
0.1700149846604259
 11
1.442824137922072
 21
0.168988860296023
 72
     1
 10
1.442824137922072
 20
0.168988860296023
 11
1.441238309358904
 21
0.1682425880310024
 72
     1
 10
1.441238309358902
 20
0.1682425880310024
 11
1.439559196762608
 21
0.1674963157659821
 72
     1
 10
1.439559196762608
 20
0.1674963157659822
 11
1.437880084166311
 21
0.1669366115672166
 72
     1
 10
1.437880084166311
 20
0.1669366115672167
 11
1.436107687536888
 21
0.1664701914015788
 72
     1
 10
1.436107687536888
 20
0.1664701914015789
 11
1.434242006874337
 21
0.166003771235941
 72
     1
 10
1.434242006874337
 20
0.1660037712359412
 11
1.432376326211786
 21
0.1657239191365588
 72
     1
 10
1.432376326211785
 20
0.1657239191365585
 11
1.430417361516107
 21
0.1655373510703035
 72
     1
 10
1.430417361516108
 20
0.1655373510703037
 11
1.428458396820429
 21
0.1653507830040482
 72
     1
 10
1.428458396820428
 20
0.1653507830040482
 11
1.424353899362817
 21
0.1651642149377932
 72
     1
 10
1.424353899362817
 20
0.1651642149377932
 11
1.420156117872077
 21
0.1650709309046658
 72
     1
 10
1.420156117872076
 20
0.1650709309046659
 11
1.41773073301076
 21
0.1650709309046659
 72
     1
 10
1.417730733010761
 20
0.1650709309046659
 11
1.411107566658704
 21
0.1650709309046659
 72
     1
 10
1.411107566658702
 20
0.1650709309046659
 11
1.401779163345947
 21
0.1650709309046659
 72
     1
 10
1.401779163345949
 20
0.1650709309046659
 11
1.390958215503152
 21
0.1650709309046659
 72
     1
 10
1.390958215503152
 20
0.1650709309046659
 11
1.379950699594101
 21
0.1650709309046659
 72
     1
 10
1.379950699594099
 20
0.1650709309046659
 11
1.369969308049451
 21
0.1650709309046659
 72
     1
 10
1.369969308049451
 20
0.1650709309046659
 11
1.362320017332992
 21
0.1650709309046659
 72
     1
 10
1.362320017332992
 20
0.1650709309046659
 11
1.358402087941635
 21
0.1650709309046659
 97
        0
 92
        1
 93
      107
 72
     1
 10
1.443756978253348
 20
0.1485596570410883
 11
1.446928635379685
 21
0.1492126452729816
 72
     1
 10
1.446928635379685
 20
0.1492126452729817
 11
1.449540588307256
 21
0.1498656335048746
 72
     1
 10
1.449540588307256
 20
0.1498656335048745
 11
1.451872689135445
 21
0.1506119057698948
 72
     1
 10
1.451872689135446
 20
0.1506119057698946
 11
1.45401822189738
 21
0.1514514620680426
 72
     1
 10
1.45401822189738
 20
0.1514514620680425
 11
1.455883902559929
 21
0.1521977343330632
 72
     1
 10
1.455883902559929
 20
0.1521977343330631
 11
1.457563015156225
 21
0.1530372906312111
 72
     1
 10
1.457563015156225
 20
0.1530372906312111
 11
1.459148843719394
 21
0.1539701309624869
 72
     1
 10
1.459148843719394
 20
0.1539701309624866
 11
1.460641388249434
 21
0.1549029712937624
 72
     1
 10
1.460641388249434
 20
0.1549029712937622
 11
1.462133932779476
 21
0.155835811625038
 72
     1
 10
1.462133932779476
 20
0.155835811625038
 11
1.463439909243262
 21
0.1568619359894408
 72
     1
 10
1.463439909243262
 20
0.1568619359894408
 11
1.464745885707048
 21
0.1579813443869714
 72
     1
 10
1.464745885707047
 20
0.1579813443869716
 11
1.465865294104579
 21
0.1591007527845022
 72
     1
 10
1.465865294104579
 20
0.1591007527845025
 11
1.466984702502109
 21
0.1602201611820331
 72
     1
 10
1.466984702502108
 20
0.1602201611820328
 11
1.468010826866511
 21
0.1613395695795634
 72
     1
 10
1.468010826866511
 20
0.1613395695795637
 11
1.468943667197788
 21
0.1625522620102216
 72
     1
 10
1.468943667197788
 20
0.1625522620102216
 11
1.469876507529063
 21
0.1636716704077522
 72
     1
 10
1.469876507529063
 20
0.1636716704077524
 11
1.470622779794084
 21
0.1648843628384107
 72
     1
 10
1.470622779794084
 20
0.1648843628384107
 11
1.471462336092232
 21
0.1661903393021964
 72
     1
 10
1.471462336092232
 20
0.1661903393021967
 11
1.472115324324125
 21
0.1674030317328546
 72
     1
 10
1.472115324324124
 20
0.1674030317328546
 11
1.472768312556016
 21
0.1686157241635125
 72
     1
 10
1.472768312556017
 20
0.1686157241635125
 11
1.473328016754783
 21
0.1699217006272986
 72
     1
 10
1.473328016754782
 20
0.1699217006272989
 11
1.47379443692042
 21
0.1711343930579568
 72
     1
 10
1.47379443692042
 20
0.1711343930579568
 11
1.474260857086057
 21
0.1724403695217425
 72
     1
 10
1.474260857086058
 20
0.1724403695217424
 11
1.474727277251697
 21
0.1736530619524008
 72
     1
 10
1.474727277251697
 20
0.173653061952401
 11
1.475380265483589
 21
0.1760784468137175
 72
     1
 10
1.475380265483588
 20
0.1760784468137173
 11
1.475846685649225
 21
0.1785038316750338
 72
     1
 10
1.475846685649226
 20
0.1785038316750335
 11
1.476219821781737
 21
0.1808359325032223
 72
     1
 10
1.476219821781738
 20
0.1808359325032223
 11
1.47649967388112
 21
0.1830747492982838
 72
     1
 10
1.47649967388112
 20
0.1830747492982838
 11
1.476592957914248
 21
0.1851269980270901
 72
     1
 10
1.476592957914248
 20
0.1851269980270902
 11
1.476686241947374
 21
0.1870859627227688
 72
     1
 10
1.476686241947375
 20
0.1870859627227687
 11
1.476592957914249
 21
0.1888583593521923
 72
     1
 10
1.476592957914248
 20
0.1888583593521922
 11
1.476499673881119
 21
0.1906307559816158
 72
     1
 10
1.47649967388112
 20
0.1906307559816159
 11
1.476406389847991
 21
0.1924031526110394
 72
     1
 10
1.476406389847991
 20
0.1924031526110394
 11
1.476126537748608
 21
0.1940822652073352
 72
     1
 10
1.476126537748608
 20
0.1940822652073352
 11
1.475846685649226
 21
0.195761377803631
 72
     1
 10
1.475846685649226
 20
0.1957613778036309
 11
1.475566833549843
 21
0.1974404903999272
 72
     1
 10
1.475566833549843
 20
0.1974404903999272
 11
1.475100413384206
 21
0.1990263189630953
 72
     1
 10
1.475100413384205
 20
0.1990263189630952
 11
1.474633993218568
 21
0.2006121475262637
 72
     1
 10
1.474633993218568
 20
0.2006121475262639
 11
1.47416757305293
 21
0.2021046920563051
 72
     1
 10
1.474167573052932
 20
0.2021046920563049
 11
1.473514584821038
 21
0.2035972365863457
 72
     1
 10
1.473514584821037
 20
0.2035972365863459
 11
1.472954880622271
 21
0.2050897811163867
 72
     1
 10
1.472954880622272
 20
0.2050897811163866
 11
1.472208608357252
 21
0.2064890416133
 72
     1
 10
1.472208608357252
 20
0.2064890416133001
 11
1.471462336092232
 21
0.2078883021102135
 72
     1
 10
1.471462336092232
 20
0.2078883021102136
 11
1.470622779794083
 21
0.2091942785739993
 72
     1
 10
1.470622779794084
 20
0.2091942785739991
 11
1.469783223495935
 21
0.2105002550377848
 72
     1
 10
1.469783223495934
 20
0.2105002550377851
 11
1.468850383164659
 21
0.2118062315015707
 72
     1
 10
1.468850383164661
 20
0.2118062315015709
 11
1.467917542833386
 21
0.2130189239322288
 72
     1
 10
1.467917542833385
 20
0.2130189239322289
 11
1.466891418468982
 21
0.2141383323297595
 72
     1
 10
1.466891418468982
 20
0.2141383323297595
 11
1.465772010071451
 21
0.2153510247604178
 72
     1
 10
1.46577201007145
 20
0.215351024760418
 11
1.464652601673919
 21
0.2163771491248209
 72
     1
 10
1.46465260167392
 20
0.2163771491248209
 11
1.463533193276389
 21
0.2174032734892238
 72
     1
 10
1.463533193276389
 20
0.2174032734892238
 11
1.462227216812603
 21
0.2184293978536266
 72
     1
 10
1.462227216812602
 20
0.2184293978536266
 11
1.461014524381945
 21
0.2193622381849024
 72
     1
 10
1.461014524381946
 20
0.2193622381849023
 11
1.459615263885032
 21
0.2202950785161781
 72
     1
 10
1.459615263885031
 20
0.2202950785161782
 11
1.458309287421245
 21
0.2211346348143262
 72
     1
 10
1.458309287421246
 20
0.221134634814326
 11
1.456816742891206
 21
0.221974191112474
 72
     1
 10
1.456816742891206
 20
0.2219741911124738
 11
1.455417482394292
 21
0.2227204633774945
 72
     1
 10
1.455417482394291
 20
0.2227204633774944
 11
1.453831653831122
 21
0.2233734516093874
 72
     1
 10
1.453831653831123
 20
0.2233734516093873
 11
1.452339109301082
 21
0.2240264398412803
 72
     1
 10
1.452339109301082
 20
0.2240264398412803
 11
1.450659996704785
 21
0.2245861440400459
 72
     1
 10
1.450659996704787
 20
0.2245861440400457
 11
1.44907416814162
 21
0.2251458482388108
 72
     1
 10
1.449074168141619
 20
0.2251458482388109
 11
1.447301771512194
 21
0.2256122684044489
 72
     1
 10
1.447301771512194
 20
0.2256122684044488
 11
1.445249522783388
 21
0.2261719726032139
 72
     1
 10
1.445249522783388
 20
0.226171972603214
 11
1.44329055808771
 21
0.2265451087357246
 72
     1
 10
1.443290558087712
 20
0.2265451087357244
 11
1.441145025325778
 21
0.2269182448682345
 72
     1
 10
1.441145025325776
 20
0.2269182448682345
 11
1.438906208530714
 21
0.2271980969676173
 72
     1
 10
1.438906208530714
 20
0.2271980969676173
 11
1.436387539636271
 21
0.2273846650338724
 72
     1
 10
1.436387539636271
 20
0.2273846650338724
 11
1.433495734609316
 21
0.2275712331001274
 72
     1
 10
1.433495734609317
 20
0.2275712331001274
 11
1.430044225383597
 21
0.2276645171332552
 72
     1
 10
1.430044225383597
 20
0.2276645171332549
 11
1.42612629599224
 21
0.2277578011663822
 72
     1
 10
1.42612629599224
 20
0.2277578011663825
 11
1.426033011959112
 21
0.2277578011663825
 72
     1
 10
1.426033011959111
 20
0.2277578011663825
 11
1.33489451159349
 21
0.2277578011663825
 72
     1
 10
1.334894511593491
 20
0.2277578011663825
 11
1.334894511593491
 21
0.0926825211976832
 72
     1
 10
1.334894511593491
 20
0.0926825211976832
 11
1.358588656007891
 21
0.0926825211976832
 72
     1
 10
1.358588656007891
 20
0.0926825211976832
 11
1.358588656007891
 21
0.0947347699264896
 72
     1
 10
1.358588656007891
 20
0.0947347699264896
 11
1.358588656007891
 21
0.1001452438478876
 72
     1
 10
1.358588656007891
 20
0.1001452438478875
 11
1.358588656007891
 21
0.1079811026306024
 72
     1
 10
1.358588656007891
 20
0.1079811026306024
 11
1.358588656007891
 21
0.1170296538439752
 72
     1
 10
1.358588656007891
 20
0.1170296538439753
 11
1.358588656007891
 21
0.1262647731236032
 72
     1
 10
1.358588656007891
 20
0.1262647731236031
 11
1.358588656007891
 21
0.1347536201382103
 72
     1
 10
1.358588656007891
 20
0.1347536201382104
 11
1.358588656007891
 21
0.1412835024571394
 72
     1
 10
1.358588656007891
 20
0.1412835024571393
 11
1.358588656007891
 21
0.1448282957159864
 72
     1
 10
1.358588656007891
 20
0.1448282957159865
 11
1.362320017332992
 21
0.1448282957159865
 72
     1
 10
1.362320017332992
 20
0.1448282957159865
 11
1.369409603850688
 21
0.1448282957159865
 72
     1
 10
1.369409603850688
 20
0.1448282957159865
 11
1.378738007163443
 21
0.1448282957159865
 72
     1
 10
1.378738007163443
 20
0.1448282957159865
 11
1.388999250807475
 21
0.1448282957159865
 72
     1
 10
1.388999250807473
 20
0.1448282957159865
 11
1.399260494451505
 21
0.1448282957159865
 72
     1
 10
1.399260494451506
 20
0.1448282957159865
 11
1.408215761631749
 21
0.1448282957159865
 72
     1
 10
1.408215761631748
 20
0.1448282957159865
 11
1.414745643950677
 21
0.1448282957159865
 72
     1
 10
1.414745643950678
 20
0.1448282957159865
 11
1.41773073301076
 21
0.1448282957159865
 72
     1
 10
1.417730733010761
 20
0.1448282957159865
 11
1.420062833838949
 21
0.1420297747221594
 72
     1
 10
1.420062833838949
 20
0.1420297747221597
 11
1.425193455660966
 21
0.1359663125688683
 72
     1
 10
1.425193455660965
 20
0.1359663125688683
 11
1.432283042178659
 21
0.1275707495873888
 72
     1
 10
1.432283042178659
 20
0.1275707495873886
 11
1.440305469027628
 21
0.1180557782083779
 72
     1
 10
1.440305469027629
 20
0.1180557782083781
 11
1.448234611843471
 21
0.1087273748956225
 72
     1
 10
1.448234611843471
 20
0.1087273748956225
 11
1.455044346261782
 21
0.1006116640135252
 72
     1
 10
1.455044346261782
 20
0.1006116640135252
 11
1.459895115984414
 21
0.0948280539596167
 72
     1
 10
1.459895115984414
 20
0.0948280539596169
 11
1.461760796646965
 21
0.0926825211976832
 72
     1
 10
1.461760796646967
 20
0.0926825211976832
 11
1.49254452757906
 21
0.0926825211976832
 72
     1
 10
1.492544527579059
 20
0.0926825211976832
 11
1.490678846916508
 21
0.0948280539596169
 72
     1
 10
1.490678846916508
 20
0.0948280539596169
 11
1.48564150912762
 21
0.100518379980398
 72
     1
 10
1.48564150912762
 20
0.1005183799803981
 11
1.478458638576797
 21
0.1088206589287502
 72
     1
 10
1.478458638576798
 20
0.1088206589287502
 11
1.470063075595318
 21
0.1183356303077609
 72
     1
 10
1.470063075595317
 20
0.118335630307761
 11
1.461480944547582
 21
0.1282237378192818
 72
     1
 10
1.461480944547582
 20
0.1282237378192818
 11
1.453551801731739
 21
0.1372722890326546
 72
     1
 10
1.45355180173174
 20
0.1372722890326546
 11
1.447395055545323
 21
0.1444551595834761
 72
     1
 10
1.447395055545323
 20
0.1444551595834759
 11
1.443756978253349
 21
0.1485596570410882
 97
        0
 75
     0
 76
     1
 98
        1
 10
-0.3743130907707726
 20
-0.2500502867693841
1001
ACAD
1010
0.0
1020
0.0
1030
0.0
  0
HATCH
  5
2993
330
298E
100
AcDbEntity
  8
Kawneer Logo-English
100
AcDbHatch
 10
0.0
 20
0.0
 30
0.0
210
0.0
220
0.0
230
1.0
  2
SOLID
 70
     1
 71
     0
 91
        1
 92
        1
 93
       87
 72
     1
 10
1.205602841678699
 20
0.1525708704655737
 11
1.207468522341251
 21
0.1525708704655737
 72
     1
 10
1.207468522341252
 20
0.1525708704655737
 11
1.211199883666355
 21
0.1525708704655737
 72
     1
 10
1.211199883666355
 20
0.1525708704655737
 11
1.216517073554626
 21
0.1525708704655737
 72
     1
 10
1.216517073554626
 20
0.1525708704655737
 11
1.223046955873555
 21
0.1525708704655737
 72
     1
 10
1.223046955873553
 20
0.1525708704655737
 11
1.230602962556885
 21
0.1525708704655737
 72
     1
 10
1.230602962556885
 20
0.1525708704655737
 11
1.238998525538365
 21
0.1525708704655737
 72
     1
 10
1.238998525538365
 20
0.1525708704655737
 11
1.247767224652354
 21
0.1525708704655737
 72
     1
 10
1.247767224652355
 20
0.1525708704655737
 11
1.256815775865728
 21
0.1525708704655737
 72
     1
 10
1.256815775865729
 20
0.1525708704655737
 11
1.265771043045974
 21
0.1525708704655737
 72
     1
 10
1.265771043045973
 20
0.1525708704655737
 11
1.274446458126836
 21
0.1525708704655737
 72
     1
 10
1.274446458126837
 20
0.1525708704655737
 11
1.282562169008935
 21
0.1525708704655737
 72
     1
 10
1.282562169008935
 20
0.1525708704655737
 11
1.289745039559756
 21
0.1525708704655737
 72
     1
 10
1.289745039559755
 20
0.1525708704655737
 11
1.295808501713046
 21
0.1525708704655737
 72
     1
 10
1.295808501713046
 20
0.1525708704655737
 11
1.300472703369423
 21
0.1525708704655737
 72
     1
 10
1.300472703369423
 20
0.1525708704655737
 11
1.303457792429505
 21
0.1525708704655737
 72
     1
 10
1.303457792429505
 20
0.1525708704655737
 11
1.304483916793908
 21
0.1525708704655737
 72
     1
 10
1.304483916793908
 20
0.1525708704655737
 11
1.304483916793908
 21
0.1730000737205081
 72
     1
 10
1.304483916793908
 20
0.1730000737205078
 11
1.303457792429505
 21
0.1730000737205078
 72
     1
 10
1.303457792429505
 20
0.1730000737205078
 11
1.300472703369423
 21
0.1730000737205078
 72
     1
 10
1.300472703369423
 20
0.1730000737205078
 11
1.295808501713045
 21
0.1730000737205078
 72
     1
 10
1.295808501713046
 20
0.1730000737205078
 11
1.289745039559754
 21
0.1730000737205078
 72
     1
 10
1.289745039559755
 20
0.1730000737205078
 11
1.282562169008934
 21
0.1730000737205078
 72
     1
 10
1.282562169008935
 20
0.1730000737205078
 11
1.274446458126837
 21
0.1730000737205078
 72
     1
 10
1.274446458126837
 20
0.1730000737205078
 11
1.265771043045975
 21
0.1730000737205078
 72
     1
 10
1.265771043045973
 20
0.1730000737205078
 11
1.256815775865728
 21
0.1730000737205078
 72
     1
 10
1.256815775865729
 20
0.1730000737205078
 11
1.247767224652355
 21
0.1730000737205078
 72
     1
 10
1.247767224652355
 20
0.1730000737205078
 11
1.238998525538365
 21
0.1730000737205078
 72
     1
 10
1.238998525538365
 20
0.1730000737205078
 11
1.230602962556885
 21
0.1730000737205078
 72
     1
 10
1.230602962556885
 20
0.1730000737205078
 11
1.223046955873553
 21
0.1730000737205078
 72
     1
 10
1.223046955873553
 20
0.1730000737205078
 11
1.216517073554625
 21
0.1730000737205078
 72
     1
 10
1.216517073554626
 20
0.1730000737205078
 11
1.211199883666355
 21
0.1730000737205078
 72
     1
 10
1.211199883666355
 20
0.1730000737205078
 11
1.207468522341252
 21
0.1730000737205078
 72
     1
 10
1.207468522341252
 20
0.1730000737205078
 11
1.205602841678701
 21
0.1730000737205078
 72
     1
 10
1.205602841678699
 20
0.1730000737205078
 11
1.205602841678699
 21
0.1754254585818243
 72
     1
 10
1.205602841678699
 20
0.1754254585818245
 11
1.205602841678699
 21
0.1794366720063095
 72
     1
 10
1.205602841678699
 20
0.1794366720063094
 11
1.205602841678699
 21
0.1843807257620694
 72
     1
 10
1.205602841678699
 20
0.1843807257620694
 11
1.205602841678699
 21
0.1898844837165951
 72
     1
 10
1.205602841678699
 20
0.1898844837165951
 11
1.205602841678699
 21
0.1952949576379935
 72
     1
 10
1.205602841678699
 20
0.1952949576379937
 11
1.205602841678699
 21
0.2003322954268815
 72
     1
 10
1.205602841678699
 20
0.2003322954268814
 11
1.205602841678699
 21
0.2042502248182386
 72
     1
 10
1.205602841678699
 20
0.2042502248182386
 11
1.205602841678699
 21
0.206675609679555
 72
     1
 10
1.205602841678699
 20
0.206675609679555
 11
1.207468522341251
 21
0.206675609679555
 72
     1
 10
1.207468522341252
 20
0.206675609679555
 11
1.211293167699483
 21
0.206675609679555
 72
     1
 10
1.211293167699483
 20
0.206675609679555
 11
1.21670364162088
 21
0.206675609679555
 72
     1
 10
1.216703641620879
 20
0.206675609679555
 11
1.223420092006063
 21
0.206675609679555
 72
     1
 10
1.223420092006064
 20
0.206675609679555
 11
1.231255950788778
 21
0.206675609679555
 72
     1
 10
1.231255950788778
 20
0.206675609679555
 11
1.239744797803386
 21
0.206675609679555
 72
     1
 10
1.239744797803385
 20
0.206675609679555
 11
1.248886633049885
 21
0.206675609679555
 72
     1
 10
1.248886633049885
 20
0.206675609679555
 11
1.258121752329513
 21
0.206675609679555
 72
     1
 10
1.258121752329514
 20
0.206675609679555
 11
1.267356871609143
 21
0.206675609679555
 72
     1
 10
1.267356871609142
 20
0.206675609679555
 11
1.276218854756259
 21
0.206675609679555
 72
     1
 10
1.276218854756259
 20
0.206675609679555
 11
1.284521133704611
 21
0.206675609679555
 72
     1
 10
1.284521133704611
 20
0.206675609679555
 11
1.291890572321688
 21
0.206675609679555
 72
     1
 10
1.291890572321688
 20
0.206675609679555
 11
1.298140602541234
 21
0.206675609679555
 72
     1
 10
1.298140602541234
 20
0.206675609679555
 11
1.30289808823074
 21
0.206675609679555
 72
     1
 10
1.30289808823074
 20
0.206675609679555
 11
1.305976461323949
 21
0.206675609679555
 72
     1
 10
1.305976461323949
 20
0.206675609679555
 11
1.30709586972148
 21
0.206675609679555
 72
     1
 10
1.307095869721479
 20
0.206675609679555
 11
1.307095869721479
 21
0.2277578011663822
 72
     1
 10
1.307095869721479
 20
0.2277578011663825
 11
1.304577200827036
 21
0.2277578011663825
 72
     1
 10
1.304577200827037
 20
0.2277578011663825
 11
1.182188549363684
 21
0.2277578011663825
 72
     1
 10
1.182188549363684
 20
0.2277578011663825
 11
1.182188549363684
 21
0.0926825211976832
 72
     1
 10
1.182188549363684
 20
0.0926825211976832
 11
1.311853355410986
 21
0.0926825211976832
 72
     1
 10
1.311853355410985
 20
0.0926825211976832
 11
1.311853355410985
 21
0.113671428651383
 72
     1
 10
1.311853355410985
 20
0.1136714286513832
 11
1.310733947013454
 21
0.1136714286513832
 72
     1
 10
1.310733947013455
 20
0.1136714286513832
 11
1.307469005853991
 21
0.1136714286513832
 72
     1
 10
1.307469005853991
 20
0.1136714286513832
 11
1.302431668065102
 21
0.1136714286513832
 72
     1
 10
1.302431668065103
 20
0.1136714286513832
 11
1.295901785746174
 21
0.1136714286513832
 72
     1
 10
1.295901785746174
 20
0.1136714286513832
 11
1.288159210996586
 21
0.1136714286513832
 72
     1
 10
1.288159210996587
 20
0.1136714286513832
 11
1.279483795915724
 21
0.1136714286513832
 72
     1
 10
1.279483795915723
 20
0.1136714286513832
 11
1.270155392602968
 21
0.1136714286513832
 72
     1
 10
1.270155392602969
 20
0.1136714286513832
 11
1.260547137190832
 21
0.1136714286513832
 72
     1
 10
1.260547137190831
 20
0.1136714286513832
 11
1.250752313712437
 21
0.1136714286513832
 72
     1
 10
1.250752313712437
 20
0.1136714286513832
 11
1.241330626366554
 21
0.1136714286513832
 72
     1
 10
1.241330626366555
 20
0.1136714286513832
 11
1.23237535918631
 21
0.1136714286513832
 72
     1
 10
1.232375359186308
 20
0.1136714286513832
 11
1.224166364271082
 21
0.1136714286513832
 72
     1
 10
1.224166364271083
 20
0.1136714286513832
 11
1.217170061786517
 21
0.1136714286513832
 72
     1
 10
1.217170061786517
 20
0.1136714286513832
 11
1.211479735765737
 21
0.1136714286513832
 72
     1
 10
1.211479735765737
 20
0.1136714286513832
 11
1.20756180637438
 21
0.1136714286513832
 72
     1
 10
1.207561806374379
 20
0.1136714286513832
 11
1.2056028416787
 21
0.1136714286513832
 72
     1
 10
1.205602841678699
 20
0.1136714286513832
 11
1.205602841678699
 21
0.1163766656120825
 72
     1
 10
1.205602841678699
 20
0.1163766656120823
 11
1.205602841678699
 21
0.1209475832353323
 72
     1
 10
1.205602841678699
 20
0.1209475832353325
 11
1.205602841678699
 21
0.1267311932892411
 72
     1
 10
1.205602841678699
 20
0.1267311932892408
 11
1.205602841678699
 21
0.1330745075419143
 72
     1
 10
1.205602841678699
 20
0.1330745075419144
 11
1.205602841678699
 21
0.1395111058277156
 72
     1
 10
1.205602841678699
 20
0.1395111058277158
 11
1.205602841678699
 21
0.1452947158816239
 72
     1
 10
1.205602841678699
 20
0.145294715881624
 11
1.205602841678699
 21
0.1498656335048746
 72
     1
 10
1.205602841678699
 20
0.1498656335048745
 11
1.205602841678699
 21
0.1525708704655738
 97
        0
 75
     0
 76
     1
 98
        1
 10
-0.3743130907707726
 20
-0.2500502867693841
1001
ACAD
1010
0.0
1020
0.0
1030
0.0
  0
HATCH
  5
2994
330
298E
100
AcDbEntity
  8
Kawneer Logo-English
100
AcDbHatch
 10
0.0
 20
0.0
 30
0.0
210
0.0
220
0.0
230
1.0
  2
SOLID
 70
     1
 71
     0
 91
        1
 92
        1
 93
       87
 72
     1
 10
1.049352086190046
 20
0.1525708704655737
 11
1.051217766852597
 21
0.1525708704655737
 72
     1
 10
1.051217766852596
 20
0.1525708704655737
 11
1.054949128177699
 21
0.1525708704655737
 72
     1
 10
1.0549491281777
 20
0.1525708704655737
 11
1.060173034032843
 21
0.1525708704655737
 72
     1
 10
1.060173034032843
 20
0.1525708704655737
 11
1.0667962003849
 21
0.1525708704655737
 72
     1
 10
1.0667962003849
 20
0.1525708704655737
 11
1.074352207068231
 21
0.1525708704655737
 72
     1
 10
1.074352207068232
 20
0.1525708704655737
 11
1.082747770049711
 21
0.1525708704655737
 72
     1
 10
1.082747770049711
 20
0.1525708704655737
 11
1.0915164691637
 21
0.1525708704655737
 72
     1
 10
1.091516469163701
 20
0.1525708704655737
 11
1.100565020377075
 21
0.1525708704655737
 72
     1
 10
1.100565020377073
 20
0.1525708704655737
 11
1.109520287557319
 21
0.1525708704655737
 72
     1
 10
1.10952028755732
 20
0.1525708704655737
 11
1.118195702638183
 21
0.1525708704655737
 72
     1
 10
1.118195702638182
 20
0.1525708704655737
 11
1.126218129487151
 21
0.1525708704655737
 72
     1
 10
1.126218129487152
 20
0.1525708704655737
 11
1.133401000037974
 21
0.1525708704655737
 72
     1
 10
1.133401000037974
 20
0.1525708704655737
 11
1.139557746224391
 21
0.1525708704655737
 72
     1
 10
1.139557746224392
 20
0.1525708704655737
 11
1.14422194788077
 21
0.1525708704655737
 72
     1
 10
1.144221947880769
 20
0.1525708704655737
 11
1.147207036940851
 21
0.1525708704655737
 72
     1
 10
1.147207036940852
 20
0.1525708704655737
 11
1.148233161305255
 21
0.1525708704655737
 72
     1
 10
1.148233161305255
 20
0.1525708704655737
 11
1.148233161305255
 21
0.1730000737205081
 72
     1
 10
1.148233161305255
 20
0.1730000737205078
 11
1.147207036940852
 21
0.1730000737205078
 72
     1
 10
1.147207036940852
 20
0.1730000737205078
 11
1.14422194788077
 21
0.1730000737205078
 72
     1
 10
1.144221947880769
 20
0.1730000737205078
 11
1.139557746224391
 21
0.1730000737205078
 72
     1
 10
1.139557746224392
 20
0.1730000737205078
 11
1.133494284071101
 21
0.1730000737205078
 72
     1
 10
1.133494284071101
 20
0.1730000737205078
 11
1.126218129487152
 21
0.1730000737205078
 72
     1
 10
1.126218129487152
 20
0.1730000737205078
 11
1.118195702638183
 21
0.1730000737205078
 72
     1
 10
1.118195702638182
 20
0.1730000737205078
 11
1.10952028755732
 21
0.1730000737205078
 72
     1
 10
1.10952028755732
 20
0.1730000737205078
 11
1.100565020377074
 21
0.1730000737205078
 72
     1
 10
1.100565020377073
 20
0.1730000737205078
 11
1.0915164691637
 21
0.1730000737205078
 72
     1
 10
1.091516469163701
 20
0.1730000737205078
 11
1.082747770049712
 21
0.1730000737205078
 72
     1
 10
1.082747770049711
 20
0.1730000737205078
 11
1.074352207068231
 21
0.1730000737205078
 72
     1
 10
1.074352207068232
 20
0.1730000737205078
 11
1.0667962003849
 21
0.1730000737205078
 72
     1
 10
1.0667962003849
 20
0.1730000737205078
 11
1.060173034032843
 21
0.1730000737205078
 72
     1
 10
1.060173034032843
 20
0.1730000737205078
 11
1.054949128177701
 21
0.1730000737205078
 72
     1
 10
1.0549491281777
 20
0.1730000737205078
 11
1.051217766852597
 21
0.1730000737205078
 72
     1
 10
1.051217766852596
 20
0.1730000737205078
 11
1.049352086190045
 21
0.1730000737205078
 72
     1
 10
1.049352086190046
 20
0.1730000737205078
 11
1.049352086190046
 21
0.1754254585818243
 72
     1
 10
1.049352086190046
 20
0.1754254585818245
 11
1.049352086190046
 21
0.1794366720063095
 72
     1
 10
1.049352086190046
 20
0.1794366720063094
 11
1.049352086190046
 21
0.1843807257620694
 72
     1
 10
1.049352086190046
 20
0.1843807257620694
 11
1.049352086190046
 21
0.1898844837165951
 72
     1
 10
1.049352086190046
 20
0.1898844837165951
 11
1.049352086190046
 21
0.1952949576379935
 72
     1
 10
1.049352086190046
 20
0.1952949576379937
 11
1.049352086190046
 21
0.2003322954268815
 72
     1
 10
1.049352086190046
 20
0.2003322954268814
 11
1.049352086190046
 21
0.2042502248182386
 72
     1
 10
1.049352086190046
 20
0.2042502248182386
 11
1.049352086190046
 21
0.206675609679555
 72
     1
 10
1.049352086190046
 20
0.206675609679555
 11
1.051217766852597
 21
0.206675609679555
 72
     1
 10
1.051217766852596
 20
0.206675609679555
 11
1.055042412210825
 21
0.206675609679555
 72
     1
 10
1.055042412210827
 20
0.206675609679555
 11
1.060452886132226
 21
0.206675609679555
 72
     1
 10
1.060452886132225
 20
0.206675609679555
 11
1.067169336517409
 21
0.206675609679555
 72
     1
 10
1.06716933651741
 20
0.206675609679555
 11
1.075005195300124
 21
0.206675609679555
 72
     1
 10
1.075005195300123
 20
0.206675609679555
 11
1.083494042314731
 21
0.206675609679555
 72
     1
 10
1.083494042314732
 20
0.206675609679555
 11
1.092542593528105
 21
0.206675609679555
 72
     1
 10
1.092542593528106
 20
0.206675609679555
 11
1.10187099684086
 21
0.206675609679555
 72
     1
 10
1.101870996840861
 20
0.206675609679555
 11
1.111106116120489
 21
0.206675609679555
 72
     1
 10
1.111106116120488
 20
0.206675609679555
 11
1.119968099267605
 21
0.206675609679555
 72
     1
 10
1.119968099267605
 20
0.206675609679555
 11
1.128270378215957
 21
0.206675609679555
 72
     1
 10
1.128270378215957
 20
0.206675609679555
 11
1.135639816833034
 21
0.206675609679555
 72
     1
 10
1.135639816833034
 20
0.206675609679555
 11
1.14188984705258
 21
0.206675609679555
 72
     1
 10
1.141889847052581
 20
0.206675609679555
 11
1.146647332742086
 21
0.206675609679555
 72
     1
 10
1.146647332742086
 20
0.206675609679555
 11
1.149725705835295
 21
0.206675609679555
 72
     1
 10
1.149725705835296
 20
0.206675609679555
 11
1.150845114232827
 21
0.206675609679555
 72
     1
 10
1.150845114232826
 20
0.206675609679555
 11
1.150845114232826
 21
0.2277578011663822
 72
     1
 10
1.150845114232826
 20
0.2277578011663825
 11
1.148326445338383
 21
0.2277578011663825
 72
     1
 10
1.148326445338383
 20
0.2277578011663825
 11
1.025937793875031
 21
0.2277578011663825
 72
     1
 10
1.025937793875032
 20
0.2277578011663825
 11
1.025937793875032
 21
0.0926825211976832
 72
     1
 10
1.025937793875032
 20
0.0926825211976832
 11
1.155602599922332
 21
0.0926825211976832
 72
     1
 10
1.155602599922332
 20
0.0926825211976832
 11
1.155602599922332
 21
0.113671428651383
 72
     1
 10
1.155602599922332
 20
0.1136714286513832
 11
1.154483191524801
 21
0.1136714286513832
 72
     1
 10
1.154483191524799
 20
0.1136714286513832
 11
1.151218250365336
 21
0.1136714286513832
 72
     1
 10
1.151218250365338
 20
0.1136714286513832
 11
1.146180912576449
 21
0.1136714286513832
 72
     1
 10
1.146180912576449
 20
0.1136714286513832
 11
1.13965103025752
 21
0.1136714286513832
 72
     1
 10
1.13965103025752
 20
0.1136714286513832
 11
1.131908455507932
 21
0.1136714286513832
 72
     1
 10
1.131908455507931
 20
0.1136714286513832
 11
1.12323304042707
 21
0.1136714286513832
 72
     1
 10
1.123233040427071
 20
0.1136714286513832
 11
1.113904637114314
 21
0.1136714286513832
 72
     1
 10
1.113904637114314
 20
0.1136714286513832
 11
1.104296381702177
 21
0.1136714286513832
 72
     1
 10
1.104296381702177
 20
0.1136714286513832
 11
1.094501558223783
 21
0.1136714286513832
 72
     1
 10
1.094501558223784
 20
0.1136714286513832
 11
1.085079870877901
 21
0.1136714286513832
 72
     1
 10
1.085079870877899
 20
0.1136714286513832
 11
1.076124603697654
 21
0.1136714286513832
 72
     1
 10
1.076124603697655
 20
0.1136714286513832
 11
1.067915608782429
 21
0.1136714286513832
 72
     1
 10
1.067915608782429
 20
0.1136714286513832
 11
1.060919306297863
 21
0.1136714286513832
 72
     1
 10
1.060919306297863
 20
0.1136714286513832
 11
1.055228980277083
 21
0.1136714286513832
 72
     1
 10
1.055228980277082
 20
0.1136714286513832
 11
1.051311050885725
 21
0.1136714286513832
 72
     1
 10
1.051311050885726
 20
0.1136714286513832
 11
1.049352086190046
 21
0.1136714286513832
 72
     1
 10
1.049352086190046
 20
0.1136714286513832
 11
1.049352086190046
 21
0.1163766656120825
 72
     1
 10
1.049352086190046
 20
0.1163766656120823
 11
1.049352086190046
 21
0.1209475832353323
 72
     1
 10
1.049352086190046
 20
0.1209475832353325
 11
1.049352086190046
 21
0.1267311932892411
 72
     1
 10
1.049352086190046
 20
0.1267311932892408
 11
1.049352086190046
 21
0.1330745075419143
 72
     1
 10
1.049352086190046
 20
0.1330745075419144
 11
1.049352086190046
 21
0.1395111058277156
 72
     1
 10
1.049352086190046
 20
0.1395111058277158
 11
1.049352086190046
 21
0.1452947158816239
 72
     1
 10
1.049352086190046
 20
0.145294715881624
 11
1.049352086190046
 21
0.1498656335048746
 72
     1
 10
1.049352086190046
 20
0.1498656335048745
 11
1.049352086190046
 21
0.1525708704655738
 97
        0
 75
     0
 76
     1
 98
        1
 10
-0.3743130907707726
 20
-0.2500502867693841
1001
ACAD
1010
0.0
1020
0.0
1030
0.0
  0
HATCH
  5
2995
330
298E
100
AcDbEntity
  8
Kawneer Logo-English
100
AcDbHatch
 10
0.0
 20
0.0
 30
0.0
210
0.0
220
0.0
230
1.0
  2
SOLID
 70
     1
 71
     0
 91
        1
 92
        1
 93
       42
 72
     1
 10
0.9725793269260698
 20
0.2277578011663825
 11
0.9725793269260698
 21
0.1354998924032311
 72
     1
 10
0.9725793269260698
 20
0.1354998924032311
 11
0.9729524630585808
 21
0.1264513411898582
 72
     1
 10
0.9729524630585796
 20
0.1264513411898583
 11
0.9729524630585796
 21
0.1255185008585825
 72
     1
 10
0.9729524630585796
 20
0.1255185008585824
 11
0.9731390311248343
 21
0.1238393882622866
 72
     1
 10
0.9731390311248349
 20
0.1238393882622866
 11
0.9717397706279211
 21
0.1254252168254551
 72
     1
 10
0.97173977062792
 20
0.1254252168254551
 11
0.9710867823960281
 21
0.1262647731236031
 72
     1
 10
0.9710867823960294
 20
0.1262647731236031
 11
0.9641837639445897
 21
0.1339140638400625
 72
     1
 10
0.9641837639445899
 20
0.1339140638400624
 11
0.8755639324734129
 21
0.2277578011663823
 72
     1
 10
0.8755639324734115
 20
0.2277578011663825
 11
0.8529891964565429
 21
0.2277578011663825
 72
     1
 10
0.8529891964565434
 20
0.2277578011663825
 11
0.8529891964565434
 21
0.0926825211976832
 72
     1
 10
0.8529891964565434
 20
0.0926825211976832
 11
0.8756572165065401
 21
0.0926825211976832
 72
     1
 10
0.875657216506541
 20
0.0926825211976832
 11
0.875657216506541
 21
0.1927762887435495
 72
     1
 10
0.875657216506541
 20
0.1927762887435495
 11
0.875657216506541
 21
0.1931494248760597
 72
     1
 10
0.875657216506541
 20
0.1931494248760596
 11
0.8755639324734129
 21
0.193988981174208
 72
     1
 10
0.8755639324734115
 20
0.1939889811742079
 11
0.8754706484402849
 21
0.1952949576379935
 72
     1
 10
0.8754706484402859
 20
0.1952949576379937
 11
0.8753773644071577
 21
0.1967875021680344
 72
     1
 10
0.875377364407158
 20
0.1967875021680343
 11
0.8755639324734126
 21
0.1965076500686515
 72
     1
 10
0.8755639324734115
 20
0.1965076500686517
 11
0.8756572165065396
 21
0.1963210820023967
 72
     1
 10
0.875657216506541
 20
0.1963210820023967
 11
0.8764967728046894
 21
0.1954815257042487
 72
     1
 10
0.8764967728046887
 20
0.1954815257042488
 11
0.8781758854009835
 21
0.1936158450416976
 72
     1
 10
0.8781758854009842
 20
0.1936158450416973
 11
0.8797617139641527
 21
0.1917501643791464
 72
     1
 10
0.879761713964152
 20
0.1917501643791466
 11
0.8805079862291723
 21
0.1909106080809982
 72
     1
 10
0.8805079862291727
 20
0.190910608080998
 11
0.8816273946267036
 21
0.1897911996834678
 72
     1
 10
0.8816273946267028
 20
0.1897911996834681
 11
0.884519199653657
 21
0.1867128265902584
 72
     1
 10
0.8845191996536581
 20
0.1867128265902582
 11
0.8891834013100353
 21
0.1818620568676254
 72
     1
 10
0.889183401310035
 20
0.1818620568676252
 11
0.8951535794301982
 21
0.1756120266480794
 72
     1
 10
0.8951535794301985
 20
0.1756120266480794
 11
0.9021498819147662
 21
0.1681493039978751
 72
     1
 10
0.9021498819147669
 20
0.1681493039978752
 11
0.9099857406974814
 21
0.1598470250495227
 72
     1
 10
0.9099857406974813
 20
0.1598470250495225
 11
0.9183813036789613
 21
0.1509850419024051
 72
     1
 10
0.9183813036789612
 20
0.1509850419024052
 11
0.9271500027929521
 21
0.1418432066559046
 72
     1
 10
0.9271500027929509
 20
0.1418432066559046
 11
0.9358254178738118
 21
0.1326080873762767
 72
     1
 10
0.9358254178738132
 20
0.1326080873762767
 11
0.9442209808552931
 21
0.1237461042291589
 72
     1
 10
0.9442209808552931
 20
0.1237461042291589
 11
0.9520568396380092
 21
0.1154438252808068
 72
     1
 10
0.9520568396380092
 20
0.1154438252808068
 11
0.9590531421225751
 21
0.1079811026306025
 72
     1
 10
0.959053142122574
 20
0.1079811026306024
 11
0.9650233202427372
 21
0.101731072411056
 72
     1
 10
0.9650233202427376
 20
0.101731072411056
 11
0.9695942378659868
 21
0.0968803026884232
 72
     1
 10
0.9695942378659871
 20
0.096880302688423
 11
0.9725793269260696
 21
0.0938019295952138
 72
     1
 10
0.9725793269260698
 20
0.093801929595214
 11
0.9736054512904727
 21
0.0926825211976834
 72
     1
 10
0.9736054512904726
 20
0.0926825211976832
 11
0.9952473469760661
 21
0.0926825211976832
 72
     1
 10
0.9952473469760651
 20
0.0926825211976832
 11
0.9952473469760651
 21
0.2277578011663825
 72
     1
 10
0.9952473469760651
 20
0.2277578011663825
 11
0.9927286780816201
 21
0.2277578011663825
 72
     1
 10
0.9927286780816203
 20
0.2277578011663825
 11
0.9725793269260686
 21
0.2277578011663825
 97
        0
 75
     0
 76
     1
 98
        1
 10
-0.3743130907707726
 20
-0.2500502867693841
1001
ACAD
1010
0.0
1020
0.0
1030
0.0
  0
HATCH
  5
2996
330
298E
100
AcDbEntity
  8
Kawneer Logo-English
100
AcDbHatch
 10
0.0
 20
0.0
 30
0.0
210
0.0
220
0.0
230
1.0
  2
SOLID
 70
     1
 71
     0
 91
        2
 92
       16
 93
       32
 72
     1
 10
0.5269615006757409
 20
0.144641727649731
 11
0.5290137494045469
 21
0.148652941074216
 72
     1
 10
0.5290137494045464
 20
0.1486529410742159
 11
0.5322786905640116
 21
0.1551828233931449
 72
     1
 10
0.532278690564012
 20
0.1551828233931452
 11
0.5364764720547521
 21
0.1633918183083696
 72
     1
 10
0.5364764720547526
 20
0.1633918183083696
 11
0.5409541056448736
 21
0.1722538014554874
 72
     1
 10
0.5409541056448726
 20
0.1722538014554873
 11
0.545338455201869
 21
0.1808359325032223
 72
     1
 10
0.5453384552018701
 20
0.1808359325032223
 11
0.5490698165269726
 21
0.1882053711202994
 72
     1
 10
0.549069816526973
 20
0.1882053711202996
 11
0.5515884854214162
 21
0.1932427089091875
 72
     1
 10
0.5515884854214148
 20
0.1932427089091872
 11
0.5526146097858177
 21
0.1952016736048658
 72
     1
 10
0.5526146097858194
 20
0.1952016736048658
 11
0.552801177852074
 21
0.195761377803631
 72
     1
 10
0.5528011778520723
 20
0.1957613778036309
 11
0.5533608820508379
 21
0.1970673542674166
 72
     1
 10
0.5533608820508378
 20
0.1970673542674169
 11
0.5542004383489863
 21
0.1990263189630955
 72
     1
 10
0.5542004383489872
 20
0.1990263189630952
 11
0.5550399946471356
 21
0.2012651357581567
 72
     1
 10
0.5550399946471352
 20
0.2012651357581567
 11
0.5555064148127727
 21
0.2001457273606265
 72
     1
 10
0.5555064148127729
 20
0.2001457273606264
 11
0.5560661190115385
 21
0.198933034929968
 72
     1
 10
0.5560661190115379
 20
0.198933034929968
 11
0.5567191072434298
 21
0.197533774433055
 72
     1
 10
0.5567191072434304
 20
0.197533774433055
 11
0.5574653795084506
 21
0.1959479458698865
 72
     1
 10
0.557465379508451
 20
0.1959479458698865
 11
0.5583049358065995
 21
0.1942688332735902
 72
     1
 10
0.5583049358065986
 20
0.1942688332735903
 11
0.5606370366347874
 21
0.1896046316172126
 72
     1
 10
0.5606370366347871
 20
0.1896046316172126
 11
0.5639952618273804
 21
0.1828881812320289
 72
     1
 10
0.5639952618273814
 20
0.1828881812320287
 11
0.5680064752518651
 21
0.1748657543830587
 72
     1
 10
0.5680064752518637
 20
0.1748657543830589
 11
0.57239082480886
 21
0.1661903393021966
 72
     1
 10
0.5723908248088612
 20
0.1661903393021967
 11
0.5765886062996012
 21
0.1577947763207168
 72
     1
 10
0.5765886062996
 20
0.1577947763207165
 11
0.5803199676247008
 21
0.1503320536705122
 72
     1
 10
0.5803199676247015
 20
0.1503320536705122
 11
0.5831184886185295
 21
0.144641727649731
 72
     1
 10
0.5831184886185295
 20
0.144641727649731
 11
0.5791072751940441
 21
0.144641727649731
 72
     1
 10
0.5791072751940436
 20
0.144641727649731
 11
0.5724841088419869
 21
0.144641727649731
 72
     1
 10
0.5724841088419872
 20
0.144641727649731
 11
0.5641818298936356
 21
0.144641727649731
 72
     1
 10
0.5641818298936352
 20
0.144641727649731
 11
0.5550399946471351
 21
0.144641727649731
 72
     1
 10
0.5550399946471352
 20
0.144641727649731
 11
0.5458981594006351
 21
0.144641727649731
 72
     1
 10
0.5458981594006352
 20
0.144641727649731
 11
0.5375958804522815
 21
0.144641727649731
 72
     1
 10
0.5375958804522814
 20
0.144641727649731
 11
0.5310659981333528
 21
0.144641727649731
 72
     1
 10
0.5310659981333524
 20
0.144641727649731
 11
0.5269615006757405
 21
0.144641727649731
 97
        0
 92
        1
 93
      141
 72
     1
 10
0.5656743744236757
 20
0.2277578011663825
 11
0.544405614870593
 21
0.2277578011663825
 72
     1
 10
0.544405614870593
 20
0.2277578011663825
 11
0.4748157261574382
 21
0.0934287934627039
 72
     1
 10
0.4748157261574378
 20
0.0934287934627039
 11
0.4729500454948865
 21
0.0955743262246376
 72
     1
 10
0.4729500454948874
 20
0.0955743262246376
 11
0.4699649564348049
 21
0.0991191194834847
 72
     1
 10
0.4699649564348043
 20
0.0991191194834847
 11
0.4661403110765752
 21
0.1036900371067346
 72
     1
 10
0.4661403110765754
 20
0.1036900371067347
 11
0.4615693934533244
 21
0.1091005110281331
 72
     1
 10
0.461569393453325
 20
0.109100511028133
 11
0.456345487598182
 21
0.1152572572145517
 72
     1
 10
0.4563454875981812
 20
0.1152572572145516
 11
0.4506551615774008
 21
0.1219737075997353
 72
     1
 10
0.4506551615774015
 20
0.1219737075997354
 11
0.4447782674903648
 21
0.1290632941174296
 72
     1
 10
0.4447782674903636
 20
0.1290632941174296
 11
0.4387148053370722
 21
0.1362461646682511
 72
     1
 10
0.4387148053370727
 20
0.1362461646682512
 11
0.4326513431837832
 21
0.1433357511859454
 72
     1
 10
0.4326513431837844
 20
0.1433357511859453
 11
0.4268677331298759
 21
0.1502387696373844
 72
     1
 10
0.4268677331298756
 20
0.1502387696373844
 11
0.4214572592084763
 21
0.1566753679231857
 72
     1
 10
0.4214572592084754
 20
0.1566753679231858
 11
0.4165132054527153
 21
0.1625522620102216
 72
     1
 10
0.4165132054527163
 20
0.1625522620102216
 11
0.4123154239619763
 21
0.1674963157659821
 72
     1
 10
0.4123154239619753
 20
0.1674963157659822
 11
0.4088639147362555
 21
0.1715075291904667
 72
     1
 10
0.4088639147362568
 20
0.1715075291904669
 11
0.4065318139080681
 21
0.1743993342174211
 72
     1
 10
0.4065318139080665
 20
0.1743993342174211
 11
0.405319121477409
 21
0.1757985947143345
 72
     1
 10
0.4053191214774104
 20
0.1757985947143345
 11
0.4067183819743243
 21
0.1769180031118651
 72
     1
 10
0.4067183819743235
 20
0.1769180031118651
 11
0.4094236189350213
 21
0.1788769678075437
 72
     1
 10
0.4094236189350218
 20
0.1788769678075437
 11
0.4132482642932526
 21
0.1816754888013702
 72
     1
 10
0.4132482642932525
 20
0.1816754888013703
 11
0.4179124659496298
 21
0.1852202820602174
 72
     1
 10
0.417912465949629
 20
0.1852202820602174
 11
0.4232296558379
 21
0.189138211451575
 72
     1
 10
0.4232296558379001
 20
0.1891382114515751
 11
0.4291065499249351
 21
0.1935225610085696
 72
     1
 10
0.4291065499249367
 20
0.1935225610085698
 11
0.4352632961113562
 21
0.1981867626649482
 72
     1
 10
0.4352632961113554
 20
0.1981867626649479
 11
0.4416066103640296
 21
0.2028509643213252
 72
     1
 10
0.4416066103640293
 20
0.2028509643213252
 11
0.4479499246167016
 21
0.2076084500108307
 72
     1
 10
0.4479499246167018
 20
0.2076084500108307
 11
0.4540133867699932
 21
0.2120860836009535
 72
     1
 10
0.4540133867699927
 20
0.2120860836009535
 11
0.4596104287576467
 21
0.2162838650916932
 72
     1
 10
0.4596104287576468
 20
0.216283865091693
 11
0.4646477665465351
 21
0.2200152264167952
 72
     1
 10
0.464647766546535
 20
0.2200152264167951
 11
0.4689388320704013
 21
0.223186883543132
 72
     1
 10
0.4689388320704016
 20
0.2231868835431323
 11
0.4721104891967386
 21
0.2256122684044488
 72
     1
 10
0.4721104891967376
 20
0.2256122684044488
 11
0.4742560219586717
 21
0.2271980969676172
 72
     1
 10
0.4742560219586727
 20
0.2271980969676173
 11
0.475002294223693
 21
0.2277578011663825
 72
     1
 10
0.4750022942236929
 20
0.2277578011663825
 11
0.4674462875403612
 21
0.2277578011663825
 72
     1
 10
0.4674462875403611
 20
0.2277578011663825
 11
0.4395543616352215
 21
0.2277578011663825
 72
     1
 10
0.439554361635222
 20
0.2277578011663825
 11
0.4386215213039473
 21
0.2270115289013622
 72
     1
 10
0.4386215213039466
 20
0.2270115289013622
 11
0.4359162843432469
 21
0.2250525642056836
 72
     1
 10
0.4359162843432465
 20
0.2250525642056836
 11
0.4318117868856346
 21
0.2220674751456017
 72
     1
 10
0.4318117868856351
 20
0.2220674751456017
 11
0.4264013129642376
 21
0.2180562617211167
 72
     1
 10
0.4264013129642379
 20
0.2180562617211168
 11
0.4200579987115638
 21
0.2132987760316117
 72
     1
 10
0.4200579987115641
 20
0.2132987760316114
 11
0.4128751281607416
 21
0.2079815861433408
 72
     1
 10
0.4128751281607408
 20
0.2079815861433408
 11
0.4051325534111546
 21
0.20229126012256
 72
     1
 10
0.4051325534111552
 20
0.20229126012256
 11
0.397016842529058
 21
0.1963210820023964
 72
     1
 10
0.3970168425290583
 20
0.1963210820023967
 11
0.3889011316469611
 21
0.1903509038822331
 72
     1
 10
0.3889011316469611
 20
0.190350903882233
 11
0.3808787047979902
 21
0.1844740097951972
 72
     1
 10
0.3808787047979898
 20
0.1844740097951974
 11
0.3733226981146581
 21
0.1787836837744166
 72
     1
 10
0.373322698114658
 20
0.1787836837744166
 11
0.3663263956300919
 21
0.173653061952401
 72
     1
 10
0.3663263956300931
 20
0.173653061952401
 11
0.3601696494436735
 21
0.169082144329151
 72
     1
 10
0.3601696494436726
 20
0.1690821443291508
 11
0.3550390276216579
 21
0.1653507830040483
 72
     1
 10
0.3550390276216584
 20
0.1653507830040482
 11
0.3513076662965558
 21
0.1625522620102218
 72
     1
 10
0.3513076662965551
 20
0.1625522620102216
 11
0.3490688495014928
 21
0.1609664334470531
 72
     1
 10
0.3490688495014926
 20
0.1609664334470531
 11
0.3490688495014926
 21
0.1631119662089868
 72
     1
 10
0.3490688495014926
 20
0.1631119662089868
 11
0.3490688495014926
 21
0.1662836233353237
 72
     1
 10
0.3490688495014926
 20
0.1662836233353238
 11
0.3490688495014926
 21
0.1702948367598088
 72
     1
 10
0.3490688495014926
 20
0.1702948367598088
 11
0.3490688495014926
 21
0.1749590384161865
 72
     1
 10
0.3490688495014926
 20
0.1749590384161865
 11
0.3490688495014926
 21
0.1801829442713294
 72
     1
 10
0.3490688495014926
 20
0.1801829442713296
 11
0.3490688495014926
 21
0.185779986258983
 72
     1
 10
0.3490688495014926
 20
0.1857799862589829
 11
0.3490688495014926
 21
0.1916568803460187
 72
     1
 10
0.3490688495014926
 20
0.1916568803460186
 11
0.3490688495014926
 21
0.1975337744330549
 72
     1
 10
0.3490688495014926
 20
0.197533774433055
 11
0.3490688495014926
 21
0.2033173844869632
 72
     1
 10
0.3490688495014926
 20
0.2033173844869631
 11
0.3490688495014926
 21
0.2088211424414888
 72
     1
 10
0.3490688495014926
 20
0.2088211424414888
 11
0.3490688495014926
 21
0.2139517642635044
 72
     1
 10
0.3490688495014926
 20
0.2139517642635044
 11
0.3490688495014926
 21
0.2185226818867544
 72
     1
 10
0.3490688495014926
 20
0.2185226818867545
 11
0.3490688495014926
 21
0.2222540432118567
 72
     1
 10
0.3490688495014926
 20
0.2222540432118567
 11
0.3490688495014926
 21
0.2252391322719387
 72
     1
 10
0.3490688495014926
 20
0.2252391322719387
 11
0.3490688495014926
 21
0.2271048129344895
 72
     1
 10
0.3490688495014926
 20
0.2271048129344895
 11
0.3490688495014926
 21
0.2277578011663825
 72
     1
 10
0.3490688495014926
 20
0.2277578011663825
 11
0.3258411252527322
 21
0.2277578011663825
 72
     1
 10
0.3258411252527336
 20
0.2277578011663825
 11
0.3258411252527336
 21
0.0926825211976832
 72
     1
 10
0.3258411252527336
 20
0.0926825211976832
 11
0.3486957133689848
 21
0.0926825211976832
 72
     1
 10
0.3486957133689845
 20
0.0926825211976832
 11
0.3486957133689845
 21
0.0943616337939795
 72
     1
 10
0.3486957133689845
 20
0.0943616337939795
 11
0.3486957133689845
 21
0.0988392673841017
 72
     1
 10
0.3486957133689845
 20
0.0988392673841017
 11
0.3486957133689845
 21
0.1051825816367752
 72
     1
 10
0.3486957133689845
 20
0.1051825816367753
 11
0.3486957133689845
 21
0.1125520202538523
 72
     1
 10
0.3486957133689845
 20
0.1125520202538524
 11
0.3486957133689845
 21
0.1200147429040567
 72
     1
 10
0.3486957133689845
 20
0.1200147429040567
 11
0.3486957133689845
 21
0.1267311932892408
 72
     1
 10
0.3486957133689845
 20
0.1267311932892408
 11
0.3486957133689845
 21
0.1317685310781287
 72
     1
 10
0.3486957133689845
 20
0.1317685310781289
 11
0.3486957133689845
 21
0.1342871999725727
 72
     1
 10
0.3486957133689845
 20
0.1342871999725725
 11
0.3507479620977905
 21
0.1356864604694859
 72
     1
 10
0.35074796209779
 20
0.1356864604694859
 11
0.3548524595554018
 21
0.1387648335626952
 72
     1
 10
0.3548524595554015
 20
0.1387648335626952
 11
0.3605427855761835
 21
0.1428693310203079
 72
     1
 10
0.3605427855761842
 20
0.1428693310203079
 11
0.3668860998288565
 21
0.1476268167098129
 72
     1
 10
0.3668860998288568
 20
0.1476268167098129
 11
0.373322698114659
 21
0.1522910183661906
 72
     1
 10
0.373322698114658
 20
0.1522910183661908
 11
0.3791995922016947
 21
0.1565820838900582
 72
     1
 10
0.3791995922016946
 20
0.1565820838900582
 11
0.3836772257918156
 21
0.1599403090826502
 72
     1
 10
0.3836772257918159
 20
0.1599403090826503
 11
0.386195894686261
 21
0.1618059897452011
 72
     1
 10
0.3861958946862609
 20
0.1618059897452011
 11
0.3873153030837921
 21
0.1604067292482882
 72
     1
 10
0.3873153030837915
 20
0.1604067292482878
 11
0.3894608358457238
 21
0.1577947763207163
 72
     1
 10
0.3894608358457248
 20
0.1577947763207165
 11
0.3925392089389353
 21
0.1541566990287417
 72
     1
 10
0.3925392089389348
 20
0.1541566990287417
 11
0.396457138330292
 21
0.149492497372364
 72
     1
 10
0.3964571383302933
 20
0.149492497372364
 11
0.4009347719204161
 21
0.1442685915172211
 72
     1
 10
0.4009347719204146
 20
0.1442685915172209
 11
0.4057855416430466
 21
0.138391697430185
 72
     1
 10
0.4057855416430463
 20
0.1383916974301853
 11
0.4109161634650628
 21
0.1322349512437666
 72
     1
 10
0.410916163465064
 20
0.1322349512437666
 11
0.4162333533533335
 21
0.1259849210242201
 72
     1
 10
0.4162333533533334
 20
0.1259849210242201
 11
0.4215505432416044
 21
0.1196416067715466
 72
     1
 10
0.4215505432416045
 20
0.1196416067715466
 11
0.4265878810304927
 21
0.113671428651383
 72
     1
 10
0.4265878810304931
 20
0.1136714286513832
 11
0.4312520826868704
 21
0.1079811026306024
 72
     1
 10
0.4312520826868696
 20
0.1079811026306024
 11
0.4355431482107378
 21
0.1029437648417141
 72
     1
 10
0.435543148210738
 20
0.1029437648417139
 11
0.4390879414695842
 21
0.0987459833509739
 72
     1
 10
0.4390879414695843
 20
0.0987459833509741
 11
0.4417931784302841
 21
0.0954810421915098
 72
     1
 10
0.4417931784302845
 20
0.0954810421915096
 11
0.4435655750597076
 21
0.0934287934627037
 72
     1
 10
0.4435655750597074
 20
0.0934287934627039
 11
0.4442185632915993
 21
0.0926825211976832
 72
     1
 10
0.4442185632915985
 20
0.0926825211976832
 11
0.4743493059918004
 21
0.0926825211976832
 72
     1
 10
0.4743493059918001
 20
0.0926825211976832
 11
0.4753754303562029
 21
0.0926825211976832
 72
     1
 10
0.4753754303562033
 20
0.0926825211976832
 11
0.5008419714000258
 21
0.0926825211976832
 72
     1
 10
0.5008419714000265
 20
0.0926825211976832
 11
0.5014949596319184
 21
0.0939884976614689
 72
     1
 10
0.501494959631919
 20
0.0939884976614688
 11
0.5031740722282155
 21
0.0973467228540609
 72
     1
 10
0.503174072228215
 20
0.0973467228540612
 11
0.5055061730564038
 21
0.1021042085435666
 72
     1
 10
0.505506173056403
 20
0.1021042085435665
 11
0.5083046940502291
 21
0.1077012505312196
 72
     1
 10
0.5083046940502292
 20
0.1077012505312194
 11
0.5111032150440553
 21
0.1134848605851279
 72
     1
 10
0.5111032150440549
 20
0.1134848605851281
 11
0.5137151679716264
 21
0.1186154824071433
 72
     1
 10
0.5137151679716277
 20
0.1186154824071433
 11
0.5156741326673071
 21
0.1226266958316283
 72
     1
 10
0.5156741326673076
 20
0.122626695831628
 11
0.5167002570317104
 21
0.1247722285935621
 72
     1
 10
0.5167002570317103
 20
0.1247722285935622
 11
0.5180062334954961
 21
0.1247722285935622
 72
     1
 10
0.5180062334954961
 20
0.1247722285935622
 11
0.5207114704561957
 21
0.1247722285935622
 72
     1
 10
0.5207114704561944
 20
0.1247722285935622
 11
0.5246293998475517
 21
0.1247722285935622
 72
     1
 10
0.5246293998475525
 20
0.1247722285935622
 11
0.5295734536033125
 21
0.1247722285935622
 72
     1
 10
0.5295734536033115
 20
0.1247722285935622
 11
0.5352637796240919
 21
0.1247722285935622
 72
     1
 10
0.5352637796240929
 20
0.1247722285935622
 11
0.5415138098436386
 21
0.1247722285935622
 72
     1
 10
0.5415138098436394
 20
0.1247722285935622
 11
0.5482302602288245
 21
0.1247722285935622
 72
     1
 10
0.5482302602288236
 20
0.1247722285935622
 11
0.5551332786802616
 21
0.1247722285935622
 72
     1
 10
0.5551332786802608
 20
0.1247722285935622
 11
0.5620362971317004
 21
0.1247722285935622
 72
     1
 10
0.5620362971317015
 20
0.1247722285935622
 11
0.5687527475168847
 21
0.1247722285935622
 72
     1
 10
0.5687527475168839
 20
0.1247722285935622
 11
0.5750027777364317
 21
0.1247722285935622
 72
     1
 10
0.5750027777364322
 20
0.1247722285935622
 11
0.5806931037572126
 21
0.1247722285935622
 72
     1
 10
0.5806931037572119
 20
0.1247722285935622
 11
0.585637157512972
 21
0.1247722285935622
 72
     1
 10
0.5856371575129727
 20
0.1247722285935622
 11
0.5895550869043299
 21
0.1247722285935622
 72
     1
 10
0.5895550869043289
 20
0.1247722285935622
 11
0.5922603238650286
 21
0.1247722285935622
 72
     1
 10
0.5922603238650291
 20
0.1247722285935622
 11
0.5935663003288148
 21
0.1247722285935622
 72
     1
 10
0.5935663003288148
 20
0.1247722285935622
 11
0.5945924246932176
 21
0.1226266958316281
 72
     1
 10
0.5945924246932175
 20
0.122626695831628
 11
0.5965513893888953
 21
0.1186154824071431
 72
     1
 10
0.5965513893888957
 20
0.1186154824071433
 11
0.5991633423164672
 21
0.1134848605851281
 72
     1
 10
0.5991633423164667
 20
0.1134848605851281
 11
0.6019618633102946
 21
0.1077012505312196
 72
     1
 10
0.6019618633102959
 20
0.1077012505312194
 11
0.604760384304122
 21
0.1021042085435664
 72
     1
 10
0.6047603843041221
 20
0.1021042085435665
 11
0.6070924851323109
 21
0.0973467228540611
 72
     1
 10
0.6070924851323101
 20
0.0973467228540612
 11
0.6087715977286067
 21
0.0939884976614691
 72
     1
 10
0.6087715977286062
 20
0.0939884976614688
 11
0.609424585960498
 21
0.0926825211976832
 72
     1
 10
0.6094245859604986
 20
0.0926825211976832
 11
0.6363836715343633
 21
0.0926825211976832
 72
     1
 10
0.6363836715343641
 20
0.0926825211976832
 11
0.5671669189537184
 21
0.2277578011663825
 72
     1
 10
0.5671669189537179
 20
0.2277578011663825
 11
0.5656743744236758
 21
0.2277578011663825
 97
        0
 75
     0
 76
     1
 98
        1
 10
-0.3743130907707726
 20
-0.2500502867693841
1001
ACAD
1010
0.0
1020
0.0
1030
0.0
  0
HATCH
  5
2997
330
298E
100
AcDbEntity
  8
Kawneer Logo-English
100
AcDbHatch
 10
0.0
 20
0.0
 30
0.0
210
0.0
220
0.0
230
1.0
  2
SOLID
 70
     1
 71
     0
 91
        1
 92
        1
 93
       69
 72
     1
 10
0.8092389849197205
 20
0.2277578011663825
 11
0.778921674153266
 21
0.1309289747799811
 72
     1
 10
0.778921674153267
 20
0.1309289747799809
 11
0.7781754018882468
 21
0.1287834420180468
 72
     1
 10
0.7781754018882468
 20
0.1287834420180467
 11
0.7776156976894812
 21
0.1270110453886236
 72
     1
 10
0.7776156976894813
 20
0.1270110453886237
 11
0.7771492775238438
 21
0.1253319327923275
 72
     1
 10
0.7771492775238436
 20
0.1253319327923274
 11
0.7766828573582045
 21
0.1238393882622867
 72
     1
 10
0.7766828573582046
 20
0.1238393882622866
 11
0.7764030052588217
 21
0.1248655126266895
 72
     1
 10
0.776403005258822
 20
0.1248655126266896
 11
0.7761231531594392
 21
0.1259849210242202
 72
     1
 10
0.7761231531594391
 20
0.1259849210242201
 11
0.7759365850931844
 21
0.1268244773223681
 72
     1
 10
0.7759365850931843
 20
0.1268244773223682
 11
0.7758433010600562
 21
0.1271976134548783
 72
     1
 10
0.7758433010600552
 20
0.1271976134548783
 11
0.7755634489606744
 21
0.1280371697530267
 72
     1
 10
0.775563448960674
 20
0.1280371697530267
 11
0.7750970287950349
 21
0.1291565781505569
 72
     1
 10
0.7750970287950363
 20
0.1291565781505568
 11
0.773977620397507
 21
0.1323282352768938
 72
     1
 10
0.7739776203975062
 20
0.1323282352768939
 11
0.7721119397349549
 21
0.1372722890326544
 72
     1
 10
0.7721119397349554
 20
0.1372722890326546
 11
0.7697798389067666
 21
0.1436156032853281
 72
     1
 10
0.769779838906767
 20
0.1436156032853281
 11
0.7670746019460673
 21
0.1511716099686602
 72
     1
 10
0.7670746019460668
 20
0.15117160996866
 11
0.7639962288528581
 21
0.1595671729501399
 72
     1
 10
0.7639962288528582
 20
0.15956717295014
 11
0.7606380036602665
 21
0.1686157241635125
 72
     1
 10
0.7606380036602652
 20
0.1686157241635125
 11
0.7572797784676718
 21
0.1778508434431408
 72
     1
 10
0.7572797784676726
 20
0.1778508434431408
 11
0.753921553275081
 21
0.187179246755896
 72
     1
 10
0.7539215532750814
 20
0.1871792467558961
 11
0.7505633280824898
 21
0.1962277979692689
 72
     1
 10
0.7505633280824902
 20
0.1962277979692689
 11
0.7474849549892814
 21
0.2046233609507488
 72
     1
 10
0.7474849549892797
 20
0.2046233609507488
 11
0.74477971802858
 21
0.2121793676340809
 72
     1
 10
0.7447797180285814
 20
0.2121793676340809
 11
0.7424476172003926
 21
0.2185226818867544
 72
     1
 10
0.7424476172003929
 20
0.2185226818867545
 11
0.7405819365378416
 21
0.2234667356425151
 72
     1
 10
0.7405819365378408
 20
0.2234667356425151
 11
0.7394625281403098
 21
0.2266383927688516
 72
     1
 10
0.7394625281403103
 20
0.2266383927688516
 11
0.7390893920078009
 21
0.2277578011663822
 72
     1
 10
0.7390893920078004
 20
0.2277578011663825
 11
0.7191266089185034
 21
0.2277578011663825
 72
     1
 10
0.7191266089185029
 20
0.2277578011663825
 11
0.6843316645619254
 21
0.1336342117406798
 72
     1
 10
0.6843316645619267
 20
0.1336342117406795
 11
0.6832122561643957
 21
0.130649122680598
 72
     1
 10
0.6832122561643961
 20
0.1306491226805981
 11
0.6823726998662476
 21
0.1282237378192816
 72
     1
 10
0.6823726998662468
 20
0.1282237378192818
 11
0.6817197116343549
 21
0.1260782050573481
 72
     1
 10
0.6817197116343552
 20
0.1260782050573481
 11
0.6811600074355896
 21
0.1241192403616695
 72
     1
 10
0.6811600074355884
 20
0.1241192403616695
 11
0.6808801553362055
 21
0.1250520806929446
 72
     1
 10
0.6808801553362059
 20
0.1250520806929445
 11
0.6805070192036949
 21
0.1261714890904751
 72
     1
 10
0.680507019203696
 20
0.1261714890904752
 11
0.6802271671043131
 21
0.1272908974880058
 72
     1
 10
0.680227167104313
 20
0.1272908974880061
 11
0.6798540309718037
 21
0.1286901579849195
 72
     1
 10
0.6798540309718031
 20
0.1286901579849194
 11
0.6794808948392922
 21
0.12980956638245
 72
     1
 10
0.6794808948392932
 20
0.1298095663824503
 11
0.6784547704748904
 21
0.1328879394756595
 72
     1
 10
0.67845477047489
 20
0.1328879394756595
 11
0.6769622259448497
 21
0.1378319932314196
 72
     1
 10
0.6769622259448496
 20
0.1378319932314196
 11
0.6750032612491701
 21
0.1441753074840938
 72
     1
 10
0.6750032612491697
 20
0.1441753074840937
 11
0.6725778763878547
 21
0.1516380301342981
 72
     1
 10
0.6725778763878556
 20
0.1516380301342981
 11
0.6699659234602841
 21
0.160033593115778
 72
     1
 10
0.6699659234602829
 20
0.160033593115778
 11
0.6671674024664549
 21
0.168988860296023
 72
     1
 10
0.6671674024664554
 20
0.168988860296023
 11
0.6642755974395012
 21
0.1782239795756509
 72
     1
 10
0.6642755974395019
 20
0.178223979575651
 11
0.6613837924125477
 21
0.1874590988552789
 72
     1
 10
0.6613837924125466
 20
0.1874590988552789
 11
0.6585852714187205
 21
0.1964143660355239
 72
     1
 10
0.6585852714187204
 20
0.1964143660355237
 11
0.6559733184911489
 21
0.2047166449838762
 72
     1
 10
0.6559733184911494
 20
0.2047166449838765
 11
0.6536412176629606
 21
0.2122726516672082
 72
     1
 10
0.6536412176629614
 20
0.2122726516672082
 11
0.6515889689341538
 21
0.2186159659198823
 72
     1
 10
0.6515889689341537
 20
0.2186159659198821
 11
0.6500964244041133
 21
0.2234667356425149
 72
     1
 10
0.6500964244041132
 20
0.2234667356425151
 11
0.6490703000397104
 21
0.2266383927688516
 72
     1
 10
0.6490703000397105
 20
0.2266383927688516
 11
0.6487904479403276
 21
0.2277578011663822
 72
     1
 10
0.648790447940328
 20
0.2277578011663825
 11
0.6237903270621445
 21
0.2277578011663825
 72
     1
 10
0.6237903270621437
 20
0.2277578011663825
 11
0.6676338226320932
 21
0.0926825211976832
 72
     1
 10
0.6676338226320926
 20
0.0926825211976832
 11
0.6922608073777669
 21
0.0926825211976832
 72
     1
 10
0.6922608073777666
 20
0.0926825211976832
 11
0.726029627369941
 21
0.1855001341596003
 72
     1
 10
0.7260296273699423
 20
0.1855001341596003
 11
0.7269624677012189
 21
0.1882986551534267
 72
     1
 10
0.7269624677012177
 20
0.1882986551534266
 11
0.7278020239993661
 21
0.1906307559816158
 72
     1
 10
0.727802023999367
 20
0.1906307559816159
 11
0.7284550122312589
 21
0.1927762887435496
 72
     1
 10
0.7284550122312581
 20
0.1927762887435495
 11
0.7290147164300237
 21
0.1947352534392281
 72
     1
 10
0.7290147164300232
 20
0.1947352534392282
 11
0.7298542727281716
 21
0.192216584544784
 72
     1
 10
0.729854272728173
 20
0.1922165845447839
 11
0.7306938290263214
 21
0.1894180635509575
 72
     1
 10
0.7306938290263206
 20
0.1894180635509575
 11
0.7318132374238499
 21
0.1863396904577483
 72
     1
 10
0.7318132374238511
 20
0.1863396904577481
 11
0.7331192138876387
 21
0.1827016131657736
 72
     1
 10
0.7331192138876382
 20
0.1827016131657737
 11
0.7654887733828987
 21
0.0926825211976834
 72
     1
 10
0.7654887733828986
 20
0.0926825211976832
 11
0.7895560539298075
 21
0.0926825211976832
 72
     1
 10
0.7895560539298075
 20
0.0926825211976832
 11
0.8341458217647785
 21
0.2277578011663825
 72
     1
 10
0.8341458217647783
 20
0.2277578011663825
 11
0.830601028505932
 21
0.2277578011663825
 72
     1
 10
0.8306010285059324
 20
0.2277578011663825
 11
0.8092389849197216
 21
0.2277578011663825
 97
        0
 75
     0
 76
     1
 98
        1
 10
-0.3743130907707726
 20
-0.2500502867693841
1001
ACAD
1010
0.0
1020
0.0
1030
0.0
  0
ENDBLK
  5
299B
330
298E
100
AcDbEntity
  8
0
100
AcDbBlockEnd
  0
ENDSEC
  0
SECTION
  2
ENTITIES
  0
LINE
  5
10D5
330
17
100
AcDbEntity
  8
0
100
AcDbLine
 10
-9.822498266376307
 20
-6.020862690213913
 30
0.0
 11
39.87180980926172
 21
-6.020862690213913
 31
0.0
  0
MTEXT
  5
1153
102
{ACAD_XDICTIONARY
360
1154
102
}
330
17
100
AcDbEntity
  8
TEXT
100
AcDbMText
 10
-8.82249818197787
 20
-4.020862690213913
 30
0.0
 40
0.375
 41
15.4571868900598
 71
     1
 72
     5
  1
ENGINEERING CHANGE:  97910-095 (MARCH 2017)\PFILE NAME:  KCDF025.DWG
 73
     1
 44
1.0
1001
ACAD
1000
ACAD_MTEXT_COLUMN_INFO_BEGIN
1070
    75
1070
     2
1070
    79
1070
     0
1070
    76
1070
     1
1070
    78
1070
     0
1070
    48
1040
15.4571868900598
1070
    49
1040
1.25
1070
    50
1070
     1
1040
0.0
1000
ACAD_MTEXT_COLUMN_INFO_END
1000
MTEXTBEGIN
1070
    73
1070
     1
1070
    44
1040
1.0
1070
    74
1070
     0
1000
MTEXTEND
  0
MTEXT
  5
1160
330
17
100
AcDbEntity
  8
KCADSLABEL
100
AcDbMText
 10
-0.4967594655661359
 20
1.40259739033106
 30
0.0
 40
0.375
 41
12.22418885525874
 71
     2
 72
     5
  1
VENEER RAFTER DETAILS
 73
     1
 44
1.0
1001
ACAD
1000
MTEXTBEGIN
1070
    73
1070
     1
1070
    44
1040
1.0
1070
    74
1070
     0
1000
MTEXTEND
  0
MTEXT
  5
11C4
330
17
100
AcDbEntity
  8
TEXT
100
AcDbMText
 10
20.17750173362369
 20
-4.0208626902139
 30
0.0
 40
0.375
 41
5.519524215552523
 71
     2
 72
     5
  1
DETAIL SCALE: 1" = 1"
 73
     1
 44
1.0
1001
ACAD
1000
MTEXTBEGIN
1070
    73
1070
     1
1070
    44
1040
1.0
1070
    74
1070
     0
1000
MTEXTEND
  0
MTEXT
  5
11C5
330
17
100
AcDbEntity
  8
TEXT
100
AcDbMText
 10
20.17750173362369
 20
-2.961940305038821
 30
0.0
 40
0.5
 41
17.35659339253652
 71
     8
 72
     5
  1
2000 SKYLIGHT\PMISCELLANEOUS DETAILS
 73
     1
 44
1.0
1001
ACAD
1000
MTEXTBEGIN
1070
    73
1070
     1
1070
    44
1040
1.0
1070
    74
1070
     0
1000
MTEXTEND
  0
MTEXT
  5
12E4
330
17
100
AcDbEntity
  8
KCADSLABEL
100
AcDbMText
 10
13.00291566964183
 20
1.40259739033106
 30
0.0
 40
0.375
 41
7.844783004296373
 71
     2
 72
     5
  1
SINGLE GLAZING ADAPTER
 73
     1
 44
1.0
1001
ACAD
1000
MTEXTBEGIN
1070
    73
1070
     1
1070
    44
1040
1.0
1070
    74
1070
     0
1000
MTEXTEND
  0
MTEXT
  5
13B2
330
17
100
AcDbEntity
  8
KCADSLABEL
100
AcDbMText
 10
22.00291566964184
 20
1.402597390331069
 30
0.0
 40
0.375
 41
7.840526212933098
 71
     2
 72
     5
  1
SSG OPTIONAL PURLIN
 73
     1
 44
1.0
1001
ACAD
1000
MTEXTBEGIN
1070
    73
1070
     1
1070
    44
1040
1.0
1070
    74
1070
     0
1000
MTEXTEND
  0
MTEXT
  5
18ED
330
17
100
AcDbEntity
  8
KCADSLABEL
100
AcDbMText
 10
4.002915670219788
 20
11.89195988659223
 30
0.0
 40
0.375
 41
7.552896460177407
 71
     2
 72
     5
  1
SSG OPTIONAL TRANSITION
 73
     1
 44
1.0
1001
ACAD
1000
MTEXTBEGIN
1070
    73
1070
     1
1070
    44
1040
1.0
1070
    74
1070
     0
1000
MTEXTEND
  0
MTEXT
  5
18EE
330
17
100
AcDbEntity
  8
KCADSLABEL
100
AcDbMText
 10
-4.997084330358163
 20
11.89195988659223
 30
0.0
 40
0.375
 41
6.406001796350608
 71
     2
 72
     5
  1
SSG OPTIONAL SILL
 73
     1
 44
1.0
1001
ACAD
1000
MTEXTBEGIN
1070
    73
1070
     1
1070
    44
1040
1.0
1070
    74
1070
     0
1000
MTEXTEND
  0
LINE
  5
1AFC
330
17
100
AcDbEntity
  8
0
100
AcDbLine
 10
-9.822498266376307
 20
-6.020862690213913
 30
0.0
 11
-9.822498266376307
 21
25.69048118937661
 31
0.0
  0
LWPOLYLINE
  5
1E83
330
17
100
AcDbEntity
  8
0
100
AcDbPolyline
 90
        8
 70
     0
 43
0.0
 10
-3.776759465566144
 20
6.612105562489542
 42
0.4142135623730964
 10
-3.746759465566142
 20
6.642105562489543
 10
-3.746759465566142
 20
7.171605562489546
 42
0.4142135623730951
 10
-3.776759465566144
 20
7.201605562489547
 10
-4.216759465566141
 20
7.201605562489545
 42
0.4142135623730946
 10
-4.246759465566142
 20
7.171605562489546
 10
-4.246759465566142
 20
6.642105562489543
 42
0.4142135623730953
 10
-4.216759465566141
 20
6.612105562489544
  0
LWPOLYLINE
  5
1E84
330
17
100
AcDbEntity
  8
0
100
AcDbPolyline
 90
        8
 70
     0
 43
0.0
 10
-5.776759465566129
 20
6.612105562489544
 42
0.4142135623730964
 10
-5.746759465566128
 20
6.642105562489543
 10
-5.746759465566128
 20
7.171605562489546
 42
0.4142135623730951
 10
-5.776759465566129
 20
7.201605562489547
 10
-6.216759465566127
 20
7.201605562489547
 42
0.4142135623730946
 10
-6.246759465566128
 20
7.171605562489546
 10
-6.246759465566128
 20
6.642105562489545
 42
0.4142135623730953
 10
-6.216759465566127
 20
6.612105562489546
 42
0.4142135623730953
  0
LINE
  5
1E85
330
17
100
AcDbEntity
  8
0
100
AcDbLine
 10
-4.369350199349977
 20
7.202105562489542
 30
0.0
 11
-2.746759465566135
 21
7.202105562489542
 31
0.0
  0
LINE
  5
1E86
330
17
100
AcDbEntity
  8
0
100
AcDbLine
 10
-4.369350199349977
 20
7.452105562489542
 30
0.0
 11
-4.369350199349977
 21
7.202105562489542
 31
0.0
  0
LINE
  5
1E87
330
17
100
AcDbEntity
  8
0
100
AcDbLine
 10
-4.369350199349977
 20
8.202105562489542
 30
0.0
 11
-4.369350199349977
 21
7.952105562489542
 31
0.0
  0
LINE
  5
1E88
330
17
100
AcDbEntity
  8
0
100
AcDbLine
 10
-4.31935019934998
 20
7.952105562489542
 30
0.0
 11
-4.31935019934998
 21
7.452105562489542
 31
0.0
  0
LINE
  5
1E89
330
17
100
AcDbEntity
  8
0
100
AcDbLine
 10
-3.94435019934998
 20
7.952105562489542
 30
0.0
 11
-3.94435019934998
 21
7.452105562489542
 31
0.0
  0
LINE
  5
1E8A
330
17
100
AcDbEntity
  8
0
100
AcDbLine
 10
-2.746759465566135
 20
7.452105562489542
 30
0.0
 11
-4.369350199349977
 21
7.452105562489542
 31
0.0
  0
LINE
  5
1E8B
330
17
100
AcDbEntity
  8
0
100
AcDbLine
 10
-4.369350199349977
 20
7.952105562489542
 30
0.0
 11
-2.746759465566135
 21
7.952105562489542
 31
0.0
  0
LINE
  5
1E8C
330
17
100
AcDbEntity
  8
0
100
AcDbLine
 10
-2.746759465566135
 20
8.202105562489538
 30
0.0
 11
-4.369350199349977
 21
8.202105562489542
 31
0.0
  0
LINE
  5
1E8D
330
17
100
AcDbEntity
  8
0
100
AcDbLine
 10
-6.046758891634752
 20
7.952105562489542
 30
0.0
 11
-6.046758891634752
 21
7.452105562489542
 31
0.0
  0
LINE
  5
1E8E
330
17
100
AcDbEntity
  8
0
100
AcDbLine
 10
-7.246759465566135
 20
8.202105562489538
 30
0.0
 11
-5.621758891634755
 21
8.202105562489542
 31
0.0
  0
LINE
  5
1E8F
330
17
100
AcDbEntity
  8
0
100
AcDbLine
 10
-5.621758891634755
 20
8.202105562489542
 30
0.0
 11
-5.621758891634755
 21
7.952105562489542
 31
0.0
  0
LINE
  5
1E90
330
17
100
AcDbEntity
  8
0
100
AcDbLine
 10
-5.621758891634755
 20
7.952105562489542
 30
0.0
 11
-7.246759465566135
 21
7.952105562489542
 31
0.0
  0
LINE
  5
1E91
330
17
100
AcDbEntity
  8
0
100
AcDbLine
 10
-5.671758891634752
 20
7.952105562489542
 30
0.0
 11
-5.671758891634752
 21
7.452105562489542
 31
0.0
  0
LINE
  5
1E92
330
17
100
AcDbEntity
  8
0
100
AcDbLine
 10
-7.246759465566135
 20
7.452105562489542
 30
0.0
 11
-5.621758891634755
 21
7.452105562489542
 31
0.0
  0
LINE
  5
1E93
330
17
100
AcDbEntity
  8
0
100
AcDbLine
 10
-5.621758891634755
 20
7.452105562489542
 30
0.0
 11
-5.621758891634755
 21
7.202105562489542
 31
0.0
  0
LINE
  5
1E94
330
17
100
AcDbEntity
  8
0
100
AcDbLine
 10
-5.621758891634755
 20
7.202105562489542
 30
0.0
 11
-7.246759465566135
 21
7.202105562489542
 31
0.0
  0
LWPOLYLINE
  5
1E95
330
17
100
AcDbEntity
  8
0
100
AcDbPolyline
 90
       77
 70
     0
 43
0.0
 10
-4.74675946495298
 20
8.264118693115435
 10
-4.871759465566135
 20
8.264118693115435
 42
0.4142135623730951
 10
-4.901759465566129
 20
8.234118693115437
 10
-4.901759465566129
 20
8.074118693115433
 10
-4.881759465566133
 20
8.074118693115437
 10
-4.901759465566129
 20
7.960693056723087
 10
-4.901759465566136
 20
7.60911869311543
 42
-0.9999999999999998
 10
-5.091759465566134
 20
7.60911869311543
 10
-5.091759465566134
 20
7.960693056723087
 10
-5.11175946556613
 20
8.074118693115437
 10
-5.091759465566134
 20
8.074118693115433
 10
-5.091759465566134
 20
8.234118693115437
 42
0.4142135623730951
 10
-5.121759465566135
 20
8.264118693115435
 10
-5.24675946495298
 20
8.264118693115435
 10
-5.246759464952958
 20
7.608136202787491
 42
0.3564136925077798
 10
-5.046759465566132
 20
7.363169718837113
 10
-5.046759465566132
 20
6.211618693115436
 42
-0.4142135623730951
 10
-5.146759465566134
 20
6.111618693115438
 10
-6.09675946556613
 20
6.111618693115435
 42
-0.4142135623730996
 10
-6.156759465566132
 20
6.171618693115437
 10
-6.156759465566132
 20
6.322118693115424
 42
-0.4142135623731039
 10
-6.126759465566131
 20
6.352118693115425
 10
-5.931612279308524
 20
6.352118693115425
 42
0.1989123673796649
 10
-5.88918587243733
 20
6.369692286244234
 10
-5.755546262130536
 20
6.503331896551035
 42
0.198912367379658
 10
-5.746759465566128
 20
6.524545099986632
 10
-5.746759465566135
 20
6.612118693115437
 10
-5.904259465566134
 20
6.612118693115437
 42
0.4142135623730864
 10
-5.934259465566135
 20
6.582118693115436
 10
-5.934259465566135
 20
6.562118693115436
 10
-5.889259465566134
 20
6.562118693115436
 10
-5.889259465566141
 20
6.506943815444227
 42
-0.3704662542213848
 10
-6.10425946556613
 20
6.506943815444241
 10
-6.10425946556613
 20
6.562118693115436
 10
-6.059259465566128
 20
6.562118693115436
 10
-6.059259465566128
 20
6.582118693115436
 42
0.4142135623730691
 10
-6.089259465566129
 20
6.612118693115437
 10
-6.216759465566134
 20
6.612118693115434
 10
-6.216759465566134
 20
6.58211869311544
 10
-6.246759465566135
 20
6.58211869311544
 10
-6.246759465566135
 20
3.64211874252383
 42
0.8769776859272855
 10
-6.187781682095362
 20
3.634354154164466
 10
-6.156759465566132
 20
3.750130642414879
 10
-6.156759465566132
 20
5.951618693115438
 42
-0.4142135623730947
 10
-6.096759465566137
 20
6.011618693115437
 10
-3.896759465566134
 20
6.011618693115439
 42
-0.4142135623730954
 10
-3.836759465566135
 20
5.951618693115438
 10
-3.836759465566135
 20
3.750130642414877
 10
-3.805737240354808
 20
3.634354121762357
 42
0.8769764629927561
 10
-3.746759465566135
 20
3.642118693115433
 10
-3.746759465566135
 20
6.58211869311544
 10
-3.776759465566136
 20
6.58211869311544
 10
-3.776759465566136
 20
6.612118693115434
 10
-3.904259465566138
 20
6.612118693115437
 42
0.4142135623730603
 10
-3.934259465566139
 20
6.582118693115436
 10
-3.934259465566139
 20
6.562118693115436
 10
-3.889259465566137
 20
6.562118693115436
 10
-3.889259465566137
 20
6.506943815444241
 42
-0.3704662542213866
 10
-4.10425946556613
 20
6.506943815444227
 10
-4.104259465566137
 20
6.562118693115436
 10
-4.059259465566135
 20
6.562118693115436
 10
-4.059259465566135
 20
6.582118693115436
 42
0.4142135623730951
 10
-4.089259465566136
 20
6.612118693115437
 10
-4.246759465566139
 20
6.612118693115437
 10
-4.246759465566139
 20
6.524545099986632
 42
0.198912367379655
 10
-4.237972669001738
 20
6.503331896551035
 10
-4.104333058694944
 20
6.369692286244234
 42
0.1989123673796624
 10
-4.06190665182375
 20
6.352118693115425
 10
-3.866759465566136
 20
6.352118693115425
 42
-0.4142135623730951
 10
-3.836759465566139
 20
6.322118693115424
 10
-3.836759465566139
 20
6.171618693115437
 42
-0.4142135623730951
 10
-3.896759465566137
 20
6.111618693115438
 10
-4.846759465566137
 20
6.111618693115438
 42
-0.414213562373095
 10
-4.946759465566131
 20
6.211618693115436
 10
-4.946759465566131
 20
7.363169718837102
 42
0.3563939586926031
 10
-4.746759465566135
 20
7.608118693115432
 10
-4.746741563327809
 20
8.264105562489543
  0
LWPOLYLINE
  5
1E96
330
17
100
AcDbEntity
  8
0
100
AcDbPolyline
 90
       41
 70
     1
 43
0.0
 10
-6.031780187962525
 20
8.701634840686319
 42
-0.1040635034746242
 10
-6.029151778645015
 20
8.714126951882795
 10
-5.971692332406902
 20
8.84462658191896
 42
0.5416234831226134
 10
-6.000063923089399
 20
8.888118693115433
 10
-6.041584330358169
 20
8.888118693115433
 42
0.2973336368416811
 10
-6.069955921040659
 20
8.869610804311907
 10
-6.173097779079178
 20
8.635359080766043
 42
-0.9999999999999998
 10
-6.190462596845875
 20
8.536878305464826
 10
-6.205584330358163
 20
8.451118693115438
 10
-6.175584330358162
 20
8.386118693115436
 10
-6.155584330358166
 20
8.386118693115436
 10
-6.155584330358166
 20
8.451118693115434
 10
-5.293084330358162
 20
8.451118693115436
 10
-5.278084330358161
 20
8.436118693115437
 10
-5.263084330358161
 20
8.451118693115436
 10
-4.731084330358164
 20
8.451118693115434
 10
-4.716084330358164
 20
8.436118693115435
 10
-4.701084330358163
 20
8.451118693115436
 10
-3.838584330358166
 20
8.451118693115436
 10
-3.83858433035817
 20
8.386118693115435
 10
-3.81858433035817
 20
8.386118693115435
 10
-3.788584330358169
 20
8.451118693115436
 10
-3.80370606387046
 20
8.536878305464824
 42
-1.0
 10
-3.821070881637155
 20
8.635359080766043
 10
-3.92421273967567
 20
8.869610804311907
 42
0.2973336368416808
 10
-3.952584330358163
 20
8.888118693115432
 10
-3.994104737626933
 20
8.888118693115433
 42
0.5416234831226136
 10
-4.02247632830943
 20
8.844626581918959
 10
-3.965016882071314
 20
8.714126951882793
 42
-0.1040635034746244
 10
-3.962388472753808
 20
8.701634840686319
 10
-3.962388472753808
 20
8.582118693115436
 42
-0.4142135623730951
 10
-3.993388472753807
 20
8.551118693115434
 10
-4.747084330358166
 20
8.551118693115434
 10
-4.747084330358166
 20
8.576118693115434
 10
-4.982084330358166
 20
8.576118693115434
 10
-4.997084330358166
 20
8.561118693115435
 10
-5.012084330358167
 20
8.576118693115436
 10
-5.247084330358163
 20
8.576118693115436
 10
-5.247084330358163
 20
8.551118693115435
 10
-6.000780187962526
 20
8.551118693115435
 42
-0.4142135623730951
 10
-6.031780187962525
 20
8.582118693115436
  0
LWPOLYLINE
  5
1E97
330
17
100
AcDbEntity
  8
0
100
AcDbPolyline
 90
       12
 70
     1
 43
0.0
 10
-6.217738572509517
 20
8.461737000320436
 10
-6.20307938992029
 20
8.544873356029171
 42
1.33239341188041
 10
-6.192024190312949
 20
8.630580343375065
 10
-6.192024190312949
 20
9.139118693115436
 10
-3.80214447040338
 20
9.139118693115436
 10
-3.802144470403376
 20
8.630580343375065
 42
1.33239341188041
 10
-3.791089270796032
 20
8.544873356029171
 10
-3.776430088206808
 20
8.461737000320434
 42
0.8617744796823018
 10
-3.747084330358163
 20
8.466118742694698
 10
-3.747084330358163
 20
9.201118693115436
 10
-6.247084330358163
 20
9.201118693115436
 10
-6.247084330358163
 20
8.466118742694698
 42
0.861774479682302
  0
LWPOLYLINE
  5
1E98
330
17
100
AcDbEntity
  8
0
100
AcDbPolyline
 90
       14
 70
     1
 43
0.0
 10
2.339240534433862
 20
4.689118693115428
 42
-0.4142135623730868
 10
2.308240534433863
 20
4.720118693115428
 10
2.308240534433863
 20
4.946618693115439
 10
2.253240534433864
 20
4.946618693115437
 10
2.253240534433864
 20
4.665368693115428
 42
0.4142135623730951
 10
2.284490534433864
 20
4.634118693115428
 10
2.722240534433865
 20
4.634118693115427
 42
0.4142135623730864
 10
2.753240534433864
 20
4.665118693115426
 10
2.753240534433864
 20
6.582118693115438
 10
2.778240534433862
 20
6.582118693115434
 10
2.778240534433862
 20
6.607118693115433
 10
2.698240534433864
 20
6.607118693115435
 10
2.698240534433864
 20
4.720118693115426
 42
-0.4142135623730951
 10
2.667240534433865
 20
4.689118693115426
  0
LWPOLYLINE
  5
1E99
330
17
100
AcDbEntity
  8
0
100
AcDbPolyline
 90
       14
 70
     1
 43
0.0
 10
5.667240534433865
 20
4.689118693115428
 42
0.4142135623730868
 10
5.698240534433864
 20
4.720118693115428
 10
5.698240534433864
 20
4.946618693115439
 10
5.753240534433864
 20
4.946618693115437
 10
5.753240534433864
 20
4.665368693115428
 42
-0.4142135623730951
 10
5.721990534433864
 20
4.634118693115428
 10
5.284240534433862
 20
4.634118693115427
 42
-0.4142135623730864
 10
5.253240534433864
 20
4.665118693115426
 10
5.253240534433864
 20
6.582118693115438
 10
5.228240534433865
 20
6.582118693115434
 10
5.228240534433865
 20
6.607118693115433
 10
5.308240534433863
 20
6.607118693115435
 10
5.308240534433863
 20
4.720118693115426
 42
0.4142135623730951
 10
5.339240534433862
 20
4.689118693115426
  0
LWPOLYLINE
  5
1E9A
330
17
100
AcDbEntity
  8
0
100
AcDbPolyline
 90
        8
 70
     0
 43
0.0
 10
5.223240534433855
 20
6.612105562489542
 42
0.4142135623730964
 10
5.253240534433857
 20
6.642105562489543
 10
5.253240534433857
 20
7.171605562489546
 42
0.4142135623730951
 10
5.223240534433855
 20
7.201605562489545
 10
4.783240534433858
 20
7.201605562489543
 42
0.4142135623730946
 10
4.753240534433857
 20
7.171605562489544
 10
4.753240534433857
 20
6.642105562489543
 42
0.4142135623730953
 10
4.783240534433858
 20
6.612105562489542
  0
LWPOLYLINE
  5
1E9B
330
17
100
AcDbEntity
  8
0
100
AcDbPolyline
 90
        8
 70
     0
 43
0.0
 10
3.22324053443387
 20
6.612105562489542
 42
0.4142135623730964
 10
3.253240534433871
 20
6.642105562489543
 10
3.253240534433871
 20
7.171605562489546
 42
0.4142135623730951
 10
3.22324053443387
 20
7.201605562489547
 10
2.783240534433872
 20
7.201605562489545
 42
0.4142135623730946
 10
2.753240534433871
 20
7.171605562489546
 10
2.753240534433871
 20
6.642105562489543
 42
0.4142135623730953
 10
2.783240534433872
 20
6.612105562489544
 42
0.4142135623730953
  0
LINE
  5
1E9C
330
17
100
AcDbEntity
  8
0
100
AcDbLine
 10
4.630649800650026
 20
7.202105562489542
 30
0.0
 11
6.253240534433864
 21
7.202105562489542
 31
0.0
  0
LINE
  5
1E9D
330
17
100
AcDbEntity
  8
0
100
AcDbLine
 10
4.630649800650026
 20
7.452105562489542
 30
0.0
 11
4.630649800650026
 21
7.202105562489542
 31
0.0
  0
LINE
  5
1E9E
330
17
100
AcDbEntity
  8
0
100
AcDbLine
 10
4.630649800650026
 20
8.202105562489542
 30
0.0
 11
4.630649800650026
 21
7.952105562489542
 31
0.0
  0
LINE
  5
1E9F
330
17
100
AcDbEntity
  8
0
100
AcDbLine
 10
4.680649800650023
 20
7.952105562489542
 30
0.0
 11
4.680649800650023
 21
7.452105562489542
 31
0.0
  0
LINE
  5
1EA0
330
17
100
AcDbEntity
  8
0
100
AcDbLine
 10
5.055649800650023
 20
7.952105562489542
 30
0.0
 11
5.055649800650023
 21
7.452105562489542
 31
0.0
  0
LINE
  5
1EA1
330
17
100
AcDbEntity
  8
0
100
AcDbLine
 10
6.253240534433864
 20
7.452105562489542
 30
0.0
 11
4.630649800650026
 21
7.452105562489542
 31
0.0
  0
LINE
  5
1EA2
330
17
100
AcDbEntity
  8
0
100
AcDbLine
 10
4.630649800650026
 20
7.952105562489542
 30
0.0
 11
6.253240534433864
 21
7.952105562489542
 31
0.0
  0
LINE
  5
1EA3
330
17
100
AcDbEntity
  8
0
100
AcDbLine
 10
6.253240534433864
 20
8.202105562489537
 30
0.0
 11
4.630649800650026
 21
8.202105562489542
 31
0.0
  0
LINE
  5
1EA4
330
17
100
AcDbEntity
  8
0
100
AcDbLine
 10
2.953241108365247
 20
7.952105562489542
 30
0.0
 11
2.953241108365247
 21
7.452105562489542
 31
0.0
  0
LINE
  5
1EA5
330
17
100
AcDbEntity
  8
0
100
AcDbLine
 10
1.753240534433864
 20
8.202105562489537
 30
0.0
 11
3.378241108365244
 21
8.202105562489542
 31
0.0
  0
LINE
  5
1EA6
330
17
100
AcDbEntity
  8
0
100
AcDbLine
 10
3.378241108365244
 20
8.202105562489542
 30
0.0
 11
3.378241108365244
 21
7.952105562489542
 31
0.0
  0
LINE
  5
1EA7
330
17
100
AcDbEntity
  8
0
100
AcDbLine
 10
3.378241108365244
 20
7.952105562489542
 30
0.0
 11
1.753240534433864
 21
7.952105562489542
 31
0.0
  0
LINE
  5
1EA8
330
17
100
AcDbEntity
  8
0
100
AcDbLine
 10
3.328241108365247
 20
7.952105562489542
 30
0.0
 11
3.328241108365247
 21
7.452105562489542
 31
0.0
  0
LINE
  5
1EA9
330
17
100
AcDbEntity
  8
0
100
AcDbLine
 10
1.753240534433864
 20
7.452105562489542
 30
0.0
 11
3.378241108365244
 21
7.452105562489542
 31
0.0
  0
LINE
  5
1EAA
330
17
100
AcDbEntity
  8
0
100
AcDbLine
 10
3.378241108365244
 20
7.452105562489542
 30
0.0
 11
3.378241108365244
 21
7.202105562489542
 31
0.0
  0
LINE
  5
1EAB
330
17
100
AcDbEntity
  8
0
100
AcDbLine
 10
3.378241108365244
 20
7.202105562489542
 30
0.0
 11
1.753240534433864
 21
7.202105562489542
 31
0.0
  0
LWPOLYLINE
  5
1EAC
330
17
100
AcDbEntity
  8
0
100
AcDbPolyline
 90
       77
 70
     0
 43
0.0
 10
4.253240535047019
 20
8.264118693115433
 10
4.128240534433864
 20
8.264118693115433
 42
0.4142135623730951
 10
4.09824053443387
 20
8.234118693115435
 10
4.09824053443387
 20
8.074118693115432
 10
4.118240534433866
 20
8.074118693115435
 10
4.09824053443387
 20
7.960693056723085
 10
4.098240534433863
 20
7.609118693115428
 42
-0.9999999999999998
 10
3.908240534433865
 20
7.609118693115428
 10
3.908240534433865
 20
7.960693056723085
 10
3.888240534433869
 20
8.074118693115435
 10
3.908240534433865
 20
8.074118693115432
 10
3.908240534433865
 20
8.234118693115435
 42
0.4142135623730951
 10
3.878240534433864
 20
8.264118693115433
 10
3.753240535047019
 20
8.264118693115433
 10
3.753240535047041
 20
7.608136202787489
 42
0.3564136925077798
 10
3.953240534433867
 20
7.363169718837111
 10
3.953240534433867
 20
6.211618693115434
 42
-0.4142135623730951
 10
3.853240534433865
 20
6.111618693115437
 10
2.903240534433869
 20
6.111618693115433
 42
-0.4142135623730996
 10
2.843240534433867
 20
6.171618693115435
 10
2.843240534433867
 20
6.322118693115422
 42
-0.4142135623731039
 10
2.873240534433868
 20
6.352118693115423
 10
3.068387720691475
 20
6.352118693115423
 42
0.1989123673796649
 10
3.110814127562669
 20
6.369692286244232
 10
3.244453737869463
 20
6.503331896551033
 42
0.198912367379658
 10
3.253240534433871
 20
6.52454509998663
 10
3.253240534433864
 20
6.612118693115435
 10
3.095740534433865
 20
6.612118693115435
 42
0.4142135623730864
 10
3.065740534433864
 20
6.582118693115434
 10
3.065740534433864
 20
6.562118693115435
 10
3.110740534433865
 20
6.562118693115435
 10
3.110740534433858
 20
6.506943815444225
 42
-0.3704662542213848
 10
2.895740534433869
 20
6.506943815444239
 10
2.895740534433869
 20
6.562118693115435
 10
2.940740534433871
 20
6.562118693115435
 10
2.940740534433864
 20
6.582118693115434
 42
0.4142135623730691
 10
2.91074053443387
 20
6.612118693115435
 10
2.783240534433865
 20
6.612118693115432
 10
2.783240534433865
 20
6.582118693115438
 10
2.753240534433864
 20
6.582118693115438
 10
2.753240534433864
 20
3.642118742523829
 42
0.8769776859272855
 10
2.812218317904637
 20
3.634354154164465
 10
2.843240534433867
 20
3.750130642414878
 10
2.843240534433867
 20
5.951618693115436
 42
-0.4142135623730947
 10
2.903240534433862
 20
6.011618693115437
 10
5.103240534433865
 20
6.011618693115437
 42
-0.4142135623730954
 10
5.163240534433867
 20
5.951618693115438
 10
5.163240534433867
 20
3.750130642414876
 10
5.194262759645191
 20
3.634354121762356
 42
0.8769764629927561
 10
5.253240534433864
 20
3.642118693115431
 10
5.253240534433864
 20
6.582118693115438
 10
5.223240534433863
 20
6.582118693115438
 10
5.223240534433863
 20
6.612118693115432
 10
5.095740534433865
 20
6.612118693115435
 42
0.4142135623730603
 10
5.065740534433864
 20
6.582118693115434
 10
5.065740534433864
 20
6.562118693115435
 10
5.110740534433865
 20
6.562118693115435
 10
5.110740534433865
 20
6.506943815444239
 42
-0.3704662542213866
 10
4.895740534433869
 20
6.506943815444225
 10
4.895740534433862
 20
6.562118693115435
 10
4.940740534433864
 20
6.562118693115435
 10
4.940740534433864
 20
6.582118693115434
 42
0.4142135623730951
 10
4.910740534433863
 20
6.612118693115435
 10
4.753240534433864
 20
6.612118693115435
 10
4.753240534433864
 20
6.52454509998663
 42
0.198912367379655
 10
4.762027330998265
 20
6.503331896551033
 10
4.895666941305059
 20
6.369692286244232
 42
0.1989123673796624
 10
4.938093348176252
 20
6.352118693115423
 10
5.133240534433866
 20
6.352118693115423
 42
-0.4142135623730951
 10
5.16324053443386
 20
6.322118693115422
 10
5.16324053443386
 20
6.171618693115435
 42
-0.4142135623730951
 10
5.103240534433865
 20
6.111618693115437
 10
4.153240534433862
 20
6.111618693115437
 42
-0.414213562373095
 10
4.053240534433868
 20
6.211618693115434
 10
4.053240534433868
 20
7.363169718837101
 42
0.3563939586926031
 10
4.253240534433864
 20
7.60811869311543
 10
4.25325843667219
 20
8.264105562489543
  0
LWPOLYLINE
  5
1EAD
330
17
100
AcDbEntity
  8
0
100
AcDbPolyline
 90
       41
 70
     1
 43
0.0
 10
2.968219812037474
 20
8.701634840686317
 42
-0.1040635034746242
 10
2.970848221354984
 20
8.714126951882793
 10
3.028307667593097
 20
8.844626581918959
 42
0.5416234831226134
 10
2.9999360769106
 20
8.888118693115433
 10
2.95841566964183
 20
8.888118693115433
 42
0.2973336368416811
 10
2.93004407895934
 20
8.869610804311907
 10
2.826902220920821
 20
8.635359080766043
 42
-0.9999999999999998
 10
2.809537403154131
 20
8.536878305464824
 10
2.794415669641836
 20
8.451118693115436
 10
2.824415669641837
 20
8.386118693115435
 10
2.844415669641833
 20
8.386118693115435
 10
2.844415669641833
 20
8.451118693115432
 10
3.706915669641837
 20
8.451118693115436
 10
3.721915669641838
 20
8.436118693115435
 10
3.736915669641838
 20
8.451118693115436
 10
4.268915669641835
 20
8.451118693115432
 10
4.283915669641835
 20
8.436118693115435
 10
4.298915669641836
 20
8.451118693115436
 10
5.161415669641833
 20
8.451118693115436
 10
5.161415669641833
 20
8.386118693115435
 10
5.181415669641829
 20
8.386118693115435
 10
5.21141566964183
 20
8.451118693115436
 10
5.196293936129542
 20
8.536878305464824
 42
-1.0
 10
5.178929118362844
 20
8.635359080766043
 10
5.075787260324332
 20
8.869610804311907
 42
0.2973336368416808
 10
5.047415669641836
 20
8.88811869311543
 10
5.005895262373066
 20
8.888118693115433
 42
0.5416234831226136
 10
4.977523671690569
 20
8.844626581918959
 10
5.034983117928689
 20
8.714126951882793
 42
-0.1040635034746244
 10
5.037611527246191
 20
8.701634840686317
 10
5.037611527246191
 20
8.582118693115436
 42
-0.4142135623730951
 10
5.006611527246192
 20
8.551118693115434
 10
4.252915669641836
 20
8.551118693115434
 10
4.252915669641836
 20
8.576118693115432
 10
4.017915669641837
 20
8.576118693115432
 10
4.002915669641836
 20
8.561118693115435
 10
3.987915669641836
 20
8.576118693115436
 10
3.752915669641836
 20
8.576118693115436
 10
3.752915669641836
 20
8.551118693115434
 10
2.999219812037473
 20
8.551118693115434
 42
-0.4142135623730951
 10
2.968219812037474
 20
8.582118693115436
  0
LWPOLYLINE
  5
1EAE
330
17
100
AcDbEntity
  8
0
100
AcDbPolyline
 90
       12
 70
     1
 43
0.0
 10
2.782261427490482
 20
8.461737000320436
 10
2.796920610079709
 20
8.544873356029171
 42
1.33239341188041
 10
2.807975809687057
 20
8.630580343375065
 10
2.807975809687057
 20
9.139118693115435
 10
5.197855529596623
 20
9.139118693115435
 10
5.197855529596623
 20
8.630580343375065
 42
1.33239341188041
 10
5.208910729203971
 20
8.544873356029171
 10
5.223569911793191
 20
8.461737000320432
 42
0.8617744796823018
 10
5.252915669641836
 20
8.466118742694696
 10
5.252915669641836
 20
9.201118693115436
 10
2.752915669641836
 20
9.201118693115436
 10
2.752915669641836
 20
8.466118742694696
 42
0.861774479682302
  0
TEXT
  5
1EAF
330
17
100
AcDbEntity
  8
KCADSLABEL
100
AcDbText
 10
-5.288113490122752
 20
3.599171324904085
 30
0.0
 40
0.125
  1
822013
 72
     1
 11
-4.996759465566135
 21
3.724171324904085
 31
0.0
100
AcDbText
 73
     3
  0
TEXT
  5
1EB0
330
17
100
AcDbEntity
  8
KCADSLABEL
100
AcDbText
 10
-5.288113490122752
 20
5.740488323098572
 30
0.0
 40
0.125
  1
822004
 72
     1
 11
-4.996759465566135
 21
5.865488323098572
 31
0.0
100
AcDbText
 73
     3
  0
TEXT
  5
1EB1
330
17
100
AcDbEntity
  8
KCADSLABEL
100
AcDbText
 10
3.711886509877247
 20
3.599171324904085
 30
0.0
 40
0.125
  1
822013
 72
     1
 11
4.003240534433864
 21
3.724171324904085
 31
0.0
100
AcDbText
 73
     3
  0
TEXT
  5
1EB2
330
17
100
AcDbEntity
  8
KCADSLABEL
100
AcDbText
 10
3.711886509877247
 20
5.720510223435281
 30
0.0
 40
0.125
  1
822004
 72
     1
 11
4.003240534433864
 21
5.845510223435281
 31
0.0
100
AcDbText
 73
     3
  0
TEXT
  5
1EB3
330
17
100
AcDbEntity
  8
KCADSLABEL
100
AcDbText
 10
5.559086108574335
 20
5.039267238011278
 30
0.0
 40
0.125
  1
822010
 72
     1
 11
5.850440133130952
 21
5.164267238011278
 31
0.0
100
AcDbText
 73
     3
  0
TEXT
  5
1EB4
330
17
100
AcDbEntity
  8
KCADSLABEL
100
AcDbText
 10
1.864686911180159
 20
5.039267238011278
 30
0.0
 40
0.125
  1
822010
 72
     1
 11
2.156040935736776
 21
5.164267238011278
 31
0.0
100
AcDbText
 73
     3
  0
TEXT
  5
1EB5
330
17
100
AcDbEntity
  8
KCADSLABEL
100
AcDbText
 10
-5.288113490122752
 20
9.320847073278171
 30
0.0
 40
0.125
  1
216103
 72
     1
 11
-4.996759465566135
 21
9.445847073278171
 31
0.0
100
AcDbText
 73
     3
  0
TEXT
  5
1EB6
330
17
100
AcDbEntity
  8
KCADSLABEL
100
AcDbText
 10
-5.288438354914783
 20
8.69899529569477
 30
0.0
 40
0.125
  1
216051
 72
     1
 11
-4.997084330358166
 21
8.82399529569477
 31
0.0
100
AcDbText
 73
     3
  0
TEXT
  5
1EB7
330
17
100
AcDbEntity
  8
KCADSLABEL
100
AcDbText
 10
3.71156164508522
 20
9.320847073278171
 30
0.0
 40
0.125
  1
216103
 72
     1
 11
4.002915669641836
 21
9.445847073278171
 31
0.0
100
AcDbText
 73
     3
  0
TEXT
  5
1EB8
330
17
100
AcDbEntity
  8
KCADSLABEL
100
AcDbText
 10
3.71156164508522
 20
8.69899529569477
 30
0.0
 40
0.125
  1
216051
 72
     1
 11
4.002915669641836
 21
8.82399529569477
 31
0.0
100
AcDbText
 73
     3
  0
LWPOLYLINE
  5
1EB9
330
17
100
AcDbEntity
  8
0
100
AcDbPolyline
 90
       98
 70
     1
 43
0.0
 10
-4.396759465566134
 20
3.449118693115433
 10
-4.421759465566125
 20
3.424118693115433
 10
-4.446759465566131
 20
3.449118693115433
 10
-4.47175946556613
 20
3.424118693115433
 10
-4.496759465566135
 20
3.449118693115433
 10
-4.521759465566127
 20
3.424118693115433
 10
-4.546759465566132
 20
3.449118693115433
 10
-4.571759465566131
 20
3.424118693115433
 10
-4.596759465566137
 20
3.449118693115433
 10
-4.621759465566128
 20
3.424118693115433
 10
-4.646759465566134
 20
3.449118693115433
 10
-4.671759465566125
 20
3.424118693115433
 10
-4.696759465566131
 20
3.449118693115433
 10
-4.72175946556613
 20
3.424118693115433
 10
-4.746759465566135
 20
3.449118693115433
 10
-4.771759465566127
 20
3.424118693115433
 10
-4.796759465566132
 20
3.449118693115433
 10
-4.821759465566131
 20
3.424118693115433
 10
-4.846759465566137
 20
3.449118693115433
 10
-4.871759465566128
 20
3.424118693115433
 10
-4.896759465566134
 20
3.449118693115433
 10
-4.921759465566125
 20
3.424118693115433
 10
-4.946759465566131
 20
3.449118693115433
 10
-4.97175946556613
 20
3.424118693115433
 10
-4.996759465566135
 20
3.449118693115433
 10
-5.021759465566127
 20
3.424118693115433
 10
-5.046759465566132
 20
3.449118693115433
 10
-5.071759465566131
 20
3.424118693115433
 10
-5.096759465566137
 20
3.449118693115433
 10
-5.121759465566128
 20
3.424118693115433
 10
-5.146759465566134
 20
3.449118693115433
 10
-5.171759465566125
 20
3.424118693115433
 10
-5.196759465566131
 20
3.449118693115433
 10
-5.22175946556613
 20
3.424118693115433
 10
-5.246759465566135
 20
3.449118693115433
 10
-5.271759465566127
 20
3.424118693115433
 10
-5.296759465566132
 20
3.449118693115433
 10
-5.321759465566131
 20
3.424118693115433
 10
-5.346759465566137
 20
3.449118693115433
 10
-5.371759465566128
 20
3.424118693115433
 10
-5.396759465566134
 20
3.449118693115433
 10
-5.421759465566125
 20
3.424118693115433
 10
-5.446759465566131
 20
3.449118693115433
 10
-5.47175946556613
 20
3.424118693115433
 10
-5.496759465566135
 20
3.449118693115433
 10
-5.521759465566127
 20
3.424118693115433
 10
-5.546759465566132
 20
3.449118693115433
 10
-5.571759465566131
 20
3.424118693115433
 10
-5.596759465566137
 20
3.449118693115433
 10
-5.621759465566128
 20
3.424118693115433
 10
-5.646759465566134
 20
3.449118693115433
 10
-5.671759465566125
 20
3.424118693115433
 10
-5.696759465566131
 20
3.449118693115433
 10
-5.72175946556613
 20
3.424118693115433
 10
-5.746759465566135
 20
3.449118693115433
 10
-5.771759465566127
 20
3.424118693115433
 10
-5.796759465566132
 20
3.449118693115433
 10
-5.821759465566131
 20
3.424118693115433
 10
-5.846759465566137
 20
3.449118693115433
 10
-5.871759465566128
 20
3.424118693115433
 10
-5.896759465566134
 20
3.449118693115433
 10
-5.921759465566125
 20
3.424118693115433
 10
-5.946759465566131
 20
3.449118693115433
 10
-5.97175946556613
 20
3.424118693115433
 10
-5.996759465566128
 20
3.449118693115433
 10
-6.021759465566134
 20
3.424118693115433
 10
-6.027759465566134
 20
3.424118693115433
 10
-6.027759465566134
 20
3.424118693115433
 10
-6.027759465566134
 20
4.737118693115434
 10
-6.107759465566132
 20
4.737118693115434
 10
-6.152759465566134
 20
4.569176406774822
 10
-6.152759465566134
 20
3.237118693115434
 10
-5.308759465566133
 20
3.237118693115432
 10
-5.246759465566135
 20
3.299118693115431
 10
-4.746759465566135
 20
3.299118693115431
 10
-4.684759465566138
 20
3.237118693115432
 10
-3.840759465566133
 20
3.237118693115434
 10
-3.840759465566133
 20
4.569176406774829
 10
-3.885759465566135
 20
4.737118693115434
 10
-3.965759465566129
 20
4.737118693115434
 10
-3.965759465566129
 20
3.424118693115433
 10
-3.97175946556613
 20
3.424118693115433
 10
-3.996759465566132
 20
3.449118693115433
 10
-4.021759465566137
 20
3.424118693115433
 10
-4.046759465566132
 20
3.449118693115433
 10
-4.071759465566138
 20
3.424118693115433
 10
-4.096759465566133
 20
3.449118693115433
 10
-4.121759465566139
 20
3.424118693115433
 10
-4.14675946556613
 20
3.449118693115433
 10
-4.171759465566129
 20
3.424118693115433
 10
-4.196759465566135
 20
3.449118693115433
 10
-4.22175946556613
 20
3.424118693115433
 10
-4.246759465566135
 20
3.449118693115433
 10
-4.271759465566127
 20
3.424118693115433
 10
-4.296759465566132
 20
3.449118693115433
 10
-4.321759465566131
 20
3.424118693115433
 10
-4.346759465566137
 20
3.449118693115433
 10
-4.371759465566128
 20
3.424118693115433
  0
LWPOLYLINE
  5
1EBA
330
17
100
AcDbEntity
  8
0
100
AcDbPolyline
 90
       98
 70
     1
 43
0.0
 10
4.753240534433864
 20
3.449118693115432
 10
4.728240534433872
 20
3.424118693115432
 10
4.703240534433867
 20
3.449118693115432
 10
4.678240534433868
 20
3.424118693115432
 10
4.653240534433862
 20
3.449118693115432
 10
4.628240534433871
 20
3.424118693115432
 10
4.603240534433865
 20
3.449118693115432
 10
4.578240534433874
 20
3.424118693115432
 10
4.553240534433868
 20
3.449118693115432
 10
4.528240534433869
 20
3.424118693115432
 10
4.503240534433864
 20
3.449118693115432
 10
4.478240534433872
 20
3.424118693115432
 10
4.453240534433867
 20
3.449118693115432
 10
4.428240534433868
 20
3.424118693115432
 10
4.403240534433862
 20
3.449118693115432
 10
4.378240534433871
 20
3.424118693115432
 10
4.353240534433865
 20
3.449118693115432
 10
4.328240534433874
 20
3.424118693115432
 10
4.303240534433868
 20
3.449118693115432
 10
4.278240534433869
 20
3.424118693115432
 10
4.253240534433864
 20
3.449118693115432
 10
4.228240534433872
 20
3.424118693115432
 10
4.203240534433867
 20
3.449118693115432
 10
4.178240534433868
 20
3.424118693115432
 10
4.153240534433862
 20
3.449118693115432
 10
4.128240534433871
 20
3.424118693115432
 10
4.103240534433865
 20
3.449118693115432
 10
4.078240534433874
 20
3.424118693115432
 10
4.053240534433868
 20
3.449118693115432
 10
4.028240534433869
 20
3.424118693115432
 10
4.003240534433864
 20
3.449118693115432
 10
3.978240534433872
 20
3.424118693115432
 10
3.953240534433867
 20
3.449118693115432
 10
3.928240534433868
 20
3.424118693115432
 10
3.903240534433862
 20
3.449118693115432
 10
3.878240534433871
 20
3.424118693115432
 10
3.853240534433865
 20
3.449118693115432
 10
3.828240534433874
 20
3.424118693115432
 10
3.803240534433868
 20
3.449118693115432
 10
3.778240534433869
 20
3.424118693115432
 10
3.753240534433864
 20
3.449118693115432
 10
3.728240534433872
 20
3.424118693115432
 10
3.703240534433867
 20
3.449118693115432
 10
3.678240534433868
 20
3.424118693115432
 10
3.653240534433862
 20
3.449118693115432
 10
3.628240534433871
 20
3.424118693115432
 10
3.603240534433865
 20
3.449118693115432
 10
3.578240534433874
 20
3.424118693115432
 10
3.553240534433868
 20
3.449118693115432
 10
3.528240534433869
 20
3.424118693115432
 10
3.503240534433864
 20
3.449118693115432
 10
3.478240534433872
 20
3.424118693115432
 10
3.453240534433867
 20
3.449118693115432
 10
3.428240534433868
 20
3.424118693115432
 10
3.403240534433862
 20
3.449118693115432
 10
3.378240534433871
 20
3.424118693115432
 10
3.353240534433865
 20
3.449118693115432
 10
3.328240534433874
 20
3.424118693115432
 10
3.303240534433868
 20
3.449118693115432
 10
3.278240534433869
 20
3.424118693115432
 10
3.253240534433864
 20
3.449118693115432
 10
3.228240534433872
 20
3.424118693115432
 10
3.203240534433867
 20
3.449118693115432
 10
3.178240534433868
 20
3.424118693115432
 10
3.153240534433862
 20
3.449118693115432
 10
3.128240534433871
 20
3.424118693115432
 10
3.103240534433865
 20
3.449118693115432
 10
3.078240534433874
 20
3.424118693115432
 10
3.053240534433868
 20
3.449118693115432
 10
3.028240534433869
 20
3.424118693115432
 10
3.003240534433871
 20
3.449118693115432
 10
2.978240534433865
 20
3.424118693115432
 10
2.972240534433865
 20
3.424118693115432
 10
2.972240534433865
 20
3.424118693115432
 10
2.972240534433865
 20
4.737118693115433
 10
2.892240534433867
 20
4.737118693115433
 10
2.847240534433865
 20
4.569176406774821
 10
2.847240534433865
 20
3.237118693115433
 10
3.691240534433866
 20
3.237118693115431
 10
3.753240534433864
 20
3.29911869311543
 10
4.253240534433864
 20
3.29911869311543
 10
4.315240534433861
 20
3.237118693115431
 10
5.15924053443387
 20
3.237118693115433
 10
5.15924053443387
 20
4.569176406774828
 10
5.114240534433868
 20
4.737118693115433
 10
5.03424053443387
 20
4.737118693115433
 10
5.03424053443387
 20
3.424118693115432
 10
5.028240534433869
 20
3.424118693115432
 10
5.003240534433871
 20
3.449118693115432
 10
4.978240534433865
 20
3.424118693115432
 10
4.953240534433867
 20
3.449118693115432
 10
4.928240534433861
 20
3.424118693115432
 10
4.903240534433869
 20
3.449118693115432
 10
4.878240534433864
 20
3.424118693115432
 10
4.853240534433872
 20
3.449118693115432
 10
4.828240534433874
 20
3.424118693115432
 10
4.803240534433868
 20
3.449118693115432
 10
4.778240534433869
 20
3.424118693115432
  0
LINE
  5
1EBB
330
17
100
AcDbEntity
  8
0
100
AcDbLine
 10
-6.050779121354757
 20
8.451118693115438
 30
0.0
 11
-6.050779121354757
 21
8.201618693115438
 31
0.0
  0
LINE
  5
1EBC
330
17
100
AcDbEntity
  8
0
100
AcDbLine
 10
-6.315328749283082
 20
8.201618693115438
 30
0.0
 11
-6.24708433035817
 21
8.451118693115438
 31
0.0
  0
LINE
  5
1EBD
330
17
100
AcDbEntity
  8
0
100
AcDbLine
 10
-6.24708433035817
 20
8.451118693115438
 30
0.0
 11
-6.205584330358163
 21
8.451118693115438
 31
0.0
  0
LINE
  5
1EBE
330
17
100
AcDbEntity
  8
0
100
AcDbLine
 10
-5.750779121354753
 20
8.201618693115438
 30
0.0
 11
-5.750779121354753
 21
8.451118693115438
 31
0.0
  0
LINE
  5
1EBF
330
17
100
AcDbEntity
  8
0
100
AcDbLine
 10
-4.746741563327809
 20
8.264105562489543
 30
0.0
 11
-4.746741563327809
 21
8.451105562489544
 31
0.0
  0
LINE
  5
1EC0
330
17
100
AcDbEntity
  8
0
100
AcDbLine
 10
-4.746741563327809
 20
8.451105562489544
 30
0.0
 11
-4.759241563327805
 21
8.451105562489544
 31
0.0
  0
LINE
  5
1EC1
330
17
100
AcDbEntity
  8
0
100
AcDbLine
 10
-4.871741563327802
 20
8.451105562489546
 30
0.0
 11
-4.871741563327802
 21
8.360105562489545
 31
0.0
  0
LINE
  5
1EC2
330
17
100
AcDbEntity
  8
0
100
AcDbLine
 10
-4.871741563327802
 20
8.360105562489545
 30
0.0
 11
-5.121741563327809
 21
8.360105562489545
 31
0.0
  0
LINE
  5
1EC3
330
17
100
AcDbEntity
  8
0
100
AcDbLine
 10
-5.121741563327809
 20
8.360105562489545
 30
0.0
 11
-5.121741563327809
 21
8.451105562489544
 31
0.0
  0
LINE
  5
1EC4
330
17
100
AcDbEntity
  8
0
100
AcDbLine
 10
-5.246741563327802
 20
8.451105562489546
 30
0.0
 11
-5.246741563327809
 21
8.264105562489543
 31
0.0
  0
LINE
  5
1EC5
330
17
100
AcDbEntity
  8
0
100
AcDbLine
 10
-3.943389539361575
 20
8.451118693115436
 30
0.0
 11
-3.943389539361575
 21
8.201618693115435
 31
0.0
  0
LINE
  5
1EC6
330
17
100
AcDbEntity
  8
0
100
AcDbLine
 10
-3.67883991143325
 20
8.201618693115435
 30
0.0
 11
-3.747084330358163
 21
8.451118693115436
 31
0.0
  0
LINE
  5
1EC7
330
17
100
AcDbEntity
  8
0
100
AcDbLine
 10
-3.747084330358163
 20
8.451118693115436
 30
0.0
 11
-3.788584330358169
 21
8.451118693115436
 31
0.0
  0
LINE
  5
1EC8
330
17
100
AcDbEntity
  8
0
100
AcDbLine
 10
-4.243389539361576
 20
8.201618693115435
 30
0.0
 11
-4.243389539361576
 21
8.451118693115436
 31
0.0
  0
LINE
  5
1EC9
330
17
100
AcDbEntity
  8
0
100
AcDbLine
 10
2.949220878645249
 20
8.451118693115436
 30
0.0
 11
2.949220878645249
 21
8.201618693115435
 31
0.0
  0
LINE
  5
1ECA
330
17
100
AcDbEntity
  8
0
100
AcDbLine
 10
3.249220878645253
 20
8.201618693115435
 30
0.0
 11
3.249220878645253
 21
8.451118693115436
 31
0.0
  0
LINE
  5
1ECB
330
17
100
AcDbEntity
  8
0
100
AcDbLine
 10
2.684671250716924
 20
8.201618693115435
 30
0.0
 11
2.752915669641836
 21
8.451118693115436
 31
0.0
  0
LINE
  5
1ECC
330
17
100
AcDbEntity
  8
0
100
AcDbLine
 10
2.752915669641836
 20
8.451118693115436
 30
0.0
 11
2.794415669641836
 21
8.451118693115436
 31
0.0
  0
LINE
  5
1ECD
330
17
100
AcDbEntity
  8
0
100
AcDbLine
 10
4.25325843667219
 20
8.264105562489543
 30
0.0
 11
4.25325843667219
 21
8.451105562489544
 31
0.0
  0
LINE
  5
1ECE
330
17
100
AcDbEntity
  8
0
100
AcDbLine
 10
4.128258436672197
 20
8.451105562489544
 30
0.0
 11
4.128258436672197
 21
8.360105562489543
 31
0.0
  0
LINE
  5
1ECF
330
17
100
AcDbEntity
  8
0
100
AcDbLine
 10
4.128258436672197
 20
8.360105562489543
 30
0.0
 11
3.87825843667219
 21
8.360105562489543
 31
0.0
  0
LINE
  5
1ED0
330
17
100
AcDbEntity
  8
0
100
AcDbLine
 10
3.87825843667219
 20
8.360105562489543
 30
0.0
 11
3.87825843667219
 21
8.451105562489544
 31
0.0
  0
LINE
  5
1ED1
330
17
100
AcDbEntity
  8
0
100
AcDbLine
 10
3.753258436672197
 20
8.451105562489544
 30
0.0
 11
3.75325843667219
 21
8.264105562489543
 31
0.0
  0
LINE
  5
1ED2
330
17
100
AcDbEntity
  8
0
100
AcDbLine
 10
5.056610460638424
 20
8.451118693115436
 30
0.0
 11
5.056610460638424
 21
8.201618693115435
 31
0.0
  0
LINE
  5
1ED3
330
17
100
AcDbEntity
  8
0
100
AcDbLine
 10
4.75661046063842
 20
8.201618693115435
 30
0.0
 11
4.75661046063842
 21
8.451118693115436
 31
0.0
  0
LINE
  5
1ED4
330
17
100
AcDbEntity
  8
0
100
AcDbLine
 10
5.321160088566749
 20
8.201618693115435
 30
0.0
 11
5.252915669641836
 21
8.451118693115436
 31
0.0
  0
LINE
  5
1ED5
330
17
100
AcDbEntity
  8
0
100
AcDbLine
 10
5.252915669641836
 20
8.451118693115436
 30
0.0
 11
5.21141566964183
 21
8.451118693115436
 31
0.0
  0
LINE
  5
1ED6
330
17
100
AcDbEntity
  8
0
100
AcDbLine
 10
5.188338746564909
 20
8.401118693115435
 30
0.0
 11
5.181415669641829
 21
8.386118693115435
 31
0.0
  0
LINE
  5
1ED7
330
17
100
AcDbEntity
  8
0
100
AcDbLine
 10
5.181415669641829
 20
8.386118693115435
 30
0.0
 11
5.161415669641833
 21
8.386118693115435
 31
0.0
  0
LINE
  5
1ED8
330
17
100
AcDbEntity
  8
0
100
AcDbLine
 10
5.161415669641833
 20
8.386118693115435
 30
0.0
 11
5.161415669641833
 21
8.401118693115435
 31
0.0
  0
LINE
  5
203F
330
17
100
AcDbEntity
  8
0
100
AcDbLine
 10
13.63064980065002
 20
8.202105562489542
 30
0.0
 11
13.63064980065002
 21
7.952105562489542
 31
0.0
  0
LINE
  5
2040
330
17
100
AcDbEntity
  8
0
100
AcDbLine
 10
13.63064980065002
 20
7.952105562489542
 30
0.0
 11
15.25324053443386
 21
7.952105562489542
 31
0.0
  0
LINE
  5
2041
330
17
100
AcDbEntity
  8
0
100
AcDbLine
 10
15.25324053443386
 20
8.202105562489538
 30
0.0
 11
13.63064980065002
 21
8.202105562489542
 31
0.0
  0
LINE
  5
2042
330
17
100
AcDbEntity
  8
0
100
AcDbLine
 10
10.75324053443386
 20
8.202105562489538
 30
0.0
 11
12.37824110836524
 21
8.202105562489542
 31
0.0
  0
LINE
  5
2043
330
17
100
AcDbEntity
  8
0
100
AcDbLine
 10
12.37824110836524
 20
8.202105562489542
 30
0.0
 11
12.37824110836524
 21
7.952105562489542
 31
0.0
  0
LINE
  5
2044
330
17
100
AcDbEntity
  8
0
100
AcDbLine
 10
12.37824110836524
 20
7.952105562489542
 30
0.0
 11
10.75324053443386
 21
7.952105562489542
 31
0.0
  0
LWPOLYLINE
  5
2045
330
17
100
AcDbEntity
  8
0
100
AcDbPolyline
 90
       41
 70
     0
 43
0.0
 10
13.25324053504702
 20
8.264118693115435
 10
13.12824053443386
 20
8.264118693115435
 42
0.4142135623730951
 10
13.09824053443386
 20
8.234118693115437
 10
13.09824053443386
 20
8.074118693115433
 10
13.11824053443386
 20
8.074118693115437
 10
13.09824053443386
 20
7.960693056723087
 10
13.09824053443386
 20
7.60911869311543
 42
-0.9999999999999998
 10
12.90824053443386
 20
7.60911869311543
 10
12.90824053443386
 20
7.960693056723087
 10
12.88824053443386
 20
8.074118693115437
 10
12.90824053443386
 20
8.074118693115433
 10
12.90824053443386
 20
8.234118693115437
 42
0.4142135623730951
 10
12.87824053443386
 20
8.264118693115435
 10
12.75324053504702
 20
8.264118693115435
 10
12.75324053504704
 20
7.608136202787491
 42
0.3564136925077798
 10
12.95324053443386
 20
7.363169718837113
 10
12.95324053443386
 20
6.211618693115436
 42
-0.4142135623730951
 10
12.85324053443386
 20
6.111618693115438
 10
11.90324053443386
 20
6.111618693115435
 42
-0.4142135623730996
 10
11.84324053443386
 20
6.171618693115437
 10
11.84324053443386
 20
6.322118693115424
 42
-0.4142135623731039
 10
11.87324053443386
 20
6.352118693115425
 10
12.06838772069147
 20
6.352118693115425
 42
0.1989123673796649
 10
12.11081412756267
 20
6.369692286244234
 10
12.24445373786946
 20
6.503331896551035
 42
0.198912367379658
 10
12.25324053443387
 20
6.524545099986632
 10
12.25324053443386
 20
6.612118693115437
 10
12.09574053443386
 20
6.612118693115437
 42
0.4142135623730864
 10
12.06574053443386
 20
6.582118693115436
 10
12.06574053443386
 20
6.562118693115436
 10
12.11074053443386
 20
6.562118693115436
 10
12.11074053443386
 20
6.506943815444227
 42
-0.3704662542213848
 10
11.89574053443386
 20
6.506943815444241
 10
11.89574053443386
 20
6.562118693115436
 10
11.94074053443387
 20
6.562118693115436
 10
11.94074053443386
 20
6.582118693115436
 42
0.4142135623730691
 10
11.91074053443387
 20
6.612118693115437
 10
11.78324053443386
 20
6.612118693115434
 10
11.78324053443386
 20
6.58211869311544
 10
11.75324053443386
 20
6.58211869311544
 10
11.75324053443386
 20
4.035769389848661
  0
LWPOLYLINE
  5
2046
330
17
100
AcDbEntity
  8
0
100
AcDbPolyline
 90
       41
 70
     1
 43
0.0
 10
11.96821981203747
 20
8.701634840686319
 42
-0.1040635034746242
 10
11.97084822135498
 20
8.714126951882795
 10
12.02830766759309
 20
8.84462658191896
 42
0.5416234831226134
 10
11.9999360769106
 20
8.888118693115433
 10
11.95841566964183
 20
8.888118693115433
 42
0.2973336368416811
 10
11.93004407895933
 20
8.869610804311907
 10
11.82690222092082
 20
8.635359080766043
 42
-0.9999999999999998
 10
11.80953740315412
 20
8.536878305464826
 10
11.79441566964183
 20
8.451118693115438
 10
11.82441566964183
 20
8.386118693115436
 10
11.84441566964183
 20
8.386118693115436
 10
11.84441566964183
 20
8.451118693115434
 10
12.70691566964183
 20
8.451118693115436
 10
12.72191566964183
 20
8.436118693115437
 10
12.73691566964183
 20
8.451118693115436
 10
13.26891566964183
 20
8.451118693115434
 10
13.28391566964183
 20
8.436118693115435
 10
13.29891566964183
 20
8.451118693115436
 10
14.16141566964183
 20
8.451118693115436
 10
14.16141566964183
 20
8.386118693115435
 10
14.18141566964182
 20
8.386118693115435
 10
14.21141566964183
 20
8.451118693115436
 10
14.19629393612954
 20
8.536878305464824
 42
-1.0
 10
14.17892911836284
 20
8.635359080766043
 10
14.07578726032433
 20
8.869610804311907
 42
0.2973336368416808
 10
14.04741566964183
 20
8.888118693115432
 10
14.00589526237306
 20
8.888118693115433
 42
0.5416234831226136
 10
13.97752367169057
 20
8.844626581918959
 10
14.03498311792868
 20
8.714126951882793
 42
-0.1040635034746244
 10
14.03761152724619
 20
8.701634840686319
 10
14.03761152724619
 20
8.582118693115436
 42
-0.4142135623730951
 10
14.00661152724619
 20
8.551118693115434
 10
13.25291566964183
 20
8.551118693115434
 10
13.25291566964183
 20
8.576118693115434
 10
13.01791566964183
 20
8.576118693115434
 10
13.00291566964183
 20
8.561118693115435
 10
12.98791566964183
 20
8.576118693115436
 10
12.75291566964183
 20
8.576118693115436
 10
12.75291566964183
 20
8.551118693115435
 10
11.99921981203747
 20
8.551118693115435
 42
-0.4142135623730951
 10
11.96821981203747
 20
8.582118693115436
  0
LWPOLYLINE
  5
2047
330
17
100
AcDbEntity
  8
0
100
AcDbPolyline
 90
       12
 70
     1
 43
0.0
 10
11.78226142749048
 20
8.461737000320436
 10
11.7969206100797
 20
8.544873356029171
 42
1.33239341188041
 10
11.80797580968705
 20
8.630580343375065
 10
11.80797580968705
 20
9.139118693115436
 10
14.19785552959662
 20
9.139118693115436
 10
14.19785552959662
 20
8.630580343375065
 42
1.33239341188041
 10
14.20891072920397
 20
8.544873356029171
 10
14.22356991179318
 20
8.461737000320434
 42
0.8617744796823018
 10
14.25291566964183
 20
8.466118742694698
 10
14.25291566964183
 20
9.201118693115436
 10
11.75291566964183
 20
9.201118693115436
 10
11.75291566964183
 20
8.466118742694698
 42
0.861774479682302
  0
TEXT
  5
2048
330
17
100
AcDbEntity
  8
KCADSLABEL
100
AcDbText
 10
12.71188650987724
 20
9.320847073278171
 30
0.0
 40
0.125
  1
216103
 72
     1
 11
13.00324053443386
 21
9.445847073278171
 31
0.0
100
AcDbText
 73
     3
  0
TEXT
  5
2049
330
17
100
AcDbEntity
  8
KCADSLABEL
100
AcDbText
 10
12.71156164508522
 20
8.69899529569477
 30
0.0
 40
0.125
  1
216051
 72
     1
 11
13.00291566964183
 21
8.82399529569477
 31
0.0
100
AcDbText
 73
     3
  0
LWPOLYLINE
  5
204A
330
17
100
AcDbEntity
  8
0
100
AcDbPolyline
 90
       47
 70
     1
 43
0.0
 10
12.22324053443386
 20
7.312118693115436
 42
0.4142135623730776
 10
12.25324053443386
 20
7.342118693115434
 10
12.25324053443386
 20
7.362118693115434
 10
12.09574053443386
 20
7.362118693115434
 42
0.4142135623731039
 10
12.06574053443386
 20
7.332118693115434
 10
12.06574053443386
 20
7.312118693115435
 10
12.11074053443386
 20
7.312118693115436
 10
12.11074053443386
 20
7.25694381544427
 42
-0.3704662542214684
 10
11.89574053443384
 20
7.256943815444248
 10
11.89574053443386
 20
7.312118693115435
 10
11.94074053443386
 20
7.312118693115436
 10
11.94074053443386
 20
7.332118693115434
 42
0.4142135623731037
 10
11.91074053443386
 20
7.362118693115434
 10
11.78324053443386
 20
7.362118693115434
 10
11.78324053443386
 20
7.332118693115434
 10
11.75324053443386
 20
7.332118693115434
 10
11.75324053443386
 20
6.612118693115434
 10
11.84324053443386
 20
6.612118693115434
 10
11.84324053443386
 20
6.647118693115434
 10
11.94074053443382
 20
6.647118693115434
 42
-0.4142135623731211
 10
11.95074053443382
 20
6.637118693115436
 10
11.95074053443382
 20
6.562118693115436
 42
0.5204733673040661
 10
11.94134260019894
 20
6.548701262484566
 10
11.96134260019894
 20
6.493701262484581
 42
0.8392252501910954
 10
11.98074053443382
 20
6.497118693115449
 10
11.98074053443382
 20
6.602118693115436
 42
-0.4142135623730951
 10
11.99074053443382
 20
6.612118693115437
 10
12.01574053443386
 20
6.612118693115437
 42
-0.414213562373069
 10
12.02574053443386
 20
6.602118693115436
 10
12.02574053443386
 20
6.497118693115449
 42
0.8392252501910956
 10
12.04513846866875
 20
6.493701262484581
 10
12.06513846866875
 20
6.548701262484566
 42
0.5204733673040659
 10
12.05574053443386
 20
6.562118693115436
 10
12.05574053443386
 20
6.637118693115436
 42
-0.4142135623731473
 10
12.06574053443386
 20
6.647118693115434
 10
12.16324053443382
 20
6.647118693115434
 10
12.16324053443382
 20
6.612118693115434
 10
12.25324053443386
 20
6.612118693115437
 10
12.25324053443386
 20
6.667001872629491
 42
0.3639702342662059
 10
12.22844997976387
 20
6.696546105219859
 10
11.86803108910385
 20
6.760097680000232
 42
-0.3639702342661994
 10
11.84324053443386
 20
6.789641912590596
 10
11.84324053443386
 20
7.097118693115447
 42
-0.4142135623731039
 10
11.87324053443386
 20
7.127118693115448
 10
12.00324053443384
 20
7.127118693115448
 42
0.2453282281234013
 10
12.21247130366472
 20
7.236353521668178
 42
0.1533065830694743
 10
12.22324053443386
 20
7.270651209067574
  0
LWPOLYLINE
  5
204B
330
17
100
AcDbEntity
  8
0
100
AcDbPolyline
 90
       47
 70
     1
 43
0.0
 10
13.78324053443386
 20
7.312118693115436
 42
-0.4142135623730776
 10
13.75324053443386
 20
7.342118693115434
 10
13.75324053443386
 20
7.362118693115434
 10
13.91074053443386
 20
7.362118693115434
 42
-0.4142135623731039
 10
13.94074053443386
 20
7.332118693115434
 10
13.94074053443386
 20
7.312118693115435
 10
13.89574053443386
 20
7.312118693115436
 10
13.89574053443386
 20
7.25694381544427
 42
0.3704662542214684
 10
14.11074053443388
 20
7.256943815444248
 10
14.11074053443386
 20
7.312118693115435
 10
14.06574053443386
 20
7.312118693115436
 10
14.06574053443386
 20
7.332118693115434
 42
-0.4142135623731037
 10
14.09574053443386
 20
7.362118693115434
 10
14.22324053443387
 20
7.362118693115434
 10
14.22324053443387
 20
7.332118693115434
 10
14.25324053443386
 20
7.332118693115434
 10
14.25324053443386
 20
6.612118693115434
 10
14.16324053443386
 20
6.612118693115434
 10
14.16324053443386
 20
6.647118693115434
 10
14.0657405344339
 20
6.647118693115434
 42
0.4142135623731211
 10
14.0557405344339
 20
6.637118693115436
 10
14.0557405344339
 20
6.562118693115436
 42
-0.5204733673040661
 10
14.06513846866879
 20
6.548701262484566
 10
14.04513846866879
 20
6.493701262484581
 42
-0.8392252501910954
 10
14.0257405344339
 20
6.497118693115449
 10
14.0257405344339
 20
6.602118693115436
 42
0.4142135623730951
 10
14.0157405344339
 20
6.612118693115437
 10
13.99074053443386
 20
6.612118693115437
 42
0.414213562373069
 10
13.98074053443387
 20
6.602118693115436
 10
13.98074053443387
 20
6.497118693115449
 42
-0.8392252501910956
 10
13.96134260019898
 20
6.493701262484581
 10
13.94134260019898
 20
6.548701262484566
 42
-0.5204733673040659
 10
13.95074053443386
 20
6.562118693115436
 10
13.95074053443386
 20
6.637118693115436
 42
0.4142135623731473
 10
13.94074053443387
 20
6.647118693115434
 10
13.8432405344339
 20
6.647118693115434
 10
13.8432405344339
 20
6.612118693115434
 10
13.75324053443386
 20
6.612118693115437
 10
13.75324053443386
 20
6.667001872629491
 42
-0.3639702342662059
 10
13.77803108910385
 20
6.696546105219859
 10
14.13844997976387
 20
6.760097680000232
 42
0.3639702342661994
 10
14.16324053443386
 20
6.789641912590596
 10
14.16324053443386
 20
7.097118693115447
 42
0.4142135623731039
 10
14.13324053443387
 20
7.127118693115448
 10
14.00324053443388
 20
7.127118693115448
 42
-0.2453282281234013
 10
13.794009765203
 20
7.236353521668178
 42
-0.1533065830694743
 10
13.78324053443386
 20
7.270651209067574
  0
TEXT
  5
204C
330
17
100
AcDbEntity
  8
KCADSLABEL
100
AcDbText
 10
14.46491373587163
 20
6.908719558533954
 30
0.0
 40
0.125
  1
822015
 72
     1
 11
14.75626776042824
 21
7.033719558533954
 31
0.0
100
AcDbText
 73
     3
  0
TEXT
  5
204D
330
17
100
AcDbEntity
  8
KCADSLABEL
100
AcDbText
 10
10.91953266440471
 20
6.908719558533954
 30
0.0
 40
0.125
  1
822015
 72
     1
 11
11.21088668896132
 21
7.033719558533954
 31
0.0
100
AcDbText
 73
     3
  0
LWPOLYLINE
  5
204E
330
17
100
AcDbEntity
  8
KCADSMISC
100
AcDbPolyline
 90
        6
 70
     0
 43
0.0
 10
11.55330745158463
 20
4.035769389848653
 10
12.92108964743863
 20
4.035769389848649
 10
13.09822919000912
 20
4.197869428622102
 10
13.00838571316013
 20
3.873669351075204
 10
13.18552525573063
 20
4.035769389848656
 10
14.55330745158463
 20
4.035769389848653
  0
LWPOLYLINE
  5
204F
330
17
100
AcDbEntity
  8
0
100
AcDbPolyline
 90
        6
 70
     0
 43
0.0
 10
11.84324053443386
 20
4.035769389848653
 10
11.84324053443386
 20
5.951618693115438
 42
-0.4142135623730947
 10
11.90324053443386
 20
6.011618693115437
 10
14.10324053443386
 20
6.011618693115439
 42
-0.4142135623730954
 10
14.16324053443386
 20
5.951618693115438
 10
14.16324053443386
 20
4.035769389848653
  0
LWPOLYLINE
  5
2050
330
17
100
AcDbEntity
  8
0
100
AcDbPolyline
 90
       28
 70
     0
 43
0.0
 10
14.25324053443386
 20
4.035769389848654
 10
14.25324053443386
 20
6.58211869311544
 10
14.22324053443386
 20
6.58211869311544
 10
14.22324053443386
 20
6.612118693115434
 10
14.09574053443386
 20
6.612118693115437
 42
0.4142135623730603
 10
14.06574053443386
 20
6.582118693115436
 10
14.06574053443386
 20
6.562118693115436
 10
14.11074053443386
 20
6.562118693115436
 10
14.11074053443386
 20
6.506943815444241
 42
-0.3704662542213866
 10
13.89574053443386
 20
6.506943815444227
 10
13.89574053443386
 20
6.562118693115436
 10
13.94074053443386
 20
6.562118693115436
 10
13.94074053443386
 20
6.582118693115436
 42
0.4142135623730951
 10
13.91074053443386
 20
6.612118693115437
 10
13.75324053443386
 20
6.612118693115437
 10
13.75324053443386
 20
6.524545099986632
 42
0.198912367379655
 10
13.76202733099826
 20
6.503331896551035
 10
13.89566694130505
 20
6.369692286244234
 42
0.1989123673796624
 10
13.93809334817625
 20
6.352118693115425
 10
14.13324053443386
 20
6.352118693115425
 42
-0.4142135623730951
 10
14.16324053443386
 20
6.322118693115424
 10
14.16324053443386
 20
6.171618693115437
 42
-0.4142135623730951
 10
14.10324053443386
 20
6.111618693115438
 10
13.15324053443386
 20
6.111618693115438
 42
-0.414213562373095
 10
13.05324053443386
 20
6.211618693115436
 10
13.05324053443386
 20
7.363169718837102
 42
0.3563939586926031
 10
13.25324053443386
 20
7.608118693115432
 10
13.25325843667219
 20
8.264105562489543
  0
LINE
  5
2051
330
17
100
AcDbEntity
  8
0
100
AcDbLine
 10
11.68480442152865
 20
8.20210556248954
 30
0.0
 11
11.75291566964182
 21
8.451118693115438
 31
0.0
  0
LINE
  5
2052
330
17
100
AcDbEntity
  8
0
100
AcDbLine
 10
11.75291566964182
 20
8.451118693115438
 30
0.0
 11
11.79441566964183
 21
8.451118693115438
 31
0.0
  0
LINE
  5
2053
330
17
100
AcDbEntity
  8
0
100
AcDbLine
 10
11.94922087864524
 20
8.451118693115438
 30
0.0
 11
11.94922087864524
 21
8.202105562489542
 31
0.0
  0
LINE
  5
2054
330
17
100
AcDbEntity
  8
0
100
AcDbLine
 10
12.24922087864524
 20
8.202105562489542
 30
0.0
 11
12.24922087864524
 21
8.451118693115438
 31
0.0
  0
LINE
  5
2055
330
17
100
AcDbEntity
  8
0
100
AcDbLine
 10
14.32116008856674
 20
8.201618693115435
 30
0.0
 11
14.25291566964183
 21
8.451118693115436
 31
0.0
  0
LINE
  5
2056
330
17
100
AcDbEntity
  8
0
100
AcDbLine
 10
14.25291566964183
 20
8.451118693115436
 30
0.0
 11
14.21141566964183
 21
8.451118693115436
 31
0.0
  0
LINE
  5
2057
330
17
100
AcDbEntity
  8
0
100
AcDbLine
 10
14.05661046063842
 20
8.451118693115436
 30
0.0
 11
14.05661046063842
 21
8.202105562489542
 31
0.0
  0
LINE
  5
2058
330
17
100
AcDbEntity
  8
0
100
AcDbLine
 10
13.75661046063842
 20
8.202105562489542
 30
0.0
 11
13.75661046063842
 21
8.451118693115436
 31
0.0
  0
LINE
  5
2059
330
17
100
AcDbEntity
  8
0
100
AcDbLine
 10
13.25325843667219
 20
8.264105562489543
 30
0.0
 11
13.25325843667219
 21
8.451105562489544
 31
0.0
  0
LINE
  5
205A
330
17
100
AcDbEntity
  8
0
100
AcDbLine
 10
13.12825843667219
 20
8.451105562489546
 30
0.0
 11
13.12825843667219
 21
8.360105562489545
 31
0.0
  0
LINE
  5
205B
330
17
100
AcDbEntity
  8
0
100
AcDbLine
 10
13.12825843667219
 20
8.360105562489545
 30
0.0
 11
12.87825843667219
 21
8.360105562489545
 31
0.0
  0
LINE
  5
205C
330
17
100
AcDbEntity
  8
0
100
AcDbLine
 10
12.87825843667219
 20
8.360105562489545
 30
0.0
 11
12.87825843667219
 21
8.451105562489544
 31
0.0
  0
LINE
  5
205D
330
17
100
AcDbEntity
  8
0
100
AcDbLine
 10
12.75325843667219
 20
8.451105562489546
 30
0.0
 11
12.75325843667219
 21
8.264105562489543
 31
0.0
  0
LWPOLYLINE
  5
205E
330
17
100
AcDbEntity
  8
0
100
AcDbPolyline
 90
        4
 70
     0
 43
0.0
 10
12.22324053443387
 20
7.362105562489546
 42
0.4142135623730995
 10
12.25324053443387
 20
7.392105562489547
 10
12.25324053443386
 20
7.921605562489549
 42
0.4142135623730992
 10
12.22324053443387
 20
7.951605562489548
  0
LWPOLYLINE
  5
205F
330
17
100
AcDbEntity
  8
0
100
AcDbPolyline
 90
        4
 70
     0
 43
0.0
 10
11.78324053443386
 20
7.951605562489547
 42
0.4142135623730951
 10
11.75324053443387
 20
7.921605562489547
 10
11.75324053443387
 20
7.392105562489547
 42
0.4142135623730951
 10
11.78324053443386
 20
7.362105562489547
  0
LWPOLYLINE
  5
2060
330
17
100
AcDbEntity
  8
0
100
AcDbPolyline
 90
        4
 70
     0
 43
0.0
 10
14.22324053443386
 20
7.951605562489547
 42
-0.4142135623730951
 10
14.25324053443386
 20
7.921605562489547
 10
14.25324053443386
 20
7.392105562489547
 42
-0.4142135623730951
 10
14.22324053443386
 20
7.362105562489547
  0
LWPOLYLINE
  5
2061
330
17
100
AcDbEntity
  8
0
100
AcDbPolyline
 90
        4
 70
     0
 43
0.0
 10
13.78324053443386
 20
7.362105562489546
 42
-0.4142135623731038
 10
13.75324053443386
 20
7.392105562489547
 10
13.75324053443386
 20
7.921605562489549
 42
-0.4142135623731039
 10
13.78324053443386
 20
7.951605562489548
  0
TEXT
  5
21E9
330
17
100
AcDbEntity
  8
KCADSLABEL
100
AcDbText
 10
22.02822090140359
 20
5.671711027560643
 30
0.0
 40
0.125
  1
822006
 50
360.0
 72
     1
 11
22.3195749259602
 21
5.796711027560643
 31
0.0
100
AcDbText
 73
     3
  0
CIRCLE
  5
21EA
330
17
100
AcDbEntity
  8
0
100
AcDbCircle
 10
23.15096597947993
 20
7.667306276569567
 30
0.0
 40
0.065
  0
LWPOLYLINE
  5
21EB
330
17
100
AcDbEntity
  8
0
100
AcDbPolyline
 90
       10
 70
     1
 43
0.0
 10
22.38138496671857
 20
7.545599156821646
 10
22.33881289795322
 20
7.614099640277098
 42
0.1231056256176614
 10
22.28211416814244
 20
7.812304721033983
 10
22.20436060407811
 20
7.946977844462949
 42
0.2829310141342987
 10
22.02002114667104
 20
8.046667668081008
 42
0.2383127854717355
 10
21.47407481981287
 20
7.731465409306357
 42
0.2829310141342988
 10
21.46823901086136
 20
7.521977844462954
 10
21.54599257492568
 20
7.387304721033993
 42
0.12310562561766
 10
21.6892938451149
 20
7.239099640277109
 10
21.72733096957616
 20
7.167980905506928
 42
0.9999999999999987
  0
ARC
  5
21EC
330
17
100
AcDbEntity
  8
0
100
AcDbCircle
 10
19.04343197535932
 20
12.5718668285029
 30
0.0
 40
5.204769613452624
100
AcDbArc
 50
295.8682993223
 51
304.1317006777003
  0
CIRCLE
  5
21ED
330
17
100
AcDbEntity
  8
0
100
AcDbCircle
 10
21.23713900567234
 20
6.562357758059391
 30
0.0
 40
0.065
  0
ARC
  5
21EE
330
17
100
AcDbEntity
  8
0
100
AcDbCircle
 10
22.07226225985389
 20
7.046614779163503
 30
0.0
 40
0.2590844166999004
100
AcDbArc
 50
185.3199246288251
 51
258.0352545758346
  0
ARC
  5
21EF
330
17
100
AcDbEntity
  8
0
100
AcDbCircle
 10
22.29050394827953
 20
7.179287359370546
 30
0.0
 40
0.2787354858874189
100
AcDbArc
 50
344.8033299240856
 51
51.55460372418875
  0
LINE
  5
21F0
330
17
100
AcDbEntity
  8
0
100
AcDbLine
 10
22.13211416814242
 20
8.072112342169329
 30
0.0
 11
22.38211416814243
 21
7.639099640277111
 31
0.0
  0
LWPOLYLINE
  5
21F1
330
17
100
AcDbEntity
  8
0
100
AcDbPolyline
 90
        4
 70
     0
 43
0.0
 10
23.58761053004904
 20
9.201118693115438
 10
21.96381289795321
 20
8.263618693115441
 10
22.08881289795321
 20
8.047112342169331
 10
23.71261053004904
 20
8.984612342169333
  0
LWPOLYLINE
  5
21F2
330
17
100
AcDbEntity
  8
0
100
AcDbPolyline
 90
        4
 70
     0
 43
0.0
 10
23.96261053004904
 20
8.551599640277112
 10
22.33881289795321
 20
7.614099640277112
 10
22.46381289795321
 20
7.397593289331002
 10
24.08761053004904
 20
8.335093289331002
  0
LWPOLYLINE
  5
21F3
330
17
100
AcDbEntity
  8
0
100
AcDbPolyline
 90
        4
 70
     0
 43
0.0
 10
20.06549621301906
 20
6.301599640277119
 10
21.68929384511489
 20
7.239099640277119
 10
21.81429384511489
 20
7.022593289331009
 10
20.19049621301906
 20
6.085093289331009
  0
LWPOLYLINE
  5
21F4
330
17
100
AcDbEntity
  8
0
100
AcDbPolyline
 90
        4
 70
     0
 43
0.0
 10
19.69049621301907
 20
6.951118693115441
 10
21.31429384511489
 20
7.888618693115448
 10
21.43929384511489
 20
7.672112342169336
 10
19.81549621301907
 20
6.73461234216934
  0
LINE
  5
21F5
330
17
100
AcDbEntity
  8
0
100
AcDbLine
 10
21.39599257492567
 20
7.647112342169341
 30
0.0
 11
21.64599257492567
 21
7.214099640277121
 31
0.0
  0
LWPOLYLINE
  5
21F6
330
17
100
AcDbEntity
  8
0
100
AcDbPolyline
 90
        8
 70
     1
 43
0.0
 10
23.3965851262646
 20
5.583427239491462
 42
0.2679491924311224
 10
23.4265851262646
 20
5.635388763718526
 10
23.4265851262646
 20
7.168253728416988
 42
0.5773502691896262
 10
23.3365851262646
 20
7.220215252644054
 10
21.48142542737117
 20
6.149138301098189
 42
0.4142135623730951
 10
21.4594639031441
 20
6.067176776871122
 10
22.1232139031441
 20
4.917528053347277
 42
0.4142135623730951
 10
22.20517542737117
 20
4.89556652912021
  0
LWPOLYLINE
  5
21F7
330
17
100
AcDbEntity
  8
0
100
AcDbPolyline
 90
       42
 70
     1
 43
0.0
 10
21.47715455548614
 20
6.481535668195673
 10
21.51612569865644
 20
6.504035668195674
 10
21.54371313749203
 20
6.456252822481721
 42
-0.3704662542213855
 10
21.35751767567839
 20
6.348752822481712
 10
21.32993023684278
 20
6.396535668195674
 10
21.36890138001309
 20
6.419035668195675
 10
21.35890138001309
 20
6.436356176271365
 42
0.4142135623730951
 10
21.31792061789955
 20
6.447336938384898
 10
21.1815216168035
 20
6.368586938384897
 10
22.1502716168035
 20
4.690662718552543
 10
24.3153351262646
 20
5.940662718552544
 10
24.0978351262646
 20
6.317383769198778
 10
24.04414155122997
 20
6.286383769198778
 10
24.18664155122997
 20
6.039566529120212
 10
23.6065851262646
 20
5.704670796021285
 42
-0.5773502691896241
 10
23.5165851262646
 20
5.756632320248351
 10
23.5165851262646
 20
7.324138301098187
 10
23.3465851262646
 20
7.618586938384895
 10
23.21018612516855
 20
7.539836938384892
 42
0.4142135623730951
 10
23.19920536305501
 20
7.498856176271358
 10
23.20920536305501
 20
7.48153566819567
 10
23.24817650622532
 20
7.504035668195671
 10
23.27576394506091
 20
7.456252822481703
 42
-0.3704662542213848
 10
23.08956848324726
 20
7.348752822481717
 10
23.06198104441166
 20
7.396535668195671
 10
23.10095218758196
 20
7.419035668195672
 10
23.09095218758196
 20
7.436356176271361
 42
0.4142135623730777
 10
23.04997142546842
 20
7.447336938384895
 10
22.56086080378532
 20
7.106318914643109
 10
22.36519885185252
 20
7.092397827517347
 10
22.31150527681788
 20
7.061397827517346
 10
22.37900527681788
 20
6.944484398006453
 10
22.44395718210172
 20
6.981984398006451
 10
22.50145718210172
 20
6.882391476571241
 10
22.24164956096638
 20
6.732391476571237
 10
22.18414956096638
 20
6.831984398006452
 10
22.24910146625021
 20
6.869484398006449
 10
22.18160146625022
 20
6.986397827517347
 10
22.12790789121557
 20
6.955397827517344
 10
22.01855152408474
 20
6.793158881935086
 10
21.47813531759967
 20
6.539836938384896
 42
0.414213562373069
 10
21.46715455548614
 20
6.498856176271363
  0
LINE
  5
21F8
330
17
100
AcDbEntity
  8
0
100
AcDbLine
 10
21.0495824134119
 20
7.447112342169342
 30
0.0
 11
21.29958241341189
 21
7.014099640277121
 31
0.0
  0
LINE
  5
21F9
330
17
100
AcDbEntity
  8
0
100
AcDbLine
 10
22.47852432965621
 20
8.272112342169331
 30
0.0
 11
22.72852432965621
 21
7.83909964027711
 31
0.0
  0
LWPOLYLINE
  5
21FA
330
17
100
AcDbEntity
  8
0
100
AcDbPolyline
 90
       18
 70
     1
 43
0.0
 10
22.13656814525342
 20
6.960397827517345
 10
22.18160146625022
 20
6.986397827517347
 10
22.20410146625021
 20
6.94742668434705
 42
0.414213562373095
 10
22.48413667402602
 20
6.872391476571239
 42
0.7002075382097127
 10
22.47760963757936
 20
6.909408139707169
 10
22.35594359525189
 20
6.93086114560552
 42
-0.2216946626429498
 10
22.33517227846837
 20
6.945405378195886
 10
22.27652932417596
 20
7.046977954536266
 42
-0.4142135623730951
 10
22.28384983225165
 20
7.074298462611954
 10
22.36318456998794
 20
7.12010239480009
 42
0.198912367379658
 10
22.36784382825083
 20
7.126174458386907
 10
22.37912512204174
 20
7.168276819989687
 10
22.36350012204174
 20
7.19534011385795
 10
22.3098065470071
 20
7.164340113857951
 10
21.8566815470071
 20
7.949175636037596
 42
0.9999999999999998
 10
21.69430178379752
 20
7.855425636037596
 10
22.12156814525342
 20
7.115378589630884
 10
22.12156814525342
 20
6.969058081555191
 42
0.5773502691895958
  0
LWPOLYLINE
  5
21FB
330
17
100
AcDbEntity
  8
KCADSMISC
100
AcDbPolyline
 90
        4
 70
     1
 43
0.0
 10
22.3098065470071
 20
7.164340113857951
 10
22.52587988525132
 20
7.289090113857945
 10
22.02587988525133
 20
8.155115517642386
 10
21.80980654700711
 20
8.030365517642392
  0
LINE
  5
21FC
330
17
100
AcDbEntity
  8
KCADSMISC
100
AcDbLine
 10
22.3098065470071
 20
7.164340113857951
 30
0.0
 11
22.02587988525133
 21
8.155115517642386
 31
0.0
  0
LINE
  5
21FD
330
17
100
AcDbEntity
  8
KCADSMISC
100
AcDbLine
 10
21.80980654700711
 20
8.030365517642392
 30
0.0
 11
22.52587988525132
 21
7.289090113857945
 31
0.0
  0
CIRCLE
  5
21FE
330
17
100
AcDbEntity
  8
0
100
AcDbCircle
 10
21.81416304686125
 20
6.867473423659891
 30
0.0
 40
0.0059
  0
CIRCLE
  5
21FF
330
17
100
AcDbEntity
  8
0
100
AcDbCircle
 10
21.85674761043497
 20
6.81232521645934
 30
0.0
 40
0.0059
  0
CIRCLE
  5
2200
330
17
100
AcDbEntity
  8
0
100
AcDbCircle
 10
21.90564099824181
 20
6.82335485576652
 30
0.0
 40
0.0059
  0
CIRCLE
  5
2201
330
17
100
AcDbEntity
  8
0
100
AcDbCircle
 10
21.9072182043001
 20
6.772933638363998
 30
0.0
 40
0.0059
  0
CIRCLE
  5
2202
330
17
100
AcDbEntity
  8
0
100
AcDbCircle
 10
21.82993510744411
 20
6.766630988854846
 30
0.0
 40
0.0059
  0
CIRCLE
  5
2203
330
17
100
AcDbEntity
  8
0
100
AcDbCircle
 10
21.72899390246945
 20
6.783963277671176
 30
0.0
 40
0.0059
  0
CIRCLE
  5
2204
330
17
100
AcDbEntity
  8
0
100
AcDbCircle
 10
21.74949758122716
 20
6.826506185853423
 30
0.0
 40
0.0059
  0
CIRCLE
  5
2205
330
17
100
AcDbEntity
  8
0
100
AcDbCircle
 10
21.79365935085916
 20
6.796568587354133
 30
0.0
 40
0.0059
  0
CIRCLE
  5
2206
330
17
100
AcDbEntity
  8
0
100
AcDbCircle
 10
21.78419611450944
 20
6.898986692534956
 30
0.0
 40
0.0059
  0
CIRCLE
  5
2207
330
17
100
AcDbEntity
  8
0
100
AcDbCircle
 10
21.72426228429459
 20
6.947832250226355
 30
0.0
 40
0.0059
  0
CIRCLE
  5
2208
330
17
100
AcDbEntity
  8
0
100
AcDbCircle
 10
21.69587257524545
 20
6.90844067213101
 30
0.0
 40
0.0059
  0
CIRCLE
  5
2209
330
17
100
AcDbEntity
  8
0
100
AcDbCircle
 10
21.63436152172793
 20
6.883230063429749
 30
0.0
 40
0.0059
  0
CIRCLE
  5
220A
330
17
100
AcDbEntity
  8
0
100
AcDbCircle
 10
21.5728504854548
 20
6.820203536344269
 30
0.0
 40
0.0059
  0
CIRCLE
  5
220B
330
17
100
AcDbEntity
  8
0
100
AcDbCircle
 10
21.60124019450394
 20
6.782387617960052
 30
0.0
 40
0.0059
  0
CIRCLE
  5
220C
330
17
100
AcDbEntity
  8
0
100
AcDbCircle
 10
21.69744978130374
 20
6.798144247065259
 30
0.0
 40
0.0059
  0
CIRCLE
  5
220D
330
17
100
AcDbEntity
  8
0
100
AcDbCircle
 10
21.70691301765346
 20
6.851716794554684
 30
0.0
 40
0.0059
  0
CIRCLE
  5
220E
330
17
100
AcDbEntity
  8
0
100
AcDbCircle
 10
21.63436152172793
 20
6.837535825160601
 30
0.0
 40
0.0059
  0
CIRCLE
  5
220F
330
17
100
AcDbEntity
  8
0
100
AcDbCircle
 10
21.65959683590489
 20
6.727239410759501
 30
0.0
 40
0.0059
  0
CIRCLE
  5
2210
330
17
100
AcDbEntity
  8
0
100
AcDbCircle
 10
21.57127327939651
 20
6.720936761250349
 30
0.0
 40
0.0059
  0
CIRCLE
  5
2211
330
17
100
AcDbEntity
  8
0
100
AcDbCircle
 10
21.45929163201386
 20
6.766630988854846
 30
0.0
 40
0.0059
  0
CIRCLE
  5
2212
330
17
100
AcDbEntity
  8
0
100
AcDbCircle
 10
21.44036515931443
 20
6.66893987347205
 30
0.0
 40
0.0059
  0
CIRCLE
  5
2213
330
17
100
AcDbEntity
  8
0
100
AcDbCircle
 10
21.50976224312338
 20
6.582278397396434
 30
0.0
 40
0.0059
  0
CIRCLE
  5
2214
330
17
100
AcDbEntity
  8
0
100
AcDbCircle
 10
21.5949313702708
 20
6.612215995895722
 30
0.0
 40
0.0059
  0
CIRCLE
  5
2215
330
17
100
AcDbEntity
  8
0
100
AcDbCircle
 10
21.52080268553138
 20
6.629548295376705
 30
0.0
 40
0.0059
  0
CIRCLE
  5
2216
330
17
100
AcDbEntity
  8
0
100
AcDbCircle
 10
21.50503062494852
 20
6.672091203558952
 30
0.0
 40
0.0059
  0
CIRCLE
  5
2217
330
17
100
AcDbEntity
  8
0
100
AcDbCircle
 10
21.51133944918166
 20
6.703604461769366
 30
0.0
 40
0.0059
  0
CIRCLE
  5
2218
330
17
100
AcDbEntity
  8
0
100
AcDbCircle
 10
21.43563354113958
 20
6.703604461769366
 30
0.0
 40
0.0059
  0
CIRCLE
  5
2219
330
17
100
AcDbEntity
  8
0
100
AcDbCircle
 10
21.41039824420701
 20
6.73196640055753
 30
0.0
 40
0.0059
  0
CIRCLE
  5
221A
330
17
100
AcDbEntity
  8
0
100
AcDbCircle
 10
21.68640933889574
 20
6.66893987347205
 30
0.0
 40
0.0059
  0
CIRCLE
  5
221B
330
17
100
AcDbEntity
  8
0
100
AcDbCircle
 10
21.73530272670259
 20
6.722512420961475
 30
0.0
 40
0.0059
  0
CIRCLE
  5
221C
330
17
100
AcDbEntity
  8
0
100
AcDbCircle
 10
21.6280526974948
 20
6.703604461769366
 30
0.0
 40
0.0059
  0
CIRCLE
  5
221D
330
17
100
AcDbEntity
  8
0
100
AcDbCircle
 10
21.80627701656982
 20
6.724088080672599
 30
0.0
 40
0.0059
  0
CIRCLE
  5
221E
330
17
100
AcDbEntity
  8
0
100
AcDbCircle
 10
21.74161155093574
 20
6.694150482173311
 30
0.0
 40
0.0059
  0
CIRCLE
  5
221F
330
17
100
AcDbEntity
  8
0
100
AcDbCircle
 10
21.53184312793937
 20
6.77923628787315
 30
0.0
 40
0.0059
  0
CIRCLE
  5
2220
330
17
100
AcDbEntity
  8
0
100
AcDbCircle
 10
21.51449386129824
 20
6.81232521645934
 30
0.0
 40
0.0059
  0
CIRCLE
  5
2221
330
17
100
AcDbEntity
  8
0
100
AcDbCircle
 10
21.66590566013803
 20
6.785538948046953
 30
0.0
 40
0.0059
  0
CIRCLE
  5
2222
330
17
100
AcDbEntity
  8
0
100
AcDbCircle
 10
21.78735052662601
 20
6.750874359749637
 30
0.0
 40
0.0059
  0
CIRCLE
  5
2223
330
17
100
AcDbEntity
  8
0
100
AcDbCircle
 10
22.81610967414226
 20
7.43116469883453
 30
0.0
 40
0.0059
  0
CIRCLE
  5
2224
330
17
100
AcDbEntity
  8
0
100
AcDbCircle
 10
22.899599749886
 20
7.498685768957626
 30
0.0
 40
0.0059
  0
CIRCLE
  5
2225
330
17
100
AcDbEntity
  8
0
100
AcDbCircle
 10
22.88170902675993
 20
7.427192873062228
 30
0.0
 40
0.0059
  0
CIRCLE
  5
2226
330
17
100
AcDbEntity
  8
0
100
AcDbCircle
 10
22.68292313952243
 20
7.363643628711434
 30
0.0
 40
0.0059
  0
CIRCLE
  5
2227
330
17
100
AcDbEntity
  8
0
100
AcDbCircle
 10
22.67695956514708
 20
7.42520695484375
 30
0.0
 40
0.0059
  0
CIRCLE
  5
2228
330
17
100
AcDbEntity
  8
0
100
AcDbCircle
 10
22.74454676439361
 20
7.351728140729875
 30
0.0
 40
0.0059
  0
CIRCLE
  5
2229
330
17
100
AcDbEntity
  8
0
100
AcDbCircle
 10
22.65906884202101
 20
7.296122547923685
 30
0.0
 40
0.0059
  0
CIRCLE
  5
222A
330
17
100
AcDbEntity
  8
0
100
AcDbCircle
 10
22.62527524239775
 20
7.246474699108276
 30
0.0
 40
0.0059
  0
CIRCLE
  5
222B
330
17
100
AcDbEntity
  8
0
100
AcDbCircle
 10
22.74653462826686
 20
7.29413664036986
 30
0.0
 40
0.0059
  0
CIRCLE
  5
222C
330
17
100
AcDbEntity
  8
0
100
AcDbCircle
 10
22.59943308102307
 20
7.353714058948352
 30
0.0
 40
0.0059
  0
CIRCLE
  5
222D
330
17
100
AcDbEntity
  8
0
100
AcDbCircle
 10
22.55570017927796
 20
7.381516850019121
 30
0.0
 40
0.0059
  0
CIRCLE
  5
222E
330
17
100
AcDbEntity
  8
0
100
AcDbCircle
 10
22.60738451927168
 20
7.292150722151383
 30
0.0
 40
0.0059
  0
CIRCLE
  5
222F
330
17
100
AcDbEntity
  8
0
100
AcDbCircle
 10
22.60142092765194
 20
7.182925454757482
 30
0.0
 40
0.0059
  0
CIRCLE
  5
2230
330
17
100
AcDbEntity
  8
0
100
AcDbCircle
 10
22.71870460301895
 20
7.240516965782148
 30
0.0
 40
0.0059
  0
CIRCLE
  5
2231
330
17
100
AcDbEntity
  8
0
100
AcDbCircle
 10
22.78430393839224
 20
7.510601256939185
 30
0.0
 40
0.0059
  0
CIRCLE
  5
2232
330
17
100
AcDbEntity
  8
0
100
AcDbCircle
 10
22.75051033876897
 20
7.474854803659159
 30
0.0
 40
0.0059
  0
CIRCLE
  5
2233
330
17
100
AcDbEntity
  8
0
100
AcDbCircle
 10
22.75448606651547
 20
7.42520695484375
 30
0.0
 40
0.0059
  0
CIRCLE
  5
2234
330
17
100
AcDbEntity
  8
0
100
AcDbCircle
 10
22.89761188601275
 20
7.572164583071501
 30
0.0
 40
0.0059
  0
CIRCLE
  5
2235
330
17
100
AcDbEntity
  8
0
100
AcDbCircle
 10
22.97513838738113
 20
7.504643512948405
 30
0.0
 40
0.0059
  0
CIRCLE
  5
2236
330
17
100
AcDbEntity
  8
0
100
AcDbCircle
 10
22.97712623401
 20
7.443080176151436
 30
0.0
 40
0.0059
  0
CIRCLE
  5
2237
330
17
100
AcDbEntity
  8
0
100
AcDbCircle
 10
22.93538121338251
 20
7.405347815317586
 30
0.0
 40
0.0059
  0
CIRCLE
  5
2238
330
17
100
AcDbEntity
  8
0
100
AcDbCircle
 10
22.85189113763877
 20
7.345770396739094
 30
0.0
 40
0.0059
  0
CIRCLE
  5
2239
330
17
100
AcDbEntity
  8
0
100
AcDbCircle
 10
22.84592756326342
 20
7.550319535991512
 30
0.0
 40
0.0059
  0
CIRCLE
  5
223A
330
17
100
AcDbEntity
  8
0
100
AcDbCircle
 10
22.97315052350789
 20
7.550319535991512
 30
0.0
 40
0.0059
  0
CIRCLE
  5
223B
330
17
100
AcDbEntity
  8
0
100
AcDbCircle
 10
22.95128407263533
 20
7.613868780342306
 30
0.0
 40
0.0059
  0
CIRCLE
  5
223C
330
17
100
AcDbEntity
  8
0
100
AcDbCircle
 10
22.86183043976062
 20
7.594009640816143
 30
0.0
 40
0.0059
  0
CIRCLE
  5
223D
330
17
100
AcDbEntity
  8
0
100
AcDbCircle
 10
22.79026751276759
 20
7.552305443545337
 30
0.0
 40
0.0059
  0
CIRCLE
  5
223E
330
17
100
AcDbEntity
  8
0
100
AcDbCircle
 10
22.74255890052037
 20
7.52847447824687
 30
0.0
 40
0.0059
  0
CIRCLE
  5
223F
330
17
100
AcDbEntity
  8
0
100
AcDbCircle
 10
22.64515382939706
 20
7.458967489905298
 30
0.0
 40
0.0059
  0
CIRCLE
  5
2240
330
17
100
AcDbEntity
  8
0
100
AcDbCircle
 10
22.72665604126755
 20
7.494713943185322
 30
0.0
 40
0.0059
  0
CIRCLE
  5
2241
330
17
100
AcDbEntity
  8
0
100
AcDbCircle
 10
22.60142092765194
 20
7.437122442825309
 30
0.0
 40
0.0059
  0
CIRCLE
  5
2242
330
17
100
AcDbEntity
  8
0
100
AcDbCircle
 10
22.62527524239775
 20
7.3874745940099
 30
0.0
 40
0.0059
  0
CIRCLE
  5
2243
330
17
100
AcDbEntity
  8
0
100
AcDbCircle
 10
22.56166375365332
 20
7.312009861677546
 30
0.0
 40
0.0059
  0
CIRCLE
  5
2244
330
17
100
AcDbEntity
  8
0
100
AcDbCircle
 10
22.60340879152519
 20
7.220657826255985
 30
0.0
 40
0.0059
  0
CIRCLE
  5
2245
330
17
100
AcDbEntity
  8
0
100
AcDbCircle
 10
22.66304455252312
 20
7.212714164046728
 30
0.0
 40
0.0059
  0
CIRCLE
  5
2246
330
17
100
AcDbEntity
  8
0
100
AcDbCircle
 10
21.46269117308145
 20
7.776372293482179
 30
0.0
 40
0.0059
  0
CIRCLE
  5
2247
330
17
100
AcDbEntity
  8
0
100
AcDbCircle
 10
21.41041471259591
 20
7.838545275124939
 30
0.0
 40
0.0059
  0
CIRCLE
  5
2248
330
17
100
AcDbEntity
  8
0
100
AcDbCircle
 10
21.63694602412221
 20
7.980299694173153
 30
0.0
 40
0.0059
  0
CIRCLE
  5
2249
330
17
100
AcDbEntity
  8
0
100
AcDbCircle
 10
21.61454182430778
 20
7.928074380208339
 30
0.0
 40
0.0059
  0
CIRCLE
  5
224A
330
17
100
AcDbEntity
  8
0
100
AcDbCircle
 10
21.57969085065075
 20
7.980299694173153
 30
0.0
 40
0.0059
  0
CIRCLE
  5
224B
330
17
100
AcDbEntity
  8
0
100
AcDbCircle
 10
21.54981858997964
 20
7.880822910747152
 30
0.0
 40
0.0059
  0
CIRCLE
  5
224C
330
17
100
AcDbEntity
  8
0
100
AcDbCircle
 10
21.50003149460925
 20
7.836058363537778
 30
0.0
 40
0.0059
  0
CIRCLE
  5
224D
330
17
100
AcDbEntity
  8
0
100
AcDbCircle
 10
21.7663924927785
 20
8.072315721508367
 30
0.0
 40
0.0059
  0
CIRCLE
  5
224E
330
17
100
AcDbEntity
  8
0
100
AcDbCircle
 10
21.71411603229296
 20
8.049933442571353
 30
0.0
 40
0.0059
  0
CIRCLE
  5
224F
330
17
100
AcDbEntity
  8
0
100
AcDbCircle
 10
21.95558346553262
 20
8.17676633877334
 30
0.0
 40
0.0059
  0
CIRCLE
  5
2250
330
17
100
AcDbEntity
  8
0
100
AcDbCircle
 10
21.86098798777775
 20
8.099671834284354
 30
0.0
 40
0.0059
  0
CIRCLE
  5
2251
330
17
100
AcDbEntity
  8
0
100
AcDbCircle
 10
21.9506047697911
 20
8.127027947060341
 30
0.0
 40
0.0059
  0
CIRCLE
  5
2252
330
17
100
AcDbEntity
  8
0
100
AcDbCircle
 10
21.83609442284817
 20
8.12454103547318
 30
0.0
 40
0.0059
  0
CIRCLE
  5
2253
330
17
100
AcDbEntity
  8
0
100
AcDbCircle
 10
21.7788392666211
 20
8.05490728707498
 30
0.0
 40
0.0059
  0
CIRCLE
  5
2254
330
17
100
AcDbEntity
  8
0
100
AcDbCircle
 10
21.74647764083483
 20
8.010142729200953
 30
0.0
 40
0.0059
  0
CIRCLE
  5
2255
330
17
100
AcDbEntity
  8
0
100
AcDbCircle
 10
21.6568608588215
 20
8.03749884197694
 30
0.0
 40
0.0059
  0
CIRCLE
  5
2256
330
17
100
AcDbEntity
  8
0
100
AcDbCircle
 10
21.50998892058108
 20
7.945482825306379
 30
0.0
 40
0.0059
  0
CIRCLE
  5
2257
330
17
100
AcDbEntity
  8
0
100
AcDbCircle
 10
21.44526568625294
 20
7.920613624117553
 30
0.0
 40
0.0059
  0
CIRCLE
  5
2258
330
17
100
AcDbEntity
  8
0
100
AcDbCircle
 10
21.3929892257674
 20
7.893257511341566
 30
0.0
 40
0.0059
  0
CIRCLE
  5
2259
330
17
100
AcDbEntity
  8
0
100
AcDbCircle
 10
21.33573405229594
 20
7.88579675525078
 30
0.0
 40
0.0059
  0
CIRCLE
  5
225A
330
17
100
AcDbEntity
  8
0
100
AcDbCircle
 10
21.39796793875331
 20
7.806215328509978
 30
0.0
 40
0.0059
  0
CIRCLE
  5
225B
330
17
100
AcDbEntity
  8
0
100
AcDbCircle
 10
21.43779762539626
 20
7.749016170041539
 30
0.0
 40
0.0059
  0
CIRCLE
  5
225C
330
17
100
AcDbEntity
  8
0
100
AcDbCircle
 10
21.4477550341237
 20
7.701764700580351
 30
0.0
 40
0.0059
  0
CIRCLE
  5
225D
330
17
100
AcDbEntity
  8
0
100
AcDbCircle
 10
21.41788277345259
 20
7.781346127321151
 30
0.0
 40
0.0059
  0
CIRCLE
  5
225E
330
17
100
AcDbEntity
  8
0
100
AcDbCircle
 10
21.4602018079663
 20
7.823623762943366
 30
0.0
 40
0.0059
  0
CIRCLE
  5
225F
330
17
100
AcDbEntity
  8
0
100
AcDbCircle
 10
21.67428634565001
 20
7.935535146963779
 30
0.0
 40
0.0059
  0
CIRCLE
  5
2260
330
17
100
AcDbEntity
  8
0
100
AcDbCircle
 10
21.89086024844886
 20
8.18671401711594
 30
0.0
 40
0.0059
  0
LINE
  5
2261
330
17
100
AcDbEntity
  8
0
100
AcDbLine
 10
23.3465851262646
 20
7.618586938384895
 30
0.0
 11
23.2215851262646
 21
7.835093289331007
 31
0.0
  0
LINE
  5
2262
330
17
100
AcDbEntity
  8
0
100
AcDbLine
 10
23.2215851262646
 20
7.835093289331007
 30
0.0
 11
22.95095218758196
 21
7.678843289331004
 31
0.0
  0
LINE
  5
2263
330
17
100
AcDbEntity
  8
0
100
AcDbLine
 10
22.95095218758196
 20
7.678843289331004
 30
0.0
 11
23.09095218758196
 21
7.436356176271374
 31
0.0
  0
LINE
  5
2264
330
17
100
AcDbEntity
  8
0
100
AcDbLine
 10
21.1815216168035
 20
6.368586938384897
 30
0.0
 11
21.0565216168035
 21
6.585093289331007
 31
0.0
  0
LINE
  5
2265
330
17
100
AcDbEntity
  8
0
100
AcDbLine
 10
21.0565216168035
 20
6.585093289331007
 30
0.0
 11
21.32715455548613
 21
6.741343289331004
 31
0.0
  0
LINE
  5
2266
330
17
100
AcDbEntity
  8
0
100
AcDbLine
 10
21.32715455548613
 20
6.741343289331004
 30
0.0
 11
21.46715455548613
 21
6.498856176271351
 31
0.0
  0
LINE
  5
239F
330
17
100
AcDbEntity
  8
0
100
AcDbLine
 10
-7.106859445319607
 20
17.12817797864176
 30
0.0
 11
-5.86160617876293
 21
16.66585429051469
 31
0.0
  0
LINE
  5
23A0
330
17
100
AcDbEntity
  8
0
100
AcDbLine
 10
-7.120905291540105
 20
17.194596182106
 30
0.0
 11
-5.770894679551092
 21
17.27633720589357
 31
0.0
  0
ARC
  5
23A1
330
17
100
AcDbEntity
  8
0
100
AcDbCircle
 10
-6.151946098020737
 20
16.39822521195594
 30
0.0
 40
0.3425839448560807
100
AcDbArc
 50
258.225019507805
 51
106.8409437764104
  0
LINE
  5
23A2
330
17
100
AcDbEntity
  8
0
100
AcDbLine
 10
-7.19903089656021
 20
16.43920983784693
 30
0.0
 11
-6.251198088972782
 21
16.72611665979381
 31
0.0
  0
LINE
  5
23A3
330
17
100
AcDbEntity
  8
0
100
AcDbLine
 10
-7.181810736301529
 20
16.40117120473135
 30
0.0
 11
-6.221856719784097
 21
16.06285040038266
 31
0.0
  0
ARC
  5
23A4
330
17
100
AcDbEntity
  8
0
100
AcDbCircle
 10
-6.693957064972063
 20
18.04929630672275
 30
0.0
 40
0.3101783188564283
100
AcDbArc
 50
28.24830662509637
 51
246.6628732729061
  0
LINE
  5
23A5
330
17
100
AcDbEntity
  8
0
100
AcDbLine
 10
-7.150326675683541
 20
17.90837577453745
 30
0.0
 11
-5.626894569599302
 21
17.25111167670879
 31
0.0
  0
LINE
  5
23A7
330
17
100
AcDbEntity
  8
0
100
AcDbLine
 10
-7.277020418592301
 20
17.18514365617721
 30
0.0
 11
-7.120905291540105
 21
17.194596182106
 31
0.0
  0
LINE
  5
23A8
330
17
100
AcDbEntity
  8
0
100
AcDbLine
 10
-7.177013815300139
 20
17.15422410752069
 30
0.0
 11
-7.106859445319607
 21
17.12817797864176
 31
0.0
  0
ARC
  5
23A9
330
17
100
AcDbEntity
  8
0
100
AcDbCircle
 10
-5.75183323485744
 20
16.96152401388899
 30
0.0
 40
0.3153897343508751
100
AcDbArc
 50
249.6316095445371
 51
93.46493937275106
  0
LINE
  5
23AA
330
17
100
AcDbEntity
  8
0
100
AcDbLine
 10
-6.477424848927619
 20
13.69670146956758
 30
0.0
 11
-6.323269383636245
 21
13.75604148636783
 31
0.0
  0
LINE
  5
23AB
330
17
100
AcDbEntity
  8
0
100
AcDbLine
 10
-7.172792625723514
 20
14.13344000237413
 30
0.0
 11
-6.323269383636245
 21
13.80642776597777
 31
0.0
  0
LINE
  5
23AC
330
17
100
AcDbEntity
  8
0
100
AcDbLine
 10
-7.172792625723514
 20
14.18382628198408
 30
0.0
 11
-6.323269383636245
 21
14.51083851838044
 31
0.0
  0
LINE
  5
23AD
330
17
100
AcDbEntity
  8
0
100
AcDbLine
 10
-7.172792625723514
 20
14.88823703438675
 30
0.0
 11
-6.323269383636245
 21
14.56122479799039
 31
0.0
  0
LINE
  5
23AE
330
17
100
AcDbEntity
  8
0
100
AcDbLine
 10
-7.172792625723514
 20
14.93862331399669
 30
0.0
 11
-6.323269383636245
 21
15.26563555039305
 31
0.0
  0
LINE
  5
23AF
330
17
100
AcDbEntity
  8
0
100
AcDbLine
 10
-7.172792625723514
 20
15.64303406639936
 30
0.0
 11
-6.323269383636245
 21
15.316021830003
 31
0.0
  0
LINE
  5
23B0
330
17
100
AcDbEntity
  8
0
100
AcDbLine
 10
-7.172792625723514
 20
15.6934203460093
 30
0.0
 11
-6.221856719784097
 21
16.04407619949296
 31
0.0
  0
ARC
  5
23B1
330
17
100
AcDbEntity
  8
0
100
AcDbCircle
 10
-7.308369219789892
 20
13.7812346261728
 30
0.0
 40
0.3773985160063065
100
AcDbArc
 50
68.94647877946138
 51
192.9434411514898
  0
ARC
  5
23B2
330
17
100
AcDbEntity
  8
0
100
AcDbCircle
 10
-6.187692789569866
 20
13.40383611016649
 30
0.0
 40
0.3773985160063065
100
AcDbArc
 50
50.89677371650113
 51
111.0535212205384
  0
ARC
  5
23B3
330
17
100
AcDbEntity
  8
0
100
AcDbCircle
 10
-7.308369219789892
 20
14.53603165818541
 30
0.0
 40
0.3773985160063065
100
AcDbArc
 50
68.94647877946138
 51
291.0535212205386
  0
ARC
  5
23B4
330
17
100
AcDbEntity
  8
0
100
AcDbCircle
 10
-6.187692789569866
 20
14.15863314217911
 30
0.0
 40
0.3773985160063065
100
AcDbArc
 50
248.9464787794615
 51
111.0535212205384
  0
ARC
  5
23B5
330
17
100
AcDbEntity
  8
0
100
AcDbCircle
 10
-7.308369219789892
 20
15.29082869019802
 30
0.0
 40
0.3773985160063065
100
AcDbArc
 50
68.94647877946138
 51
291.0535212205386
  0
ARC
  5
23B6
330
17
100
AcDbEntity
  8
0
100
AcDbCircle
 10
-6.187692789569866
 20
14.91343017419172
 30
0.0
 40
0.3773985160063065
100
AcDbArc
 50
248.9464787794615
 51
111.0535212205384
  0
ARC
  5
23B7
330
17
100
AcDbEntity
  8
0
100
AcDbCircle
 10
-7.308369219789892
 20
16.04562572221064
 30
0.0
 40
0.3773985160063065
100
AcDbArc
 50
70.40651717697222
 51
291.0535212205386
  0
ARC
  5
23B8
330
17
100
AcDbEntity
  8
0
100
AcDbCircle
 10
-6.187692789569866
 20
15.66822720620433
 30
0.0
 40
0.3773985160063065
100
AcDbArc
 50
248.9464787794615
 51
95.19379992693107
  0
ARC
  5
23B9
330
17
100
AcDbEntity
  8
0
100
AcDbCircle
 10
-7.299829534288869
 20
17.56185227583556
 30
0.0
 40
0.3773985160063074
100
AcDbArc
 50
66.66287327290615
 51
273.464939372751
  0
ARC
  5
23BA
330
17
100
AcDbEntity
  8
0
100
AcDbCircle
 10
-7.308369219789892
 20
16.80042275422325
 30
0.0
 40
0.3773985160063065
100
AcDbArc
 50
69.63160954453716
 51
286.8409437764104
  0
INSERT
  5
23BB
330
17
100
AcDbEntity
  8
0
100
AcDbBlockReference
  2
*X1
 10
-7.885728694617207
 20
12.75144110917603
 30
0.0
1001
ACAD
1000
HATCH
1002
{
1070
    16
1000
STEEL
1040
1.5
1040
0.0
1002
}
  0
LWPOLYLINE
  5
23BC
330
17
100
AcDbEntity
  8
0
100
AcDbPolyline
 90
        4
 70
     0
 43
0.0
 10
-4.354018576623364
 20
17.22376863255744
 10
-5.72272869461721
 20
16.43354347749113
 42
0.2679491924311228
 10
-5.752728694617208
 20
16.38158195326406
 10
-5.752728694617208
 20
13.69670146956758
  0
LWPOLYLINE
  5
23BD
330
17
100
AcDbEntity
  8
0
100
AcDbPolyline
 90
        6
 70
     0
 43
0.0
 10
-5.716828694617206
 20
13.69670146956759
 10
-5.716828694617208
 20
16.37344131446848
 42
-0.2679491924311242
 10
-5.701828694617209
 20
16.39942207658202
 10
-4.334018576623361
 20
17.18912761640606
 10
-4.354018576623364
 20
17.22376863255744
 10
-4.334018576623361
 20
17.18912761640606
  0
LINE
  5
23BE
330
17
100
AcDbEntity
  8
0
100
AcDbLine
 10
-5.007810992475349
 20
17.98592307753735
 30
0.0
 11
-5.063652860317433
 21
18.64039126670832
 31
0.0
  0
ARC
  5
23BF
330
17
100
AcDbEntity
  8
0
100
AcDbCircle
 10
-6.08826738112526
 20
18.37472204436717
 30
0.0
 40
0.3773985160063063
100
AcDbArc
 50
39.46596457307281
 51
210.0
  0
LINE
  5
23C0
330
17
100
AcDbEntity
  8
0
100
AcDbLine
 10
-5.79691485990848
 20
18.61460399088334
 30
0.0
 11
-5.642810382357027
 21
17.3113245315579
 31
0.0
  0
LINE
  5
23C1
330
17
100
AcDbEntity
  8
0
100
AcDbLine
 10
-5.772429066467561
 20
18.63108966789652
 30
0.0
 11
-4.989136977933012
 21
17.6887230475642
 31
0.0
  0
LINE
  5
23C2
330
17
100
AcDbEntity
  8
0
100
AcDbLine
 10
-3.332508994867752
 20
19.79096213653829
 30
0.0
 11
-3.582508994867752
 21
20.22397483843051
 31
0.0
  0
LINE
  5
23C3
330
17
100
AcDbEntity
  8
0
100
AcDbLine
 10
-3.678919156381526
 20
19.59096213653829
 30
0.0
 11
-3.928919156381526
 21
20.02397483843051
 31
0.0
  0
LINE
  5
23C4
330
17
100
AcDbEntity
  8
0
100
AcDbLine
 10
-4.709078695018566
 20
18.02625079735935
 30
0.0
 11
-4.479504680150196
 21
17.62861693950976
 31
0.0
  0
LINE
  5
23C5
330
17
100
AcDbEntity
  8
0
100
AcDbLine
 10
-6.415104083337269
 20
18.18602278636402
 30
0.0
 11
-5.642810382357027
 21
17.3113245315579
 31
0.0
  0
ARC
  5
23C6
330
17
100
AcDbEntity
  8
0
100
AcDbCircle
 10
-5.315973680145016
 20
17.50002378956105
 30
0.0
 40
0.3773985160063063
100
AcDbArc
 50
330.1576724357585
 51
30.00000000000021
  0
ARC
  5
23C7
330
17
100
AcDbEntity
  8
0
100
AcDbCircle
 10
-5.412498359506828
 20
18.74457766757274
 30
0.0
 40
0.3773985160063063
100
AcDbArc
 50
78.51134222623354
 51
197.5003306582117
  0
ARC
  5
23C8
330
17
100
AcDbEntity
  8
0
100
AcDbCircle
 10
-4.656099596912167
 20
17.88309026215499
 30
0.0
 40
0.3773985160063063
100
AcDbArc
 50
210.0
 51
303.9045885855226
  0
LINE
  5
23C9
330
17
100
AcDbEntity
  8
0
100
AcDbLine
 10
-4.982936299124181
 20
17.69439100415184
 30
0.0
 11
-5.007810992475349
 21
17.98592307753735
 31
0.0
  0
ARC
  5
23CA
330
17
100
AcDbEntity
  8
0
100
AcDbCircle
 10
-5.315973680145016
 20
17.50002378956105
 30
0.0
 40
0.3773985160063061
100
AcDbArc
 50
210.0
 51
330.1576724357585
  0
TEXT
  5
23CB
330
17
100
AcDbEntity
  8
KCADSLABEL
100
AcDbText
 10
-2.525124661261368
 20
17.31757880709708
 30
0.0
 40
0.125
  1
822008
 50
360.0
 72
     1
 11
-2.233770636704751
 21
17.44257880709708
 31
0.0
100
AcDbText
 73
     3
  0
LWPOLYLINE
  5
23CC
330
17
100
AcDbEntity
  8
0
100
AcDbPolyline
 90
       60
 70
     1
 43
0.0
 10
-1.580458759530082
 20
17.48332211397308
 10
-1.37545875953008
 20
17.12825169842145
 10
-2.350603364191358
 20
16.56525169842145
 42
-0.4142135623730951
 10
-2.435296939225996
 20
16.58794527345609
 10
-3.001546939226
 20
17.56871904324198
 10
-2.54401518555747
 20
19.27625079735936
 10
-2.714015185557465
 20
19.57069943464607
 10
-2.850414186653524
 20
19.49194943464607
 42
0.4142135623730951
 10
-2.861394948767057
 20
19.45096867253254
 10
-2.851394948767056
 20
19.43364816445685
 10
-2.812423805596755
 20
19.45614816445685
 10
-2.784836366761155
 20
19.40836531874287
 42
-0.370466254221383
 10
-2.971031828574813
 20
19.30086531874289
 10
-2.998619267410412
 20
19.34864816445685
 10
-2.959648124240108
 20
19.37114816445685
 10
-2.96964812424011
 20
19.38846867253254
 42
0.4142135623730951
 10
-3.010628886353644
 20
19.39944943464607
 10
-3.499739508036744
 20
19.05843141090428
 10
-3.695401459969553
 20
19.04451032377852
 10
-3.749095035004185
 20
19.01351032377852
 10
-3.681595035004186
 20
18.89659689426763
 10
-3.616643129720352
 20
18.93409689426762
 10
-3.559143129720351
 20
18.83450397283241
 10
-3.818950750855685
 20
18.68450397283241
 10
-3.876450750855686
 20
18.78409689426763
 10
-3.811498845571855
 20
18.82159689426762
 10
-3.87899884557185
 20
18.93851032377852
 10
-3.93269242060649
 20
18.90751032377852
 10
-4.002974115407746
 20
18.80324179001636
 10
-3.88805329123413
 20
18.60419308369996
 10
-4.658815899540251
 20
18.1591930843131
 42
-0.4142135623730951
 10
-4.699796661653786
 20
18.17017384642664
 10
-5.185546661653785
 20
19.01151752620322
 42
-0.4142135623730778
 10
-5.174565899540257
 20
19.05249828831675
 10
-5.053322343010429
 20
19.12249828831676
 42
0.2453282281231889
 10
-4.926740595879508
 20
19.32171380943671
 42
0.1533065830696684
 10
-4.934563012153842
 20
19.35680109340026
 10
-4.955296754177859
 20
19.39271298801688
 42
0.4142135623731166
 10
-4.944315992064326
 20
19.43369375013041
 10
-4.954315992064324
 20
19.45101425820611
 10
-5.090714993160376
 20
19.3722642582061
 42
0.4142135623731037
 10
-5.101695755273909
 20
19.33128349609257
 10
-5.091695755273907
 20
19.31396298801688
 10
-5.052724612103609
 20
19.33646298801688
 10
-5.025137173268007
 20
19.28868014230291
 42
-0.3704662542213891
 10
-5.211332635081666
 20
19.18118014230293
 10
-5.23892007391726
 20
19.22896298801688
 10
-5.19994893074696
 20
19.25146298801688
 10
-5.209948930746961
 20
19.26878349609257
 42
0.4142135623730516
 10
-5.250929692860492
 20
19.27976425820611
 10
-5.387328693956544
 20
19.2010142582061
 10
-4.283828693956547
 20
17.28969619205385
 42
-0.4142135623730906
 10
-4.306522268991181
 20
17.20500261701922
 10
-5.079882954570689
 20
16.75850261701922
 42
0.9999999999999998
 10
-5.034882954570691
 20
16.68056033067862
 10
-4.268222453684342
 20
17.1231919772424
 42
-0.2316761058155555
 10
-4.21382061319137
 20
17.12691228434041
 10
-2.445899479604439
 20
16.40630941208085
 10
-1.276765184495446
 20
17.08130941208085
 10
-1.52676518449545
 20
17.51432211397308
  0
LWPOLYLINE
  5
23CD
330
17
100
AcDbEntity
  8
0
100
AcDbPolyline
 90
       10
 70
     1
 43
0.0
 10
-3.085288215439821
 20
17.53376318833497
 42
-0.1989123673796587
 10
-3.091482041635111
 20
17.58080996913133
 10
-2.672987556387306
 20
19.14265265076352
 42
0.6681786379192945
 10
-2.716965331175978
 20
19.17639798423013
 10
-4.605155645502411
 20
18.08625079797251
 42
0.4142135623730951
 10
-4.616136407615944
 20
18.04527003585898
 10
-4.130563288568876
 20
17.20423272287976
 42
0.1665543384369426
 10
-4.100271554027213
 20
17.17781884074711
 10
-2.605064428001754
 20
16.56837392311616
 42
0.7144507839041681
 10
-2.558651203488982
 20
16.62160112648986
  0
CIRCLE
  5
23CE
330
17
100
AcDbEntity
  8
0
100
AcDbCircle
 10
-2.909634332342137
 20
19.61941877283074
 30
0.0
 40
0.065
  0
LWPOLYLINE
  5
23CF
330
17
100
AcDbEntity
  8
0
100
AcDbPolyline
 90
        4
 70
     0
 43
0.0
 10
-2.283470889191087
 20
20.97397483843051
 10
-3.972220426570747
 20
19.99897483843051
 10
-4.097220426570744
 20
20.21548118937662
 10
-2.40847088919109
 20
21.19048118937662
  0
LWPOLYLINE
  5
23D0
330
17
100
AcDbEntity
  8
0
100
AcDbPolyline
 90
        4
 70
     0
 43
0.0
 10
-1.908470889191094
 20
20.32445578559218
 10
-3.597220426570751
 20
19.34945578559218
 10
-3.722220426570747
 20
19.56596213653829
 10
-2.03347088919109
 20
20.54096213653829
  0
LWPOLYLINE
  5
23D1
330
17
100
AcDbEntity
  8
0
100
AcDbPolyline
 90
       18
 70
     1
 43
0.0
 10
-3.924032166568644
 20
18.91251032377852
 10
-3.87899884557185
 20
18.93851032377852
 10
-3.856498845571857
 20
18.89953918060822
 42
0.414213562373095
 10
-3.576463637796043
 20
18.82450397283242
 42
0.7002075382097127
 10
-3.582990674242702
 20
18.86152063596835
 10
-3.704656716570178
 20
18.8829736418667
 42
-0.2216946626429498
 10
-3.725428033353701
 20
18.89751787445706
 10
-3.784070987646104
 20
18.99909045079744
 42
-0.4142135623730951
 10
-3.776750479570417
 20
19.02641095887313
 10
-3.697415741834125
 20
19.07221489106126
 42
0.198912367379658
 10
-3.692756483571234
 20
19.07828695464808
 10
-3.681475189780326
 20
19.12038931625086
 10
-3.697100189780326
 20
19.14745261011913
 10
-3.750793764814965
 20
19.11645261011912
 10
-4.203918764814965
 20
19.90128813229877
 42
0.9999999999999998
 10
-4.366298528024548
 20
19.80753813229877
 10
-3.939032166568645
 20
19.06749108589206
 10
-3.939032166568645
 20
18.92117057781637
 42
0.5773502691895958
  0
LINE
  5
23D2
330
17
100
AcDbEntity
  8
KCADSMISC
100
AcDbLine
 10
-3.750793764814965
 20
19.11645261011912
 30
0.0
 11
-4.034720426570744
 21
20.10722801390356
 31
0.0
  0
LINE
  5
23D3
330
17
100
AcDbEntity
  8
KCADSMISC
100
AcDbLine
 10
-4.250793764814958
 20
19.98247801390357
 30
0.0
 11
-3.534720426570747
 21
19.24120261011912
 31
0.0
  0
LWPOLYLINE
  5
23D4
330
17
100
AcDbEntity
  8
KCADSMISC
100
AcDbPolyline
 90
        4
 70
     1
 43
0.0
 10
-3.750793764814965
 20
19.11645261011912
 10
-3.534720426570747
 20
19.24120261011912
 10
-4.034720426570744
 20
20.10722801390356
 10
-4.250793764814958
 20
19.98247801390357
  0
LWPOLYLINE
  5
23D5
330
17
100
AcDbEntity
  8
0
100
AcDbPolyline
 90
        8
 70
     0
 43
0.0
 10
-7.782991063220639
 20
18.07936430650797
 10
-4.828702578735911
 20
19.78502355828904
 42
-0.4142135623730952
 10
-4.760401308546687
 20
19.76672228809982
 10
-4.277444372002812
 20
18.93021633613801
 10
-4.347592429709352
 20
18.88971633613801
 10
-4.790049366253225
 20
19.65607423039328
 42
0.4142135623730951
 10
-4.858350636442449
 20
19.6743755005825
 10
-7.742491063220637
 20
18.00921624880143
  0
LINE
  5
23D6
330
17
100
AcDbEntity
  8
0
100
AcDbLine
 10
-7.838991063220636
 20
13.71093043785456
 30
0.0
 11
-7.838991063220638
 21
17.98236946128411
 31
0.0
  0
ARC
  5
23D7
330
17
100
AcDbEntity
  8
0
100
AcDbCircle
 10
-7.726991063220638
 20
17.98236946128411
 30
0.0
 40
0.1119999999999994
100
AcDbArc
 50
120.0
 51
180.0
  0
ARC
  5
23D8
330
17
100
AcDbEntity
  8
0
100
AcDbCircle
 10
-7.726991063220636
 20
17.98236946128411
 30
0.0
 40
0.0310000000000005
100
AcDbArc
 50
120.0000000000002
 51
180.0
  0
LINE
  5
23D9
330
17
100
AcDbEntity
  8
0
100
AcDbLine
 10
-7.757991063220637
 20
17.98236946128411
 30
0.0
 11
-7.757991063220637
 21
13.71093043785456
 31
0.0
  0
ARC
  5
23DA
330
17
100
AcDbEntity
  8
0
100
AcDbCircle
 10
-4.924880830579451
 20
20.78917577018329
 30
0.0
 40
1.007048765656755
100
AcDbArc
 50
277.4854560537658
 51
325.2721522630078
  0
LINE
  5
23DB
330
17
100
AcDbEntity
  8
0
100
AcDbLine
 10
-4.592361300960704
 20
19.47409034072413
 30
0.0
 11
-4.514607736896384
 21
19.33941721729517
 31
0.0
  0
LWPOLYLINE
  5
23DC
330
17
100
AcDbEntity
  8
0
100
AcDbPolyline
 90
        9
 70
     0
 43
0.0
 10
-4.514607736896384
 20
19.33941721729517
 10
-4.373619795779441
 20
19.09679705655859
 42
0.9435788474938565
 10
-3.679215345103501
 20
19.49771165308282
 10
-3.721787413868853
 20
19.56621213653827
 42
0.1231056256176613
 10
-3.778486143679629
 20
19.76441721729516
 10
-3.85623970774395
 20
19.89909034072412
 42
0.2829310141342993
 10
-4.04057916515103
 20
19.99878016434218
 42
0.2383127854717356
 10
-4.586525492009198
 20
19.68357790556753
 42
0.2829310141342995
 10
-4.592361300960704
 20
19.47409034072413
  0
ARC
  5
23DD
330
17
100
AcDbEntity
  8
0
100
AcDbCircle
 10
-5.689726039106338
 20
17.63996707040121
 30
0.0
 40
1.246117297120669
100
AcDbArc
 50
334.3915392600224
 51
356.7748920207288
  0
CIRCLE
  5
23DE
330
17
100
AcDbEntity
  8
0
100
AcDbCircle
 10
-4.415379479303568
 20
17.44246509289386
 30
0.0
 40
0.0059
  0
CIRCLE
  5
23DF
330
17
100
AcDbEntity
  8
0
100
AcDbCircle
 10
-4.433807882950419
 20
17.40068766876978
 30
0.0
 40
0.0059
  0
CIRCLE
  5
23E0
330
17
100
AcDbEntity
  8
0
100
AcDbCircle
 10
-4.394115896968458
 20
17.36953160894637
 30
0.0
 40
0.0059
  0
CIRCLE
  5
23E1
330
17
100
AcDbEntity
  8
0
100
AcDbCircle
 10
-4.429555172212883
 20
17.33979173929754
 30
0.0
 40
0.0059
  0
CIRCLE
  5
23E2
330
17
100
AcDbEntity
  8
0
100
AcDbCircle
 10
-4.361511771764868
 20
17.32704608087662
 30
0.0
 40
0.0059
  0
CIRCLE
  5
23E3
330
17
100
AcDbEntity
  8
0
100
AcDbCircle
 10
-4.404038907787662
 20
17.29730621122779
 30
0.0
 40
0.0059
  0
CIRCLE
  5
23E4
330
17
100
AcDbEntity
  8
0
100
AcDbCircle
 10
-4.462159326063901
 20
17.24915594017648
 30
0.0
 40
0.0059
  0
CIRCLE
  5
23E5
330
17
100
AcDbEntity
  8
0
100
AcDbCircle
 10
-4.368599632543237
 20
17.25906923596501
 30
0.0
 40
0.0059
  0
CIRCLE
  5
23E6
330
17
100
AcDbEntity
  8
0
100
AcDbCircle
 10
-4.309061624922866
 20
17.26898253175355
 30
0.0
 40
0.0059
  0
CIRCLE
  5
23E7
330
17
100
AcDbEntity
  8
0
100
AcDbCircle
 10
-4.404038907787662
 20
17.23641029947233
 30
0.0
 40
0.0059
  0
CIRCLE
  5
23E8
330
17
100
AcDbEntity
  8
0
100
AcDbCircle
 10
-4.452236315244697
 20
17.28880910561384
 30
0.0
 40
0.0059
  0
CIRCLE
  5
23E9
330
17
100
AcDbEntity
  8
0
100
AcDbCircle
 10
-4.432390322253717
 20
17.49982055578803
 30
0.0
 40
0.0059
  0
CIRCLE
  5
23EA
330
17
100
AcDbEntity
  8
0
100
AcDbCircle
 10
-4.490510740529956
 20
17.19958949666736
 30
0.0
 40
0.0059
  0
CIRCLE
  5
23EB
330
17
100
AcDbEntity
  8
0
100
AcDbCircle
 10
-4.440895743728789
 20
17.21233515508829
 30
0.0
 40
0.0059
  0
CIRCLE
  5
23EC
330
17
100
AcDbEntity
  8
0
100
AcDbCircle
 10
-4.496181011964194
 20
17.1726820073677
 30
0.0
 40
0.0059
  0
CIRCLE
  5
23ED
330
17
100
AcDbEntity
  8
0
100
AcDbCircle
 10
-4.524532455077676
 20
17.15002305315824
 30
0.0
 40
0.0059
  0
CIRCLE
  5
23EE
330
17
100
AcDbEntity
  8
0
100
AcDbCircle
 10
-4.469247158194844
 20
17.32562989070204
 30
0.0
 40
0.0059
  0
CIRCLE
  5
23EF
330
17
100
AcDbEntity
  8
0
100
AcDbCircle
 10
-4.482005319054882
 20
17.2604854261396
 30
0.0
 40
0.0059
  0
CIRCLE
  5
23F0
330
17
100
AcDbEntity
  8
0
100
AcDbCircle
 10
-4.358676621724034
 20
17.37236397157876
 30
0.0
 40
0.0059
  0
CIRCLE
  5
23F1
330
17
100
AcDbEntity
  8
0
100
AcDbCircle
 10
-4.335995478692219
 20
17.23499410929775
 30
0.0
 40
0.0059
  0
CIRCLE
  5
23F2
330
17
100
AcDbEntity
  8
0
100
AcDbCircle
 10
-4.321819785782904
 20
17.29730621122779
 30
0.0
 40
0.0059
  0
CIRCLE
  5
23F3
330
17
100
AcDbEntity
  8
0
100
AcDbCircle
 10
-4.436643032991253
 20
17.46441594315764
 30
0.0
 40
0.0059
  0
LINE
  5
23F4
330
17
100
AcDbEntity
  8
0
100
AcDbLine
 10
-2.850414186653524
 20
19.49194943464607
 30
0.0
 11
-2.714015185557465
 21
19.57069943464607
 31
0.0
  0
LINE
  5
23F5
330
17
100
AcDbEntity
  8
0
100
AcDbLine
 10
-2.714015185557465
 20
19.57069943464607
 30
0.0
 11
-2.839015185557465
 21
19.78720578559218
 31
0.0
  0
LINE
  5
23F6
330
17
100
AcDbEntity
  8
0
100
AcDbLine
 10
-2.839015185557465
 20
19.78720578559218
 30
0.0
 11
-3.109648124240107
 21
19.63095578559218
 31
0.0
  0
LINE
  5
23F7
330
17
100
AcDbEntity
  8
0
100
AcDbLine
 10
-3.109648124240107
 20
19.63095578559218
 30
0.0
 11
-2.959648124240104
 21
19.37114816445685
 31
0.0
  0
LWPOLYLINE
  5
23F8
330
17
100
AcDbEntity
  8
0
100
AcDbPolyline
 90
        3
 70
     0
 43
0.0
 10
-5.040033290895858
 20
19.56948097112674
 42
-0.4142135616547275
 10
-5.019542909857489
 20
19.56399059010183
 10
-4.950498285678233
 20
19.44440179371124
  0
LWPOLYLINE
  5
23F9
330
17
100
AcDbEntity
  8
0
100
AcDbPolyline
 90
        3
 70
     0
 43
0.0
 10
-5.383510987304952
 20
19.19440179386453
 10
-5.514100235040051
 20
19.26979753119766
 42
-0.5773502691896382
 10
-5.514100235040051
 20
19.29577829331119
  0
TEXT
  5
2562
330
17
100
AcDbEntity
  8
KCADSLABEL
100
AcDbText
 10
4.723273895832956
 20
17.8588710064385
 30
0.0
 40
0.125
  1
822008
 50
360.0
 72
     1
 11
5.014627920389573
 21
17.9838710064385
 31
0.0
100
AcDbText
 73
     3
  0
POLYLINE
  5
2563
330
17
100
AcDbEntity
  8
0
100
AcDb2dPolyline
 66
     1
 10
0.0
 20
0.0
 30
0.0
 70
     2
  0
VERTEX
  5
2564
330
2563
100
AcDbEntity
  8
0
100
AcDbVertex
100
AcDb2dVertex
 10
4.703463439873759
 20
20.26948118876346
 30
0.0
 42
-0.0023834550984541
  0
VERTEX
  5
2565
330
2563
100
AcDbEntity
  8
0
100
AcDbVertex
100
AcDb2dVertex
 10
4.648795367591604
 20
20.23280311021669
 30
0.0
 42
-0.0046963778442104
 70
     1
  0
VERTEX
  5
2566
330
2563
100
AcDbEntity
  8
0
100
AcDbVertex
100
AcDb2dVertex
 10
4.620789574732798
 20
20.2145830528002
 30
0.0
 42
-0.0000910541615772
  0
VERTEX
  5
2567
330
2563
100
AcDbEntity
  8
0
100
AcDbVertex
100
AcDb2dVertex
 10
4.539455637800836
 20
20.1627702199253
 30
0.0
 42
-0.0023997685513268
 70
     1
  0
VERTEX
  5
2568
330
2563
100
AcDbEntity
  8
0
100
AcDbVertex
100
AcDb2dVertex
 10
4.536359819915992
 20
20.16081967781349
 30
0.0
 42
-0.0024065714538198
  0
VERTEX
  5
2569
330
2563
100
AcDbEntity
  8
0
100
AcDbVertex
100
AcDb2dVertex
 10
4.493820176544662
 20
20.13458509955441
 30
0.0
 42
-0.0024030626276602
 70
     1
  0
VERTEX
  5
256A
330
2563
100
AcDbEntity
  8
0
100
AcDbVertex
100
AcDb2dVertex
 10
4.450967669154277
 20
20.10872322150036
 30
0.0
 42
-0.0024010405617652
  0
VERTEX
  5
256B
330
2563
100
AcDbEntity
  8
0
100
AcDbVertex
100
AcDb2dVertex
 10
4.407908025929291
 20
20.08329751175059
 30
0.0
 42
-0.0024015013355283
 70
     1
  0
VERTEX
  5
256C
330
2563
100
AcDbEntity
  8
0
100
AcDbVertex
100
AcDb2dVertex
 10
4.36461446531608
 20
20.05829135794447
 30
0.0
 42
-0.0024021413356155
  0
VERTEX
  5
256D
330
2563
100
AcDbEntity
  8
0
100
AcDbVertex
100
AcDb2dVertex
 10
4.321086543364524
 20
20.03370447492967
 30
0.0
 42
-0.0024008263604267
 70
     1
  0
VERTEX
  5
256E
330
2563
100
AcDbEntity
  8
0
100
AcDbVertex
100
AcDb2dVertex
 10
4.277300484717656
 20
20.00952360855203
 30
0.0
 42
-0.0024041305566198
  0
VERTEX
  5
256F
330
2563
100
AcDbEntity
  8
0
100
AcDbVertex
100
AcDb2dVertex
 10
4.239408713832466
 20
19.9890705608967
 30
0.0
 42
-0.0018162261806788
 70
     1
  0
VERTEX
  5
2570
330
2563
100
AcDbEntity
  8
0
100
AcDbVertex
100
AcDb2dVertex
 10
4.189024938656315
 20
19.96242133939615
 30
0.0
 42
-0.0035174534503963
  0
VERTEX
  5
2571
330
2563
100
AcDbEntity
  8
0
100
AcDbVertex
100
AcDb2dVertex
 10
4.175723225230413
 20
19.95556631313131
 30
0.0
 42
0.000617965877952
 70
     1
  0
VERTEX
  5
2572
330
2563
100
AcDbEntity
  8
0
100
AcDbVertex
100
AcDb2dVertex
 10
4.099785969031517
 20
19.9169877688014
 30
0.0
 42
0.0078170319018778
  0
VERTEX
  5
2573
330
2563
100
AcDbEntity
  8
0
100
AcDbVertex
100
AcDb2dVertex
 10
4.044282756852325
 20
19.88760209050819
 30
0.0
 42
0.00489931359
 70
     1
  0
VERTEX
  5
2574
330
2563
100
AcDbEntity
  8
0
100
AcDbVertex
100
AcDb2dVertex
 10
3.956949541811571
 20
19.83848118876346
 30
0.0
  0
SEQEND
  5
2575
330
2563
100
AcDbEntity
  8
0
  0
LWPOLYLINE
  5
2576
330
17
100
AcDbEntity
  8
0
100
AcDbPolyline
 90
        8
 70
     1
 43
0.0
 10
5.078463439873763
 20
19.61996213592511
 42
0.1231056256176614
 10
5.021764710062983
 20
19.818167216682
 10
4.944011145998663
 20
19.95284034011096
 42
0.2829310141342987
 10
4.759671688591586
 20
20.05253016372902
 42
0.2026214476854542
 10
4.271060719209778
 20
19.81316238574316
 42
0.3111355750422899
 10
4.245662025722948
 20
19.58764865145053
 10
4.466981511496708
 20
19.17384340115494
 42
0.9999999999999992
 10
5.121035508639115
 20
19.55146165246966
  0
CIRCLE
  5
2577
330
17
100
AcDbEntity
  8
0
100
AcDbCircle
 10
5.890486065172007
 20
19.67339472903344
 30
0.0
 40
0.065
  0
LINE
  5
2578
330
17
100
AcDbEntity
  8
0
100
AcDbLine
 10
3.033811554826778
 20
19.00307228770771
 30
0.0
 11
3.08948961028159
 21
18.93819671499255
 31
0.0
  0
LINE
  5
2579
330
17
100
AcDbEntity
  8
0
100
AcDbLine
 10
2.856313497287301
 20
18.21957873743595
 30
0.0
 11
3.687610721656866
 21
18.01269449236055
 31
0.0
  0
ARC
  5
257A
330
17
100
AcDbEntity
  8
0
100
AcDbCircle
 10
2.871082455029792
 20
18.00564604336306
 30
0.0
 40
0.214441879552683
100
AcDbArc
 50
93.94917887571109
 51
282.2414419719832
  0
ARC
  5
257B
330
17
100
AcDbEntity
  8
0
100
AcDbCircle
 10
2.871082455029792
 20
18.43452980246842
 30
0.0
 40
0.214441879552683
100
AcDbArc
 50
100.1793931044433
 51
265.5857852383217
  0
ARC
  5
257C
330
17
100
AcDbEntity
  8
0
100
AcDbCircle
 10
3.51700548989231
 20
18.68177728710846
 30
0.0
 40
0.1898937556428574
100
AcDbArc
 50
268.2524841937133
 51
118.3407144259004
  0
LINE
  5
257D
330
17
100
AcDbEntity
  8
0
100
AcDbLine
 10
3.320520285293897
 20
18.80767879206515
 30
0.0
 11
3.426860311682874
 21
18.84891042349302
 31
0.0
  0
ARC
  5
257E
330
17
100
AcDbEntity
  8
0
100
AcDbCircle
 10
3.252218710078574
 20
19.07785544112647
 30
0.0
 40
0.214441879552683
100
AcDbArc
 50
220.6371283858423
 51
50.70004810155716
  0
ARC
  5
257F
330
17
100
AcDbEntity
  8
0
100
AcDbCircle
 10
2.871082455029792
 20
18.86341356157379
 30
0.0
 40
0.214441879552683
100
AcDbArc
 50
40.63712838584224
 51
259.8460435708751
  0
ARC
  5
2580
330
17
100
AcDbEntity
  8
0
100
AcDbCircle
 10
3.746770154773628
 20
18.21253780226835
 30
0.0
 40
0.2084158992054115
100
AcDbArc
 50
253.5097138557758
 51
110.7576240319838
  0
LINE
  5
2581
330
17
100
AcDbEntity
  8
0
100
AcDbLine
 10
3.859976693374616
 20
18.00077023280924
 30
0.0
 11
2.916550932356953
 21
17.79607997436419
 31
0.0
  0
ARC
  5
2582
330
17
100
AcDbEntity
  8
0
100
AcDbCircle
 10
3.905445170701776
 20
17.79120416381038
 30
0.0
 40
0.214441879552683
100
AcDbArc
 50
257.7585580280171
 51
102.2414419719831
  0
LINE
  5
2583
330
17
100
AcDbEntity
  8
0
100
AcDbLine
 10
2.916550932356951
 20
17.78632835325655
 30
0.0
 11
3.859976693374617
 21
17.58163809481151
 31
0.0
  0
ARC
  5
2584
330
17
100
AcDbEntity
  8
0
100
AcDbCircle
 10
2.871082455029792
 20
17.57676228425769
 30
0.0
 40
0.214441879552683
100
AcDbArc
 50
77.75855802801706
 51
282.8783988784266
  0
LINE
  5
2585
330
17
100
AcDbEntity
  8
0
100
AcDbLine
 10
3.809618448618744
 20
17.57136806152226
 30
0.0
 11
2.918877819714062
 21
17.36771462744043
 31
0.0
  0
ARC
  5
2586
330
17
100
AcDbEntity
  8
0
100
AcDbCircle
 10
3.857413813303011
 20
17.36232040470501
 30
0.0
 40
0.214441879552683
100
AcDbArc
 50
257.1216011215736
 51
102.8783988784265
  0
LINE
  5
2587
330
17
100
AcDbEntity
  8
0
100
AcDbLine
 10
2.91887781971406
 20
17.35692618196958
 30
0.0
 11
3.809618448618744
 21
17.15327274788775
 31
0.0
  0
ARC
  5
2588
330
17
100
AcDbEntity
  8
0
100
AcDbCircle
 10
2.871082455029792
 20
17.14787852515232
 30
0.0
 40
0.214441879552683
100
AcDbArc
 50
77.12160112157355
 51
292.2148898150743
  0
LINE
  5
2589
330
17
100
AcDbEntity
  8
0
100
AcDbLine
 10
2.952158938041129
 20
16.94935415987541
 30
0.0
 11
3.39929117471137
 21
17.13196101087655
 31
0.0
  0
ARC
  5
258A
330
17
100
AcDbEntity
  8
0
100
AcDbCircle
 10
3.480367657722707
 20
16.93343664559964
 30
0.0
 40
0.214441879552683
100
AcDbArc
 50
247.785110184926
 51
112.2148898150743
  0
LINE
  5
258B
330
17
100
AcDbEntity
  8
0
100
AcDbLine
 10
3.399291174711374
 20
16.73491228032273
 30
0.0
 11
2.952158938041128
 21
16.91751913132387
 31
0.0
  0
ARC
  5
258C
330
17
100
AcDbEntity
  8
0
100
AcDbCircle
 10
2.871082455029792
 20
16.71899476604696
 30
0.0
 40
0.214441879552683
100
AcDbArc
 50
67.78511018492598
 51
293.9756969656551
  0
LINE
  5
258D
330
17
100
AcDbEntity
  8
0
100
AcDbLine
 10
2.958220721885076
 20
16.52305538216627
 30
0.0
 11
3.357205872818349
 21
16.70049227037496
 31
0.0
  0
ARC
  5
258E
330
17
100
AcDbEntity
  8
0
100
AcDbCircle
 10
3.444344139673633
 20
16.50455288649428
 30
0.0
 40
0.214441879552683
100
AcDbArc
 50
246.0243030343451
 51
113.9756969656551
  0
ARC
  5
258F
330
17
100
AcDbEntity
  8
0
100
AcDbCircle
 10
2.871082455029792
 20
16.29011100694159
 30
0.0
 40
0.214441879552683
100
AcDbArc
 50
66.02430303434509
 51
293.9756969656551
  0
ARC
  5
2590
330
17
100
AcDbEntity
  8
0
100
AcDbCircle
 10
2.871082455029792
 20
15.86122724783622
 30
0.0
 40
0.214441879552683
100
AcDbArc
 50
66.02430303434509
 51
293.9756969656551
  0
LINE
  5
2591
330
17
100
AcDbEntity
  8
0
100
AcDbLine
 10
3.357205872818349
 20
16.30861350261358
 30
0.0
 11
2.958220721885076
 21
16.48605039082228
 31
0.0
  0
LINE
  5
2592
330
17
100
AcDbEntity
  8
0
100
AcDbLine
 10
2.958220721885076
 20
16.0941716230609
 30
0.0
 11
3.357205872818349
 21
16.2716085112696
 31
0.0
  0
LINE
  5
2593
330
17
100
AcDbEntity
  8
0
100
AcDbLine
 10
3.357205872818349
 20
15.87972974350822
 30
0.0
 11
2.958220721885076
 21
16.05716663171692
 31
0.0
  0
ARC
  5
2594
330
17
100
AcDbEntity
  8
0
100
AcDbCircle
 10
3.444344139673633
 20
16.07566912738891
 30
0.0
 40
0.214441879552683
100
AcDbArc
 50
246.0243030343451
 51
113.9756969656551
  0
ARC
  5
2595
330
17
100
AcDbEntity
  8
0
100
AcDbCircle
 10
3.444344139673633
 20
15.64678536828354
 30
0.0
 40
0.214441879552683
100
AcDbArc
 50
35.22458501564912
 51
113.9756969656551
  0
LINE
  5
2596
330
17
100
AcDbEntity
  8
0
100
AcDbLine
 10
2.958220721885076
 20
15.66528786395554
 30
0.0
 11
3.357205872818349
 21
15.84272475216424
 31
0.0
  0
LWPOLYLINE
  5
2597
330
17
100
AcDbEntity
  8
0
100
AcDbPolyline
 90
       12
 70
     1
 43
0.0
 10
2.208224368966689
 20
14.01434550832876
 10
1.699686019226316
 20
14.01434550832876
 10
1.699686019226318
 20
16.40422522823832
 10
2.208224368966691
 20
16.40422522823832
 42
1.33239341188041
 10
2.293931356312585
 20
16.41528042784567
 10
2.37706771202132
 20
16.42993961043489
 42
0.8617744796823018
 10
2.372685969647056
 20
16.45928536828354
 10
1.637686019226318
 20
16.45928536828354
 10
1.637686019226316
 20
13.95928536828354
 10
2.372685969647054
 20
13.95928536828354
 42
0.861774479682302
 10
2.377067712021318
 20
13.98863112613218
 10
2.293931356312583
 20
14.00329030872141
 42
1.33239341188041
  0
LWPOLYLINE
  5
2598
330
17
100
AcDbEntity
  8
0
100
AcDbPolyline
 90
       41
 70
     1
 43
0.0
 10
2.402686019226322
 20
15.49028536828354
 10
2.387686019226324
 20
15.50528536828354
 10
2.387686019226322
 20
16.36778536828354
 10
2.452686019226323
 20
16.36778536828354
 10
2.452686019226323
 20
16.38778536828354
 10
2.387686019226322
 20
16.41778536828354
 10
2.301926406876933
 20
16.40266363477125
 42
-0.9999999999999998
 10
2.203445631575714
 20
16.38529881700455
 10
1.969193908029852
 20
16.28215695896604
 42
0.2973336368416808
 10
1.950686019226326
 20
16.25378536828354
 10
1.950686019226326
 20
16.21226496101477
 42
0.5416234831226134
 10
1.994178130422799
 20
16.18389337033228
 10
2.124677760458965
 20
16.24135281657039
 42
-0.1040635034746246
 10
2.137169871655439
 20
16.2439812258879
 10
2.256686019226323
 20
16.2439812258879
 42
-0.4142135623730951
 10
2.287686019226324
 20
16.2129812258879
 10
2.287686019226324
 20
15.45928536828354
 10
2.262686019226324
 20
15.45928536828354
 10
2.262686019226324
 20
15.22428536828354
 10
2.277686019226322
 20
15.20928536828354
 10
2.262686019226324
 20
15.19428536828354
 10
2.262686019226324
 20
14.95928536828354
 10
2.287686019226324
 20
14.95928536828354
 10
2.287686019226324
 20
14.20558951067918
 42
-0.4142135623730951
 10
2.256686019226323
 20
14.17458951067918
 10
2.137169871655439
 20
14.17458951067918
 42
-0.104063503474624
 10
2.124677760458965
 20
14.17721791999669
 10
1.994178130422799
 20
14.2346773662348
 42
0.5416234831226135
 10
1.950686019226326
 20
14.20630577555231
 10
1.950686019226326
 20
14.16478536828354
 42
0.2973336368416811
 10
1.969193908029852
 20
14.13641377760104
 10
2.203445631575714
 20
14.03327191956253
 42
-0.9999999999999998
 10
2.301926406876933
 20
14.01590710179583
 10
2.387686019226322
 20
14.00078536828354
 10
2.452686019226323
 20
14.03078536828354
 10
2.452686019226323
 20
14.05078536828354
 10
2.387686019226325
 20
14.05078536828354
 10
2.387686019226324
 20
14.91328536828354
 10
2.402686019226322
 20
14.92828536828354
 10
2.387686019226324
 20
14.94328536828354
 10
2.387686019226324
 20
15.47528536828354
  0
LWPOLYLINE
  5
2599
330
17
100
AcDbEntity
  8
0
100
AcDbPolyline
 90
       12
 70
     1
 43
0.0
 10
4.553944387035427
 20
19.02845578497902
 10
4.109944387035428
 20
19.7974863435396
 42
0.414213562373096
 10
3.956949541811571
 20
19.83848118876346
 10
2.631640575477108
 20
19.07331370029083
 42
0.2679491924311228
 10
2.575640575477107
 20
18.97631885506697
 10
2.575640575477107
 20
15.89706971497537
 10
2.656640575477108
 20
15.89706971497537
 10
2.656640575477108
 20
18.97631885506697
 42
-0.2679491924311221
 10
2.672140575477108
 20
19.00316564258429
 10
3.997449541811571
 20
19.76833313105692
 42
-0.4142135623731008
 10
4.039796329328888
 20
19.7569863435396
 10
4.483796329328887
 20
18.98795578497901
  0
LINE
  5
259A
330
17
100
AcDbEntity
  8
0
100
AcDbLine
 10
3.970870380564077
 20
17.00336958876014
 30
0.0
 11
4.29562990698324
 21
17.19086958876014
 31
0.0
  0
LWPOLYLINE
  5
259B
330
17
100
AcDbEntity
  8
0
100
AcDbPolyline
 90
       10
 70
     1
 43
0.0
 10
4.19496475201174
 20
18.14022675417521
 42
0.4142135623730908
 10
4.183983989898207
 20
18.09924599206168
 10
4.669557108945275
 20
17.25820867908246
 42
0.166554338436942
 10
4.699848843486938
 20
17.23179479694981
 10
6.195055969512397
 20
16.62234987931886
 42
0.7144507839041664
 10
6.241469194025166
 20
16.67557708269256
 10
5.714832182074326
 20
17.58773914453767
 42
-0.198912367379658
 10
5.70863835587904
 20
17.63478592533403
 10
6.127132841126845
 20
19.19662860696622
 42
0.6681786379192989
 10
6.083155066338173
 20
19.23037394043283
  0
LWPOLYLINE
  5
259C
330
17
100
AcDbEntity
  8
0
100
AcDbPolyline
 90
       10
 70
     0
 43
0.0
 10
4.466101820890788
 20
17.24310357260876
 10
3.709686019226316
 20
16.80638670589849
 42
0.2679491924311228
 10
3.694686019226317
 20
16.78040594378495
 10
3.694686019226319
 20
15.77178536828354
 10
3.658786019226317
 20
15.77178536828354
 10
3.658786019226317
 20
16.78854658258053
 42
-0.2679491924311228
 10
3.688786019226316
 20
16.8405081068076
 10
4.446101820890783
 20
17.27774458876014
 10
4.466101820890788
 20
17.24310357260876
 10
4.446101820890783
 20
17.27774458876014
  0
LWPOLYLINE
  5
259D
330
17
100
AcDbEntity
  8
0
100
AcDbPolyline
 90
      125
 70
     1
 43
0.0
 10
2.697186019226318
 20
14.86578536828354
 10
2.603686019226321
 20
14.86578536828355
 42
0.4142135623730951
 10
2.572686019226321
 20
14.83478536828354
 10
2.572686019226321
 20
14.77178536828354
 10
3.697686019226319
 20
14.77178536828354
 10
3.697686019226321
 20
14.13778536828354
 42
0.4142135623730951
 10
3.722686019226321
 20
14.11278536828354
 10
3.73768601922632
 20
14.11278536828354
 10
3.73768601922632
 20
14.13478536828354
 10
3.834686019226321
 20
14.13478536828354
 42
-0.4142135623730951
 10
3.884686019226322
 20
14.08478536828354
 10
3.884686019226322
 20
14.05978536828355
 42
-0.4142135623730898
 10
3.834686019226321
 20
14.00978536828355
 10
3.73768601922632
 20
14.00978536828354
 10
3.73768601922632
 20
14.03178536828354
 10
3.722686019226321
 20
14.03178536828354
 42
0.4142135623730951
 10
3.697686019226321
 20
14.00678536828354
 10
3.697686019226321
 20
13.95978536828354
 10
7.694686019226315
 20
13.95978536828355
 10
7.694686019226319
 20
16.45978536828354
 10
3.697686019226321
 20
16.45978536828354
 10
3.697686019226321
 20
16.41278536828354
 42
0.4142135623730951
 10
3.722686019226321
 20
16.38778536828354
 10
3.73768601922632
 20
16.38778536828354
 10
3.73768601922632
 20
16.40978536828354
 10
3.834686019226321
 20
16.40978536828354
 42
-0.4142135623730951
 10
3.884686019226322
 20
16.35978536828353
 10
3.884686019226322
 20
16.33478536828354
 42
-0.4142135623730951
 10
3.834686019226321
 20
16.28478536828354
 10
3.73768601922632
 20
16.28478536828354
 10
3.73768601922632
 20
16.30678536828353
 10
3.722686019226321
 20
16.30678536828353
 42
0.4142135623730951
 10
3.697686019226321
 20
16.28178536828354
 10
3.697686019226321
 20
15.64678536828354
 10
2.572686019226321
 20
15.64678536828354
 10
2.572686019226321
 20
15.58378536828354
 42
0.4142135623730951
 10
2.603686019226321
 20
15.55278536828354
 10
2.69718601922632
 20
15.55278536828354
 42
-0.9999999999999998
 10
2.697185985086646
 20
15.42778536828355
 10
2.603686019226318
 20
15.42778536828354
 42
0.4142135623730825
 10
2.572686019226321
 20
15.39678536828354
 10
2.572686019226321
 20
15.32828536828354
 10
2.587986534594687
 20
15.30178409828354
 10
2.597686019159461
 20
15.30178409828354
 10
2.612986534661549
 20
15.32828536828354
 10
2.622686019226321
 20
15.32828536828354
 10
2.637986534594688
 20
15.30178409828354
 10
2.647686019159458
 20
15.30178409828354
 10
2.662986534661548
 20
15.32828536828354
 10
2.672686019226322
 20
15.32828536828354
 10
2.687986534594688
 20
15.30178409828354
 10
2.697686019159458
 20
15.30178409828354
 10
2.712986534661549
 20
15.32828536828354
 10
2.722686019226321
 20
15.32828536828354
 10
2.737986534594687
 20
15.30178409828354
 10
2.747686019159459
 20
15.30178409828354
 10
2.76298653466155
 20
15.32828536828354
 10
2.772686019226323
 20
15.32828536828354
 10
2.787986534594688
 20
15.30178409828354
 10
2.79768601915946
 20
15.30178409828354
 10
2.812986534661551
 20
15.32828536828354
 10
2.822686019226322
 20
15.32828536828354
 10
2.837986534594687
 20
15.30178409828354
 10
2.847686019159461
 20
15.30178409828354
 10
2.862986534661551
 20
15.32828536828354
 10
2.872686019226321
 20
15.32828536828354
 10
2.887986534594688
 20
15.30178409828354
 10
2.897686019159461
 20
15.30178409828354
 10
2.912986534661548
 20
15.32828536828354
 10
2.92268601922632
 20
15.32828536828354
 10
2.937986534594688
 20
15.30178409828354
 10
2.947686019159458
 20
15.30178409828354
 10
2.962986534661549
 20
15.32828536828354
 10
2.972686019226321
 20
15.32828536828354
 10
2.987986534594689
 20
15.30178409828354
 10
2.997686019159459
 20
15.30178409828354
 10
3.012986534661548
 20
15.32828536828354
 10
3.022686019226322
 20
15.32828536828354
 10
3.03798653459469
 20
15.30178409828354
 10
3.04768601915946
 20
15.30178409828354
 10
3.058079844311194
 20
15.31978673137399
 42
-0.6271311136319316
 10
3.077622186113048
 20
15.1082369464
 10
3.072686019159458
 20
15.11678663828354
 10
3.062986534594688
 20
15.11678663828354
 10
3.047686019226322
 20
15.09028536828354
 10
3.03798653466155
 20
15.09028536828354
 10
3.022686019159458
 20
15.11678663828354
 10
3.012986534594688
 20
15.11678663828354
 10
2.997686019226321
 20
15.09028536828354
 10
2.987986534661549
 20
15.09028536828354
 10
2.972686019159457
 20
15.11678663828354
 10
2.962986534594687
 20
15.11678663828354
 10
2.947686019226321
 20
15.09028536828354
 10
2.937986534661551
 20
15.09028536828354
 10
2.92268601915946
 20
15.11678663828354
 10
2.912986534594688
 20
15.11678663828354
 10
2.897686019226322
 20
15.09028536828354
 10
2.887986534661552
 20
15.09028536828354
 10
2.872686019159459
 20
15.11678663828354
 10
2.862986534594687
 20
15.11678663828354
 10
2.847686019226321
 20
15.09028536828354
 10
2.837986534661551
 20
15.09028536828354
 10
2.822686019159458
 20
15.11678663828354
 10
2.812986534594688
 20
15.11678663828354
 10
2.797686019226322
 20
15.09028536828354
 10
2.78798653466155
 20
15.09028536828354
 10
2.772686019159458
 20
15.11678663828354
 10
2.762986534594688
 20
15.11678663828354
 10
2.747686019226319
 20
15.09028536828354
 10
2.737986534661551
 20
15.09028536828354
 10
2.722686019159459
 20
15.11678663828354
 10
2.712986534594687
 20
15.11678663828354
 10
2.697686019226321
 20
15.09028536828354
 10
2.687986534661551
 20
15.09028536828354
 10
2.67268601915946
 20
15.11678663828354
 10
2.662986534594688
 20
15.11678663828354
 10
2.647686019226322
 20
15.09028536828354
 10
2.637986534661552
 20
15.09028536828354
 10
2.622686019159459
 20
15.11678663828354
 10
2.612986534594687
 20
15.11678663828354
 10
2.597686019226319
 20
15.09028536828354
 10
2.572686019226321
 20
15.09028536828354
 10
2.572686019226321
 20
15.02178536828354
 42
0.4142135623730951
 10
2.603686019226319
 20
14.99078536828355
 10
2.697186019226318
 20
14.99078536828355
 42
-1.000000000000014
  0
LWPOLYLINE
  5
259E
330
17
100
AcDbEntity
  8
0
100
AcDbPolyline
 90
       10
 70
     1
 43
0.0
 10
3.924686019226323
 20
16.18478536828354
 10
3.787686019226322
 20
16.18478536828353
 10
3.78768601922632
 20
14.23478536828354
 10
3.924686019226326
 20
14.23478536828354
 42
-0.4142135623731122
 10
3.984686019226325
 20
14.17478536828354
 10
3.984686019226318
 20
14.04978536828354
 10
7.604686019226315
 20
14.04978536828354
 10
7.604686019226315
 20
16.36978536828354
 10
3.984686019226318
 20
16.36978536828354
 10
3.984686019226321
 20
16.24478536828354
 42
-0.4142135623730948
  0
LWPOLYLINE
  5
259F
330
17
100
AcDbEntity
  8
0
100
AcDbPolyline
 90
        8
 70
     1
 43
0.0
 10
3.00743601922632
 20
14.99128536828354
 42
0.9999999999999998
 10
3.00743601922632
 20
14.87178536828354
 10
3.697686019226321
 20
14.87178536828354
 10
3.697686019226321
 20
15.54678536828354
 10
3.00743601922632
 20
15.54678536828354
 42
0.9999999999999998
 10
3.00743601922632
 20
15.42728536828354
 10
3.01668601922632
 20
15.42728536828354
 42
-0.9999999999999998
 10
3.01668601922632
 20
14.99128536828354
  0
LINE
  5
25A0
330
17
100
AcDbEntity
  8
0
100
AcDbLine
 10
3.322686019226321
 20
14.00278536828355
 30
0.0
 11
2.822686019226321
 21
14.00278536828355
 31
0.0
  0
LINE
  5
25A1
330
17
100
AcDbEntity
  8
0
100
AcDbLine
 10
3.572686019226317
 20
13.44754827978873
 30
0.0
 11
3.572686019226321
 21
14.45878536828354
 31
0.0
  0
LINE
  5
25A2
330
17
100
AcDbEntity
  8
0
100
AcDbLine
 10
3.572686019226321
 20
14.45878536828354
 30
0.0
 11
3.322686019226321
 21
14.45878536828354
 31
0.0
  0
LINE
  5
25A3
330
17
100
AcDbEntity
  8
0
100
AcDbLine
 10
3.322686019226321
 20
14.45878536828354
 30
0.0
 11
3.322686019226321
 21
13.44754827978873
 31
0.0
  0
LINE
  5
25A4
330
17
100
AcDbEntity
  8
0
100
AcDbLine
 10
3.322686019226321
 20
14.40878536828354
 30
0.0
 11
2.822686019226321
 21
14.40878536828354
 31
0.0
  0
LINE
  5
25A5
330
17
100
AcDbEntity
  8
0
100
AcDbLine
 10
2.822686019226321
 20
13.44754827978873
 30
0.0
 11
2.822686019226321
 21
14.45878536828354
 31
0.0
  0
LINE
  5
25A6
330
17
100
AcDbEntity
  8
0
100
AcDbLine
 10
2.822686019226321
 20
14.45878536828354
 30
0.0
 11
2.572686019226321
 21
14.45878536828354
 31
0.0
  0
LINE
  5
25A7
330
17
100
AcDbEntity
  8
0
100
AcDbLine
 10
2.572686019226321
 20
14.45878536828354
 30
0.0
 11
2.572686019226321
 21
13.44754827978873
 31
0.0
  0
LINE
  5
25A8
330
17
100
AcDbEntity
  8
0
100
AcDbLine
 10
3.699201879994394
 20
16.79623498821622
 30
0.0
 11
3.702915514799453
 21
16.7945325969454
 31
0.0
  0
LWPOLYLINE
  5
25A9
330
17
100
AcDbEntity
  8
0
100
AcDbPolyline
 90
       18
 70
     1
 43
0.0
 10
4.876088230945507
 20
18.96648627998122
 10
4.921121551942301
 20
18.99248627998122
 10
4.943621551942294
 20
18.95351513681092
 42
0.414213562373095
 10
5.223656759718108
 20
18.87847992903511
 42
0.7002075382097127
 10
5.217129723271449
 20
18.91549659217104
 10
5.095463680943973
 20
18.93694959806939
 42
-0.2216946626429498
 10
5.074692364160449
 20
18.95149383065976
 10
5.016049409868047
 20
19.05306640700014
 42
-0.4142135623730951
 10
5.023369917943734
 20
19.08038691507583
 10
5.102704655680023
 20
19.12619084726396
 42
0.198912367379658
 10
5.107363913942913
 20
19.13226291085078
 10
5.118645207733822
 20
19.17436527245356
 10
5.103020207733822
 20
19.20142856632182
 10
5.049326632699189
 20
19.17042856632182
 10
4.596201632699186
 20
19.95526408850147
 42
0.9999999999999998
 10
4.433821869489602
 20
19.86151408850147
 10
4.861088230945506
 20
19.12146704209476
 10
4.861088230945506
 20
18.97514653401906
 42
0.5773502691895958
  0
LINE
  5
25AA
330
17
100
AcDbEntity
  8
KCADSMISC
100
AcDbLine
 10
4.548893619997294
 20
20.03620397010626
 30
0.0
 11
5.2653999709434
 21
19.29517856632182
 31
0.0
  0
LINE
  5
25AB
330
17
100
AcDbEntity
  8
KCADSMISC
100
AcDbLine
 10
4.765399970943404
 20
20.16120397010626
 30
0.0
 11
5.048893619997295
 21
19.17017856632181
 31
0.0
  0
LWPOLYLINE
  5
25AC
330
17
100
AcDbEntity
  8
KCADSMISC
100
AcDbPolyline
 90
        4
 70
     1
 43
0.0
 10
4.765399970943404
 20
20.16120397010626
 10
5.2653999709434
 20
19.29517856632182
 10
5.048893619997295
 20
19.17017856632181
 10
4.548893619997294
 20
20.03620397010626
  0
LWPOLYLINE
  5
25AD
330
17
100
AcDbEntity
  8
0
100
AcDbPolyline
 90
        4
 70
     0
 43
0.0
 10
6.798682234706712
 20
20.32445578559218
 10
5.203463439873756
 20
19.40345578497901
 10
5.078463439873759
 20
19.61996213592513
 10
6.673682234706715
 20
20.54096213653829
  0
LWPOLYLINE
  5
25AE
330
17
100
AcDbEntity
  8
0
100
AcDbPolyline
 90
        4
 70
     0
 43
0.0
 10
6.423682234706715
 20
20.9739748384305
 10
4.828463439873752
 20
20.05297483781735
 10
4.703463439873756
 20
20.26948118876346
 10
6.298682234706715
 20
21.19048118937661
  0
LINE
  5
25AF
330
17
100
AcDbEntity
  8
0
100
AcDbLine
 10
5.468263995784775
 20
19.84501359181061
 30
0.0
 11
5.218263995784775
 21
20.27802629370284
 31
0.0
  0
LINE
  5
25B0
330
17
100
AcDbEntity
  8
0
100
AcDbLine
 10
5.121853834270998
 20
19.64501359181062
 30
0.0
 11
4.871853834270998
 21
20.07802629370284
 31
0.0
  0
ARC
  5
25B1
330
17
100
AcDbEntity
  8
0
100
AcDbCircle
 10
5.030024033971615
 20
19.18537581183442
 30
0.0
 40
0.2787354858874189
100
AcDbArc
 50
344.8033299240856
 51
51.55460372418867
  0
LINE
  5
25B2
330
17
100
AcDbEntity
  8
0
100
AcDbLine
 10
4.178813930806967
 20
19.6782007946332
 30
0.0
 11
4.109944387035406
 21
19.79748634353964
 31
0.0
  0
LINE
  5
25B3
330
17
100
AcDbEntity
  8
0
100
AcDbLine
 10
4.703332983379775
 20
20.26970714542603
 30
0.0
 11
4.828332983645291
 21
20.0532007946332
 31
0.0
  0
LWPOLYLINE
  5
25B4
330
17
100
AcDbEntity
  8
0
100
AcDbPolyline
 90
       60
 70
     1
 43
0.0
 10
7.219661637984069
 20
17.53729807017578
 10
7.424661637984067
 20
17.18222765462415
 10
6.44951703332279
 20
16.61922765462415
 42
-0.4142135623730951
 10
6.364823458288151
 20
16.64192122965879
 10
5.798573458288148
 20
17.62269499944467
 10
6.256105211956681
 20
19.33022675356206
 10
6.086105211956683
 20
19.62467539084877
 10
5.949706210860627
 20
19.54592539084877
 42
0.4142135623730951
 10
5.938725448747094
 20
19.50494462873523
 10
5.948725448747092
 20
19.48762412065955
 10
5.987696591917393
 20
19.51012412065955
 10
6.015284030752996
 20
19.46234127494557
 42
-0.370466254221383
 10
5.829088568939335
 20
19.35484127494559
 10
5.801501130103739
 20
19.40262412065954
 10
5.840472273274039
 20
19.42512412065955
 10
5.830472273274041
 20
19.44244462873523
 42
0.4142135623730951
 10
5.789491511160507
 20
19.45342539084877
 10
5.300380889477404
 20
19.11240736710698
 10
5.104718937544598
 20
19.09848627998122
 10
5.051025362509962
 20
19.06748627998122
 10
5.118525362509965
 20
18.95057285047032
 10
5.183477267793795
 20
18.98807285047032
 10
5.240977267793796
 20
18.88847992903511
 10
4.981169646658466
 20
18.73847992903511
 10
4.923669646658462
 20
18.83807285047032
 10
4.988621551942296
 20
18.87557285047032
 10
4.921121551942297
 20
18.99248627998122
 10
4.867427976907658
 20
18.96148627998122
 10
4.797146282106405
 20
18.85721774621906
 10
4.912067106280018
 20
18.65816903990265
 10
4.141304497973898
 20
18.2131690405158
 42
-0.4142135623730951
 10
4.100323735860362
 20
18.22414980262934
 10
3.614573735860362
 20
19.06549348240592
 42
-0.4142135623730778
 10
3.625554497973892
 20
19.10647424451945
 10
3.74679805450372
 20
19.17647424451946
 42
0.2453282281231889
 10
3.873379801634643
 20
19.37568976563941
 42
0.1533065830696684
 10
3.865557385360308
 20
19.41077704960295
 10
3.84482364333629
 20
19.44668894421958
 42
0.4142135623731166
 10
3.855804405449823
 20
19.48766970633311
 10
3.845804405449824
 20
19.50499021440881
 10
3.709405404353773
 20
19.4262402144088
 42
0.4142135623731037
 10
3.698424642240238
 20
19.38525945229527
 10
3.70842464224024
 20
19.36793894421958
 10
3.747395785410541
 20
19.39043894421958
 10
3.774983224246142
 20
19.34265609850561
 42
-0.3704662542213891
 10
3.588787762432483
 20
19.23515609850563
 10
3.561200323596887
 20
19.28293894421958
 10
3.600171466767189
 20
19.30543894421958
 10
3.590171466767186
 20
19.32275945229527
 42
0.4142135623730516
 10
3.549190704653655
 20
19.3337402144088
 10
3.412791703557605
 20
19.2549902144088
 10
4.5162917035576
 20
17.34367214825654
 42
-0.4142135623730906
 10
4.493598128522966
 20
17.25897857322191
 10
3.720237442943458
 20
16.81247857322192
 42
0.9999999999999998
 10
3.765237442943456
 20
16.73453628688131
 10
4.531897943829807
 20
17.1771679334451
 42
-0.2316761058155555
 10
4.586299784322777
 20
17.18088824054311
 10
6.354220917909708
 20
16.46028536828355
 10
7.523355213018701
 20
17.13528536828355
 10
7.273355213018698
 20
17.56829807017578
  0
LINE
  5
25B5
330
17
100
AcDbEntity
  8
0
100
AcDbLine
 10
4.51153035702972
 20
18.42691903990265
 30
0.0
 11
4.879591153638111
 21
18.63941903990265
 31
0.0
  0
LINE
  5
25B6
330
17
100
AcDbEntity
  8
0
100
AcDbLine
 10
4.615875295054395
 20
18.48716261795977
 30
0.0
 11
4.627768290635993
 21
18.48716261795977
 31
0.0
  0
LINE
  5
25B7
330
17
100
AcDbEntity
  8
0
100
AcDbLine
 10
3.672904336292488
 20
18.4074250206838
 30
0.0
 11
2.854577637918561
 21
18.2207240244403
 31
0.0
  0
LINE
  5
25B8
330
17
100
AcDbEntity
  8
0
100
AcDbLine
 10
2.833183979779283
 20
18.64559620263618
 30
0.0
 11
3.511214646384352
 21
18.49197184839919
 31
0.0
  0
LINE
  5
25B9
330
17
100
AcDbEntity
  8
0
100
AcDbLine
 10
3.320520285293897
 20
18.80767879206515
 30
0.0
 11
2.833183979779283
 21
18.64559620263618
 31
0.0
  0
HATCH
  5
25BA
330
17
100
AcDbEntity
  8
0
100
AcDbHatch
 10
0.0
 20
0.0
 30
0.0
210
0.0
220
0.0
230
1.0
  2
STEEL
 70
     0
 71
     0
 91
        1
 92
        7
 72
     1
 73
     1
 93
        8
 10
4.466101820890788
 20
17.24310357260876
 42
0.0
 10
4.446101820890783
 20
17.27774458876014
 42
0.0
 10
3.688786019226316
 20
16.8405081068076
 42
0.2679491924311246
 10
3.658786019226317
 20
16.78854658258053
 42
0.0
 10
3.658786019226317
 20
15.77178536828354
 42
0.0
 10
3.694686019226319
 20
15.77178536828354
 42
0.0
 10
3.694686019226317
 20
16.78040594378495
 42
-0.2679491924311228
 10
3.709686019226316
 20
16.80638670589849
 42
0.0
 97
        0
 75
     0
 76
     1
 52
0.0
 41
0.8
 77
     0
 78
     2
 53
45.0
 43
1.103347716770032
 44
11.91655571433225
 45
-0.0707106781186548
 46
0.0707106781186548
 79
     0
 53
45.0
 43
1.103347716770032
 44
11.96655571433224
 45
-0.0707106781186548
 46
0.0707106781186548
 79
     0
 47
0.0046089663665197
 98
        1
 10
3.874658580739493
 20
16.91746695660599
  0
TEXT
  5
25BB
330
17
100
AcDbEntity
  8
KCADSLABEL
100
AcDbText
 10
1.694768462944988
 20
16.55866886265268
 30
0.0
 40
0.125
  1
216103
 72
     1
 11
1.986122487501605
 21
16.68366886265268
 31
0.0
100
AcDbText
 73
     3
  0
TEXT
  5
25BC
330
17
100
AcDbEntity
  8
KCADSLABEL
100
AcDbText
 10
1.704739849328337
 20
13.46045033605073
 30
0.0
 40
0.125
  1
216051
 72
     1
 11
1.996093873884953
 21
13.58545033605073
 31
0.0
100
AcDbText
 73
     3
  0
CIRCLE
  5
25BD
330
17
100
AcDbEntity
  8
0
100
AcDbCircle
 10
4.161197151211245
 20
19.88807944223917
 30
0.0
 40
0.0059
  0
CIRCLE
  5
25BE
330
17
100
AcDbEntity
  8
0
100
AcDbCircle
 10
4.209120809035821
 20
19.88807944223917
 30
0.0
 40
0.0059
  0
CIRCLE
  5
25BF
330
17
100
AcDbEntity
  8
0
100
AcDbCircle
 10
4.161197151211245
 20
19.80828479908887
 30
0.0
 40
0.0059
  0
CIRCLE
  5
25C0
330
17
100
AcDbEntity
  8
0
100
AcDbCircle
 10
4.215967054325636
 20
19.82880342109017
 30
0.0
 40
0.0059
  0
CIRCLE
  5
25C1
330
17
100
AcDbEntity
  8
0
100
AcDbCircle
 10
4.108709300258071
 20
19.86072128567315
 30
0.0
 40
0.0059
  0
CIRCLE
  5
25C2
330
17
100
AcDbEntity
  8
0
100
AcDbCircle
 10
4.304968154287029
 20
19.89491899511104
 30
0.0
 40
0.0059
  0
CIRCLE
  5
25C3
330
17
100
AcDbEntity
  8
0
100
AcDbCircle
 10
4.24791616940937
 20
19.84704219823657
 30
0.0
 40
0.0059
  0
CIRCLE
  5
25C4
330
17
100
AcDbEntity
  8
0
100
AcDbCircle
 10
4.284429448019649
 20
19.94963532655023
 30
0.0
 40
0.0059
  0
CIRCLE
  5
25C5
330
17
100
AcDbEntity
  8
0
100
AcDbCircle
 10
4.339199351134036
 20
20.00663150284432
 30
0.0
 40
0.0059
  0
CIRCLE
  5
25C6
330
17
100
AcDbEntity
  8
0
100
AcDbCircle
 10
4.366584332293287
 20
19.95191517140513
 30
0.0
 40
0.0059
  0
CIRCLE
  5
25C7
330
17
100
AcDbEntity
  8
0
100
AcDbCircle
 10
4.396251365613755
 20
20.02715012484562
 30
0.0
 40
0.0059
  0
CIRCLE
  5
25C8
330
17
100
AcDbEntity
  8
0
100
AcDbCircle
 10
4.5126374467344
 20
20.10238507828612
 30
0.0
 40
0.0059
  0
CIRCLE
  5
25C9
330
17
100
AcDbEntity
  8
0
100
AcDbCircle
 10
4.61304895551215
 20
20.12290370028742
 30
0.0
 40
0.0059
  0
CIRCLE
  5
25CA
330
17
100
AcDbEntity
  8
0
100
AcDbCircle
 10
4.635869743542803
 20
20.17989987658151
 30
0.0
 40
0.0059
  0
CIRCLE
  5
25CB
330
17
100
AcDbEntity
  8
0
100
AcDbCircle
 10
4.558279022795707
 20
20.12062385543251
 30
0.0
 40
0.0059
  0
CIRCLE
  5
25CC
330
17
100
AcDbEntity
  8
0
100
AcDbCircle
 10
4.542304480054864
 20
20.07958661142991
 30
0.0
 40
0.0059
  0
CIRCLE
  5
25CD
330
17
100
AcDbEntity
  8
0
100
AcDbCircle
 10
4.487534547338421
 20
20.02715012484562
 30
0.0
 40
0.0059
  0
CIRCLE
  5
25CE
330
17
100
AcDbEntity
  8
0
100
AcDbCircle
 10
4.423636317170947
 20
20.00891134769923
 30
0.0
 40
0.0059
  0
CIRCLE
  5
25CF
330
17
100
AcDbEntity
  8
0
100
AcDbCircle
 10
4.679229267442893
 20
20.14342232228871
 30
0.0
 40
0.0059
  0
CIRCLE
  5
25D0
330
17
100
AcDbEntity
  8
0
100
AcDbCircle
 10
4.702050055473547
 20
20.195858808873
 30
0.0
 40
0.0059
  0
CIRCLE
  5
25D1
330
17
100
AcDbEntity
  8
0
100
AcDbCircle
 10
4.722588791342984
 20
20.15938125458021
 30
0.0
 40
0.0059
  0
CIRCLE
  5
25D2
330
17
100
AcDbEntity
  8
0
100
AcDbCircle
 10
4.466995841071041
 20
20.06362767913842
 30
0.0
 40
0.0059
  0
CIRCLE
  5
25D3
330
17
100
AcDbEntity
  8
0
100
AcDbCircle
 10
4.453303350491415
 20
20.02942996970053
 30
0.0
 40
0.0059
  0
CIRCLE
  5
25D4
330
17
100
AcDbEntity
  8
0
100
AcDbCircle
 10
4.22509538137872
 20
19.94051592882345
 30
0.0
 40
0.0059
  0
CIRCLE
  5
25D5
330
17
100
AcDbEntity
  8
0
100
AcDbCircle
 10
4.186300021005168
 20
19.75812815735949
 30
0.0
 40
0.0059
  0
CIRCLE
  5
25D6
330
17
100
AcDbEntity
  8
0
100
AcDbCircle
 10
4.193146266294982
 20
19.70797151563012
 30
0.0
 40
0.0059
  0
CIRCLE
  5
25D7
330
17
100
AcDbEntity
  8
0
100
AcDbCircle
 10
4.206838727272552
 20
19.77408708965098
 30
0.0
 40
0.0059
  0
CIRCLE
  5
25D8
330
17
100
AcDbEntity
  8
0
100
AcDbCircle
 10
4.108709300258071
 20
19.90175852967576
 30
0.0
 40
0.0059
  0
CIRCLE
  5
25D9
330
17
100
AcDbEntity
  8
0
100
AcDbCircle
 10
4.051657315380412
 20
19.86072128567315
 30
0.0
 40
0.0059
  0
CIRCLE
  5
25DA
330
17
100
AcDbEntity
  8
0
100
AcDbCircle
 10
4.302686102125816
 20
19.98383301768096
 30
0.0
 40
0.0059
  0
CIRCLE
  5
25DB
330
17
100
AcDbEntity
  8
0
100
AcDbCircle
 10
4.597074383169255
 20
20.16166109943511
 30
0.0
 40
0.0059
  0
CIRCLE
  5
25DC
330
17
100
AcDbEntity
  8
0
100
AcDbCircle
 10
4.524047825948697
 20
20.03398965941034
 30
0.0
 40
0.0059
  0
CIRCLE
  5
25DD
330
17
100
AcDbEntity
  8
0
100
AcDbCircle
 10
4.339199351134036
 20
19.90403837453066
 30
0.0
 40
0.0059
  0
TEXT
  5
25DE
330
17
100
AcDbEntity
  8
KCADSLABEL
100
AcDbText
 10
6.908119743219991
 20
13.69230516474286
 30
0.0
 40
0.125
  1
216883
 72
     1
 11
7.199473767776607
 21
13.81730516474286
 31
0.0
100
AcDbText
 73
     3
  0
ARC
  5
25DF
330
17
100
AcDbEntity
  8
0
100
AcDbCircle
 10
3.381881595159434
 20
17.61078489178004
 30
0.0
 40
0.9682181067934058
100
AcDbArc
 50
332.0629322255053
 51
1.251092636816472
  0
CIRCLE
  5
25E0
330
17
100
AcDbEntity
  8
0
100
AcDbCircle
 10
4.392994695334268
 20
17.44179961526478
 30
0.0
 40
0.0059
  0
CIRCLE
  5
25E1
330
17
100
AcDbEntity
  8
0
100
AcDbCircle
 10
4.367721968938392
 20
17.40684084080551
 30
0.0
 40
0.0059
  0
CIRCLE
  5
25E2
330
17
100
AcDbEntity
  8
0
100
AcDbCircle
 10
4.431875842468437
 20
17.3757663685171
 30
0.0
 40
0.0059
  0
CIRCLE
  5
25E3
330
17
100
AcDbEntity
  8
0
100
AcDbCircle
 10
4.387162527704449
 20
17.34274972683611
 30
0.0
 40
0.0059
  0
CIRCLE
  5
25E4
330
17
100
AcDbEntity
  8
0
100
AcDbCircle
 10
4.344393298419122
 20
17.30779095237684
 30
0.0
 40
0.0059
  0
CIRCLE
  5
25E5
330
17
100
AcDbEntity
  8
0
100
AcDbCircle
 10
4.326896765927612
 20
17.25146846105633
 30
0.0
 40
0.0059
  0
CIRCLE
  5
25E6
330
17
100
AcDbEntity
  8
0
100
AcDbCircle
 10
4.282183480765683
 20
17.21845183768249
 30
0.0
 40
0.0059
  0
CIRCLE
  5
25E7
330
17
100
AcDbEntity
  8
0
100
AcDbCircle
 10
4.427987730715228
 20
17.3116752545477
 30
0.0
 40
0.0059
  0
CIRCLE
  5
25E8
330
17
100
AcDbEntity
  8
0
100
AcDbCircle
 10
4.392994695334268
 20
17.28254293334473
 30
0.0
 40
0.0059
  0
CIRCLE
  5
25E9
330
17
100
AcDbEntity
  8
0
100
AcDbCircle
 10
4.472701015877158
 20
17.30779095237684
 30
0.0
 40
0.0059
  0
CIRCLE
  5
25EA
330
17
100
AcDbEntity
  8
0
100
AcDbCircle
 10
4.470756960000555
 20
17.26700570635411
 30
0.0
 40
0.0059
  0
CIRCLE
  5
25EB
330
17
100
AcDbEntity
  8
0
100
AcDbCircle
 10
4.501861883628302
 20
17.32527034876005
 30
0.0
 40
0.0059
  0
CIRCLE
  5
25EC
330
17
100
AcDbEntity
  8
0
100
AcDbCircle
 10
4.449372345357891
 20
17.42237806779613
 30
0.0
 40
0.0059
  0
CIRCLE
  5
25ED
330
17
100
AcDbEntity
  8
0
100
AcDbCircle
 10
4.404659030593903
 20
17.50006425767072
 30
0.0
 40
0.0059
  0
CIRCLE
  5
25EE
330
17
100
AcDbEntity
  8
0
100
AcDbCircle
 10
4.367721968938392
 20
17.50006425767072
 30
0.0
 40
0.0059
  0
CIRCLE
  5
25EF
330
17
100
AcDbEntity
  8
0
100
AcDbCircle
 10
4.369666024814998
 20
17.55832890007666
 30
0.0
 40
0.0059
  0
ARC
  5
25F0
330
17
100
AcDbEntity
  8
0
100
AcDbCircle
 10
3.285299525360349
 20
15.98730684527668
 30
0.0
 40
0.3983987398873931
100
AcDbArc
 50
301.2706011654196
 51
339.6307722258143
  0
CIRCLE
  5
25F1
330
17
100
AcDbEntity
  8
0
100
AcDbCircle
 10
3.647587286245814
 20
15.7197250569207
 30
0.0
 40
0.0059
  0
CIRCLE
  5
25F2
330
17
100
AcDbEntity
  8
0
100
AcDbCircle
 10
3.646785810557796
 20
15.68929869451123
 30
0.0
 40
0.0059
  0
CIRCLE
  5
25F3
330
17
100
AcDbEntity
  8
0
100
AcDbCircle
 10
3.637969548387561
 20
15.75175281935135
 30
0.0
 40
0.0059
  0
CIRCLE
  5
25F4
330
17
100
AcDbEntity
  8
0
100
AcDbCircle
 10
3.613123742854936
 20
15.72212713864532
 30
0.0
 40
0.0059
  0
CIRCLE
  5
25F5
330
17
100
AcDbEntity
  8
0
100
AcDbCircle
 10
3.609116334812798
 20
15.68689661278661
 30
0.0
 40
0.0059
  0
CIRCLE
  5
25F6
330
17
100
AcDbEntity
  8
0
100
AcDbCircle
 10
3.567439510229776
 20
15.67888968590931
 30
0.0
 40
0.0059
  0
CIRCLE
  5
25F7
330
17
100
AcDbEntity
  8
0
100
AcDbCircle
 10
3.540189248031049
 20
15.66127441382638
 30
0.0
 40
0.0059
  0
CIRCLE
  5
25F8
330
17
100
AcDbEntity
  8
0
100
AcDbCircle
 10
3.583469053592159
 20
15.66207511383697
 30
0.0
 40
0.0059
  0
CIRCLE
  5
25F9
330
17
100
AcDbEntity
  8
0
100
AcDbCircle
 10
3.637969548387561
 20
15.65486886866311
 30
0.0
 40
0.0059
  0
CIRCLE
  5
25FA
330
17
100
AcDbEntity
  8
0
100
AcDbCircle
 10
3.679646402572638
 20
15.65566956867371
 30
0.0
 40
0.0059
  0
CIRCLE
  5
25FB
330
17
100
AcDbEntity
  8
0
100
AcDbCircle
 10
3.686859683764788
 20
15.69090009453242
 30
0.0
 40
0.0059
  0
CIRCLE
  5
25FC
330
17
100
AcDbEntity
  8
0
100
AcDbCircle
 10
3.679646402572638
 20
15.7237285386665
 30
0.0
 40
0.0059
  0
CIRCLE
  5
25FD
330
17
100
AcDbEntity
  8
0
100
AcDbCircle
 10
3.66682276196232
 20
15.7437458741669
 30
0.0
 40
0.0059
  0
CIRCLE
  5
25FE
330
17
100
AcDbEntity
  8
0
100
AcDbCircle
 10
3.643579878203675
 20
15.78858472692409
 30
0.0
 40
0.0059
  0
CIRCLE
  5
25FF
330
17
100
AcDbEntity
  8
0
100
AcDbCircle
 10
5.614662047846371
 20
19.50474597354276
 30
0.0
 40
0.0059
  0
CIRCLE
  5
2600
330
17
100
AcDbEntity
  8
0
100
AcDbCircle
 10
5.605999065126274
 20
19.43550974368117
 30
0.0
 40
0.0059
  0
CIRCLE
  5
2601
330
17
100
AcDbEntity
  8
0
100
AcDbCircle
 10
5.582175803441897
 20
19.39440073563345
 30
0.0
 40
0.0059
  0
CIRCLE
  5
2602
330
17
100
AcDbEntity
  8
0
100
AcDbCircle
 10
5.499877260386581
 20
19.40305525978935
 30
0.0
 40
0.0059
  0
CIRCLE
  5
2603
330
17
100
AcDbEntity
  8
0
100
AcDbCircle
 10
5.458727974057891
 20
19.44849152991503
 30
0.0
 40
0.0059
  0
CIRCLE
  5
2604
330
17
100
AcDbEntity
  8
0
100
AcDbCircle
 10
5.374263685322551
 20
19.39223710459447
 30
0.0
 40
0.0059
  0
CIRCLE
  5
2605
330
17
100
AcDbEntity
  8
0
100
AcDbCircle
 10
5.400252692686953
 20
19.25592827591027
 30
0.0
 40
0.0059
  0
CIRCLE
  5
2606
330
17
100
AcDbEntity
  8
0
100
AcDbCircle
 10
5.460893719737915
 20
19.281891848378
 30
0.0
 40
0.0059
  0
CIRCLE
  5
2607
330
17
100
AcDbEntity
  8
0
100
AcDbCircle
 10
5.467390986380044
 20
19.34896444720061
 30
0.0
 40
0.0059
  0
CIRCLE
  5
2608
330
17
100
AcDbEntity
  8
0
100
AcDbCircle
 10
5.415412942049178
 20
19.35112807823959
 30
0.0
 40
0.0059
  0
CIRCLE
  5
2609
330
17
100
AcDbEntity
  8
0
100
AcDbCircle
 10
5.372097939642527
 20
19.30569180811391
 30
0.0
 40
0.0059
  0
CIRCLE
  5
260A
330
17
100
AcDbEntity
  8
0
100
AcDbCircle
 10
5.30062815458938
 20
19.40738252186731
 30
0.0
 40
0.0059
  0
CIRCLE
  5
260B
330
17
100
AcDbEntity
  8
0
100
AcDbCircle
 10
5.294130887947252
 20
19.34463718512265
 30
0.0
 40
0.0059
  0
CIRCLE
  5
260C
330
17
100
AcDbEntity
  8
0
100
AcDbCircle
 10
5.320119895311661
 20
19.27972821733902
 30
0.0
 40
0.0059
  0
CIRCLE
  5
260D
330
17
100
AcDbEntity
  8
0
100
AcDbCircle
 10
5.324451416273765
 20
19.23429194721334
 30
0.0
 40
0.0059
  0
CIRCLE
  5
260E
330
17
100
AcDbEntity
  8
0
100
AcDbCircle
 10
5.322285670593741
 20
19.1953465702046
 30
0.0
 40
0.0059
  0
CIRCLE
  5
260F
330
17
100
AcDbEntity
  8
0
100
AcDbCircle
 10
5.536695025753159
 20
19.34463718512265
 30
0.0
 40
0.0059
  0
CIRCLE
  5
2610
330
17
100
AcDbEntity
  8
0
100
AcDbCircle
 10
5.508540243106677
 20
19.29271002188005
 30
0.0
 40
0.0059
  0
CIRCLE
  5
2611
330
17
100
AcDbEntity
  8
0
100
AcDbCircle
 10
5.556186766475432
 20
19.51123686665969
 30
0.0
 40
0.0059
  0
CIRCLE
  5
2612
330
17
100
AcDbEntity
  8
0
100
AcDbCircle
 10
5.499877260386581
 20
19.49609144938684
 30
0.0
 40
0.0059
  0
CIRCLE
  5
2613
330
17
100
AcDbEntity
  8
0
100
AcDbCircle
 10
5.400252692686953
 20
19.47445512068991
 30
0.0
 40
0.0059
  0
CIRCLE
  5
2614
330
17
100
AcDbEntity
  8
0
100
AcDbCircle
 10
5.590838786161993
 20
19.61076394937411
 30
0.0
 40
0.0059
  0
CIRCLE
  5
2615
330
17
100
AcDbEntity
  8
0
100
AcDbCircle
 10
5.677468850179414
 20
19.59561853210127
 30
0.0
 40
0.0059
  0
CIRCLE
  5
2616
330
17
100
AcDbEntity
  8
0
100
AcDbCircle
 10
5.707789348903871
 20
19.50907323562071
 30
0.0
 40
0.0059
  0
CIRCLE
  5
2617
330
17
100
AcDbEntity
  8
0
100
AcDbCircle
 10
5.699126336581718
 20
19.46580059653401
 30
0.0
 40
0.0059
  0
CIRCLE
  5
2618
330
17
100
AcDbEntity
  8
0
100
AcDbCircle
 10
5.699126336581718
 20
19.42036430810117
 30
0.0
 40
0.0059
  0
CIRCLE
  5
2619
330
17
100
AcDbEntity
  8
0
100
AcDbCircle
 10
5.638485309530755
 20
19.40954615290628
 30
0.0
 40
0.0059
  0
CIRCLE
  5
261A
330
17
100
AcDbEntity
  8
0
100
AcDbCircle
 10
5.653645588495036
 20
19.51772775977662
 30
0.0
 40
0.0059
  0
CIRCLE
  5
261B
330
17
100
AcDbEntity
  8
0
100
AcDbCircle
 10
5.56918127015764
 20
19.55234587470741
 30
0.0
 40
0.0059
  0
CIRCLE
  5
261C
330
17
100
AcDbEntity
  8
0
100
AcDbCircle
 10
5.480385490062245
 20
19.53070956431764
 30
0.0
 40
0.0059
  0
CIRCLE
  5
261D
330
17
100
AcDbEntity
  8
0
100
AcDbCircle
 10
5.664474316895157
 20
19.63456390911002
 30
0.0
 40
0.0059
  0
CIRCLE
  5
261E
330
17
100
AcDbEntity
  8
0
100
AcDbCircle
 10
5.51720325542883
 20
19.46147333445605
 30
0.0
 40
0.0059
  0
LINE
  5
261F
330
17
100
AcDbEntity
  8
0
100
AcDbLine
 10
5.961235668185144
 20
19.84095578497902
 30
0.0
 11
5.690602729502503
 21
19.68470578497902
 31
0.0
  0
LINE
  5
2620
330
17
100
AcDbEntity
  8
0
100
AcDbLine
 10
5.690602729502503
 20
19.68470578497902
 30
0.0
 11
5.840472273274047
 21
19.42512412065955
 31
0.0
  0
LINE
  5
2621
330
17
100
AcDbEntity
  8
0
100
AcDbLine
 10
6.086105211956683
 20
19.62467539084877
 30
0.0
 11
5.961235668185144
 21
19.84095578497902
 31
0.0
  0
CIRCLE
  5
2622
330
17
100
AcDbEntity
  8
0
100
AcDbCircle
 10
5.775183078745142
 20
19.47593157438254
 30
0.0
 40
0.0059
  0
LWPOLYLINE
  5
2623
330
17
100
AcDbEntity
  8
0
100
AcDbPolyline
 90
        3
 70
     0
 43
0.0
 10
3.411927162004429
 20
19.25752632739669
 10
3.285145018790441
 20
19.33072403190972
 42
-0.5773502691896213
 10
3.285145018790441
 20
19.35670479402326
  0
LWPOLYLINE
  5
2624
330
17
100
AcDbEntity
  8
0
100
AcDbPolyline
 90
        3
 70
     0
 43
0.0
 10
3.757308410682165
 20
19.62930845543343
 42
-0.4142135616547188
 10
3.777798791720536
 20
19.62381807440852
 10
3.84493986363115
 20
19.5075263272434
  0
LINE
  5
2625
330
17
100
AcDbEntity
  8
0
100
AcDbLine
 10
2.517686019226323
 20
15.08428536828354
 30
0.0
 11
2.387686019226324
 21
15.08428536828354
 31
0.0
  0
LINE
  5
2626
330
17
100
AcDbEntity
  8
0
100
AcDbLine
 10
2.387686019226324
 20
15.08428536828354
 30
0.0
 11
2.387686019226324
 21
14.98428536828354
 31
0.0
  0
LINE
  5
2627
330
17
100
AcDbEntity
  8
0
100
AcDbLine
 10
2.387686019226324
 20
14.98428536828354
 30
0.0
 11
2.398686019226323
 21
14.98428536828354
 31
0.0
  0
ARC
  5
2628
330
17
100
AcDbEntity
  8
0
100
AcDbCircle
 10
2.398686019226323
 20
14.95928536828354
 30
0.0
 40
0.0250000000000004
100
AcDbArc
 50
0.0000000000040711
 51
90.00000000000047
  0
LINE
  5
2629
330
17
100
AcDbEntity
  8
0
100
AcDbLine
 10
2.423686019226323
 20
14.95928536828354
 30
0.0
 11
2.423686019226323
 21
14.90728536828354
 31
0.0
  0
ARC
  5
262A
330
17
100
AcDbEntity
  8
0
100
AcDbCircle
 10
2.398686019226323
 20
14.90728536828354
 30
0.0
 40
0.0250000000000001
100
AcDbArc
 50
269.9999999999995
 51
359.9999999999959
  0
LINE
  5
262B
330
17
100
AcDbEntity
  8
0
100
AcDbLine
 10
2.398686019226323
 20
14.88228536828354
 30
0.0
 11
2.387686019226324
 21
14.88228536828354
 31
0.0
  0
LINE
  5
262C
330
17
100
AcDbEntity
  8
0
100
AcDbLine
 10
2.387686019226324
 20
14.88228536828354
 30
0.0
 11
2.387686019226325
 21
14.87228536828354
 31
0.0
  0
LINE
  5
262D
330
17
100
AcDbEntity
  8
0
100
AcDbLine
 10
2.387686019226324
 20
14.77228536828354
 30
0.0
 11
2.572686019226322
 21
14.77228536828354
 31
0.0
  0
LINE
  5
262E
330
17
100
AcDbEntity
  8
0
100
AcDbLine
 10
2.572686019226322
 20
15.64628536828354
 30
0.0
 11
2.387686019226324
 21
15.64628536828354
 31
0.0
  0
LINE
  5
262F
330
17
100
AcDbEntity
  8
0
100
AcDbLine
 10
2.387686019226324
 20
15.54628536828355
 30
0.0
 11
2.387686019226324
 21
15.53628536828354
 31
0.0
  0
LINE
  5
2630
330
17
100
AcDbEntity
  8
0
100
AcDbLine
 10
2.387686019226324
 20
15.53628536828354
 30
0.0
 11
2.398686019226323
 21
15.53628536828354
 31
0.0
  0
ARC
  5
2631
330
17
100
AcDbEntity
  8
0
100
AcDbCircle
 10
2.398686019226323
 20
15.51128536828354
 30
0.0
 40
0.0250000000000013
100
AcDbArc
 50
359.999999999998
 51
89.99999999999797
  0
LINE
  5
2632
330
17
100
AcDbEntity
  8
0
100
AcDbLine
 10
2.423686019226323
 20
15.51128536828354
 30
0.0
 11
2.423686019226323
 21
15.45928536828354
 31
0.0
  0
ARC
  5
2633
330
17
100
AcDbEntity
  8
0
100
AcDbCircle
 10
2.398686019226323
 20
15.45928536828354
 30
0.0
 40
0.0249999999999999
100
AcDbArc
 50
269.999999999999
 51
359.9999999999969
  0
LINE
  5
2634
330
17
100
AcDbEntity
  8
0
100
AcDbLine
 10
2.398686019226323
 20
15.43428536828354
 30
0.0
 11
2.387686019226324
 21
15.43428536828354
 31
0.0
  0
LINE
  5
2635
330
17
100
AcDbEntity
  8
0
100
AcDbLine
 10
2.387686019226324
 20
15.43428536828354
 30
0.0
 11
2.387686019226324
 21
15.33428536828354
 31
0.0
  0
LINE
  5
2636
330
17
100
AcDbEntity
  8
0
100
AcDbLine
 10
2.387686019226324
 20
15.33428536828354
 30
0.0
 11
2.517686019226323
 21
15.33428536828354
 31
0.0
  0
ARC
  5
2637
330
17
100
AcDbEntity
  8
0
100
AcDbCircle
 10
2.517686019226323
 20
15.30928536828354
 30
0.0
 40
0.0249999999999995
100
AcDbArc
 50
0.0000000000020356
 51
90.00000000000202
  0
LINE
  5
2638
330
17
100
AcDbEntity
  8
0
100
AcDbLine
 10
2.542686019226323
 20
15.30928536828354
 30
0.0
 11
2.542686019226323
 21
15.20928536828354
 31
0.0
  0
LINE
  5
2639
330
17
100
AcDbEntity
  8
0
100
AcDbLine
 10
2.542686019226323
 20
15.20928536828354
 30
0.0
 11
2.542686019226323
 21
15.10928536828354
 31
0.0
  0
ARC
  5
263A
330
17
100
AcDbEntity
  8
0
100
AcDbCircle
 10
2.517686019226323
 20
15.10928536828354
 30
0.0
 40
0.0249999999999995
100
AcDbArc
 50
269.999999999998
 51
359.999999999998
  0
LINE
  5
263B
330
17
100
AcDbEntity
  8
0
100
AcDbLine
 10
2.572686019226321
 20
15.32828536828354
 30
0.0
 11
2.572686019226321
 21
15.09028536828354
 31
0.0
  0
LINE
  5
263C
330
17
100
AcDbEntity
  8
0
100
AcDbLine
 10
2.387686019226325
 20
14.15672498370537
 30
0.0
 11
2.572686019226321
 21
14.15672498370537
 31
0.0
  0
LINE
  5
263D
330
17
100
AcDbEntity
  8
0
100
AcDbLine
 10
2.572686019226321
 20
14.45672498370537
 30
0.0
 11
2.387686019226324
 21
14.45672498370537
 31
0.0
  0
LINE
  5
263E
330
17
100
AcDbEntity
  8
0
100
AcDbLine
 10
2.572686019226321
 20
13.89217535577705
 30
0.0
 11
2.387686019226416
 21
13.95950984911626
 31
0.0
  0
LINE
  5
263F
330
17
100
AcDbEntity
  8
0
100
AcDbLine
 10
2.387686019226416
 20
13.95950984911626
 30
0.0
 11
2.387686019226416
 21
14.00078536828352
 31
0.0
  0
LINE
  5
2640
330
17
100
AcDbEntity
  8
0
100
AcDbLine
 10
2.387686019226322
 20
16.26184575286171
 30
0.0
 11
2.572686019226321
 21
16.26184575286171
 31
0.0
  0
LINE
  5
2641
330
17
100
AcDbEntity
  8
0
100
AcDbLine
 10
2.572686019226321
 20
16.52639538079003
 30
0.0
 11
2.387686019226416
 21
16.45906088745082
 31
0.0
  0
LINE
  5
2642
330
17
100
AcDbEntity
  8
0
100
AcDbLine
 10
2.387686019226416
 20
16.45906088745082
 30
0.0
 11
2.387686019226418
 21
16.41778536828349
 31
0.0
  0
LINE
  5
2643
330
17
100
AcDbEntity
  8
0
100
AcDbLine
 10
2.572686019226321
 20
15.96184575286171
 30
0.0
 11
2.387686019226324
 21
15.96184575286171
 31
0.0
  0
ARC
  5
2644
330
17
100
AcDbEntity
  8
0
100
AcDbCircle
 10
3.635699237597899
 20
13.99412333401685
 30
0.0
 40
0.0686200642572517
100
AcDbArc
 50
203.3224318677704
 51
334.688324126693
  0
ARC
  5
2645
330
17
100
AcDbEntity
  8
0
100
AcDbCircle
 10
3.634605755925873
 20
14.19788827247948
 30
0.0
 40
0.0707074208628049
100
AcDbArc
 50
26.85777267789843
 51
151.1300238152806
  0
LEADER
  5
2646
330
17
100
AcDbEntity
  8
KCADSLABEL
100
AcDbLeader
  3
STANDARD
 76
     3
 10
1.969193908029852
 20
14.13641377760104
 30
0.0
 10
1.416228062357353
 20
13.50890167064919
 30
0.0
 10
1.538151918652884
 20
13.50890167064919
 30
0.0
1001
ACAD
1000
DSTYLE
1002
{
1070
     5
1000

1070
    41
1040
0.125
1070
    42
1040
0.25
1070
    43
1040
0.3828125
1070
    44
1040
0.125
1070
    73
1070
     0
1070
    74
1070
     0
1070
    77
1070
     1
1070
   140
1040
0.1875
1070
   141
1040
0.09375
1070
   145
1040
1.0
1070
   270
1070
     4
1070
   271
1070
     5
1070
   272
1070
     5
1070
   273
1070
     4
1070
   287
1070
     5
1002
}
  0
INSERT
  5
299C
330
17
100
AcDbEntity
  8
0
100
AcDbBlockReference
  2
Kawneer Logo English
 10
-8.668463669768257
 20
-3.49654466700912
 30
0.0
 41
5.337
 42
5.337
 43
5.337
  0
ENDSEC
  0
SECTION
  2
OBJECTS
  0
DICTIONARY
  5
C
330
0
100
AcDbDictionary
281
     1
  3
ACAD_CIP_PREVIOUS_PRODUCT_INFO
350
112D
  3
ACAD_COLOR
350
1090
  3
ACAD_FIELDLIST
350
1151
  3
ACAD_GROUP
350
D
  3
ACAD_LAYOUT
350
102D
  3
ACAD_MATERIAL
350
105E
  3
ACAD_MLEADERSTYLE
350
10A5
  3
ACAD_MLINESTYLE
350
1A
  3
ACAD_PLOTSETTINGS
350
102E
  3
ACAD_PLOTSTYLENAME
350
102B
  3
ACAD_SCALELIST
350
1093
  3
ACAD_TABLESTYLE
350
1091
  3
ACAD_VISUALSTYLE
350
1077
  3
ACDB_RECOMPOSE_DATA
350
29E3
  3
ACDBVARIABLEDICTIONARY
350
24
  3
DWGPROPS
350
29E4
  0
DICTIONARY
  5
10E8
330
8
100
AcDbDictionary
280
     1
281
     1
  0
DICTIONARY
  5
10C4
330
2
100
AcDbDictionary
280
     1
281
     1
  3
ACAD_LAYERSTATES
360
10C5
  0
DICTIONARY
  5
10DF
330
E
100
AcDbDictionary
280
     1
281
     1
  3
ADSK_XREC_LAYER_RECONCILED
360
10E0
  0
DICTIONARY
  5
10E1
330
1E
100
AcDbDictionary
280
     1
281
     1
  3
ADSK_XREC_LAYER_RECONCILED
360
10E2
  0
DICTIONARY
  5
1142
330
1141
100
AcDbDictionary
280
     1
281
     1
  0
DICTIONARY
  5
125C
330
125B
100
AcDbDictionary
280
     1
281
     1
  0
DICTIONARY
  5
1059
330
17
100
AcDbDictionary
280
     1
281
     1
  3
ACAD_LAYOUTSELFREF
360
105A
  3
ACAD_SORTENTS
360
1A74
  0
DICTIONARY
  5
1057
330
14
100
AcDbDictionary
280
     1
281
     1
  3
ACAD_LAYOUTSELFREF
360
1058
  0
DICTIONARY
  5
2998
330
298E
100
AcDbDictionary
280
     1
281
     1
  3
ACAD_SORTENTS
360
2999
  0
DICTIONARY
  5
29E1
330
298F
100
AcDbDictionary
280
     1
281
     1
  3
ACAD_MTEXT_2008_RT
360
29E2
  0
DICTIONARY
  5
1154
330
1153
100
AcDbDictionary
280
     1
281
     1
  0
XRECORD
  5
112D
102
{ACAD_REACTORS
330
C
102
}
330
C
100
AcDbXrecord
280
     1
300
ACD
300
2012
300

  0
DICTIONARY
  5
1090
102
{ACAD_REACTORS
330
C
102
}
330
C
100
AcDbDictionary
281
     1
  0
FIELDLIST
  5
1151
102
{ACAD_REACTORS
330
C
102
}
330
C
100
AcDbIdSet
 90
        0
100
AcDbFieldList
  0
DICTIONARY
  5
D
102
{ACAD_REACTORS
330
C
102
}
330
C
100
AcDbDictionary
281
     1
  0
DICTIONARY
  5
102D
102
{ACAD_REACTORS
330
C
102
}
330
C
100
AcDbDictionary
281
     1
  3
Layout1
350
1030
  3
Model
350
102F
  0
DICTIONARY
  5
105E
102
{ACAD_REACTORS
330
C
102
}
330
C
100
AcDbDictionary
281
     1
  3
ByBlock
350
1067
  3
ByLayer
350
105F
  3
Global
350
106F
  0
DICTIONARY
  5
10A5
102
{ACAD_REACTORS
330
C
102
}
330
C
100
AcDbDictionary
281
     1
  3
Standard
350
10A6
  0
DICTIONARY
  5
1A
102
{ACAD_REACTORS
330
C
102
}
330
C
100
AcDbDictionary
281
     1
  3
STANDARD
350
1B
  0
DICTIONARY
  5
102E
102
{ACAD_REACTORS
330
C
102
}
330
C
100
AcDbDictionary
281
     1
  0
ACDBDICTIONARYWDFLT
  5
102B
102
{ACAD_REACTORS
330
C
102
}
330
C
100
AcDbDictionary
281
     1
  3
Normal
350
102C
100
AcDbDictionaryWithDefault
340
102C
  0
DICTIONARY
  5
1093
102
{ACAD_REACTORS
330
C
102
}
330
C
100
AcDbDictionary
281
     1
  3
A0
350
1094
  3
A1
350
296C
  3
A2
350
296D
  3
A3
350
296E
  3
A4
350
296F
  3
A5
350
2970
  3
A6
350
2971
  3
A7
350
2972
  3
A8
350
2973
  3
A9
350
2974
  3
B0
350
2975
  3
B1
350
2976
  3
B2
350
2977
  3
B3
350
2978
  3
B4
350
2979
  3
B5
350
297A
  3
B6
350
297B
  0
DICTIONARY
  5
1091
102
{ACAD_REACTORS
330
C
102
}
330
C
100
AcDbDictionary
281
     1
  3
Standard
350
1092
  0
DICTIONARY
  5
1077
102
{ACAD_REACTORS
330
C
102
}
330
C
100
AcDbDictionary
281
     1
  3
2dWireframe
350
107D
  3
3D Hidden
350
298C
  3
3dWireframe
350
298D
  3
Basic
350
107C
  3
Brighten
350
1083
  3
ColorChange
350
1087
  3
Conceptual
350
1080
  3
Dim
350
1082
  3
EdgeColorOff
350
108F
  3
Facepattern
350
1086
  3
Flat
350
1078
  3
FlatWithEdges
350
1079
  3
Gouraud
350
107A
  3
GouraudWithEdges
350
107B
  3
Hidden
350
107F
  3
JitterOff
350
108D
  3
Linepattern
350
1085
  3
OverhangOff
350
108E
  3
Realistic
350
1081
  3
Shaded
350
108C
  3
Shaded with edges
350
108B
  3
Shades of Gray
350
1088
  3
Sketchy
350
1089
  3
Thicken
350
1084
  3
Wireframe
350
107E
  3
X-Ray
350
108A
  0
XRECORD
  5
29E3
102
{ACAD_REACTORS
330
C
102
}
330
C
100
AcDbXrecord
280
     1
 90
        1
330
1092
330
1153
330
298F
  0
DICTIONARY
  5
24
102
{ACAD_REACTORS
330
C
102
}
330
C
100
AcDbDictionary
281
     1
  3
CANNOSCALE
350
1125
  3
CMLEADERSTYLE
350
1124
  3
CTABLESTYLE
350
1123
  3
DIMADEC
350
25
  3
DIMASSOC
350
1128
  3
INDEXCTL
350
1127
  3
SORTENTS
350
1126
  3
XCLIPFRAME
350
299E
  0
XRECORD
  5
29E4
102
{ACAD_REACTORS
330
C
102
}
330
C
100
AcDbXrecord
280
     1
  1
DWGPROPS COOKIE
  2

  3

  4

  6

  7

  8
quadiss
  9

300
=
301
=
302
=
303
=
304
=
305
=
306
=
307
=
308
=
309
=
 40
0.1598071875
 41
2450140.523167593
 42
2457809.619237558
  1

 90
        0
  0
DICTIONARY
  5
10C5
102
{ACAD_REACTORS
330
10C4
102
}
330
10C4
100
AcDbDictionary
281
     1
  0
XRECORD
  5
10E0
102
{ACAD_REACTORS
330
10DF
102
}
330
10DF
100
AcDbXrecord
280
     1
290
     1
  0
XRECORD
  5
10E2
102
{ACAD_REACTORS
330
10E1
102
}
330
10E1
100
AcDbXrecord
280
     1
290
     1
  0
XRECORD
  5
105A
102
{ACAD_REACTORS
330
1059
102
}
330
1059
100
AcDbXrecord
280
     1
340
17
  0
SORTENTSTABLE
  5
1A74
102
{ACAD_REACTORS
330
1059
102
}
330
1059
100
AcDbSortentsTable
330
17
331
1ED6
  5
1ED6
331
12E4
  5
12E4
331
1E97
  5
1E97
331
23AE
  5
23AE
331
2224
  5
2224
331
1ED2
  5
1ED2
331
1E93
  5
1E93
331
225F
  5
225F
331
23AA
  5
23AA
331
2220
  5
2220
331
1ECE
  5
1ECE
331
2584
  5
2584
331
25FE
  5
25FE
331
2061
  5
2061
331
23E5
  5
23E5
331
221C
  5
221C
331
225B
  5
225B
331
1ECA
  5
1ECA
331
2580
  5
2580
331
25FA
  5
25FA
331
25BF
  5
25BF
331
23A2
  5
23A2
331
23E1
  5
23E1
331
2218
  5
2218
331
2635
  5
2635
331
257C
  5
257C
331
25F6
  5
25F6
331
25BB
  5
25BB
331
2631
  5
2631
331
2578
  5
2578
331
25F2
  5
25F2
331
1E8F
  5
1E8F
331
1E8B
  5
1E8B
331
205D
  5
205D
331
2257
  5
2257
331
1EC6
  5
1EC6
331
11C4
  5
11C4
331
2059
  5
2059
331
1E87
  5
1E87
331
23DD
  5
23DD
331
2214
  5
2214
331
2253
  5
2253
331
1EC2
  5
1EC2
331
25B7
  5
25B7
331
2055
  5
2055
331
1E83
  5
1E83
331
224F
  5
224F
331
23D9
  5
23D9
331
2210
  5
2210
331
1EBE
  5
1EBE
331
262D
  5
262D
331
25EE
  5
25EE
331
25B3
  5
25B3
331
2051
  5
2051
331
23D5
  5
23D5
331
220C
  5
220C
331
224B
  5
224B
331
1EBA
  5
1EBA
331
2629
  5
2629
331
25AF
  5
25AF
331
25EA
  5
25EA
331
23D1
  5
23D1
331
2208
  5
2208
331
25AB
  5
25AB
331
25E6
  5
25E6
331
2625
  5
2625
331
25E2
  5
25E2
331
2621
  5
2621
331
2247
  5
2247
331
1EB6
  5
1EB6
331
204D
  5
204D
331
2204
  5
2204
331
2243
  5
2243
331
1EB2
  5
1EB2
331
2049
  5
2049
331
25A7
  5
25A7
331
23CD
  5
23CD
331
223F
  5
223F
331
2200
  5
2200
331
1EAE
  5
1EAE
331
2045
  5
2045
331
25A3
  5
25A3
331
25DE
  5
25DE
331
261D
  5
261D
331
23C9
  5
23C9
331
21FC
  5
21FC
331
223B
  5
223B
331
1EAA
  5
1EAA
331
259F
  5
259F
331
25DA
  5
25DA
331
2619
  5
2619
331
23C5
  5
23C5
331
2041
  5
2041
331
21F8
  5
21F8
331
259B
  5
259B
331
25D6
  5
25D6
331
2615
  5
2615
331
23C1
  5
23C1
331
25D2
  5
25D2
331
2611
  5
2611
331
23F8
  5
23F8
331
2237
  5
2237
331
1EA6
  5
1EA6
331
1160
  5
1160
331
21F4
  5
21F4
331
2233
  5
2233
331
2597
  5
2597
331
23BD
  5
23BD
331
1EA2
  5
1EA2
331
1E9E
  5
1E9E
331
21F0
  5
21F0
331
2593
  5
2593
331
23B9
  5
23B9
331
25CE
  5
25CE
331
260D
  5
260D
331
23F4
  5
23F4
331
222F
  5
222F
331
1E9A
  5
1E9A
331
23B5
  5
23B5
331
258F
  5
258F
331
2644
  5
2644
331
25CA
  5
25CA
331
2609
  5
2609
331
23F0
  5
23F0
331
2266
  5
2266
331
21EC
  5
21EC
331
222B
  5
222B
331
23B1
  5
23B1
331
258B
  5
258B
331
2640
  5
2640
331
25C6
  5
25C6
331
2605
  5
2605
331
23EC
  5
23EC
331
2262
  5
2262
331
263C
  5
263C
331
25C2
  5
25C2
331
2601
  5
2601
331
23E8
  5
23E8
331
2638
  5
2638
331
1ED5
  5
1ED5
331
2227
  5
2227
331
1ED1
  5
1ED1
331
1E96
  5
1E96
331
2587
  5
2587
331
23AD
  5
23AD
331
2223
  5
2223
331
1ECD
  5
1ECD
331
1E92
  5
1E92
331
2583
  5
2583
331
25FD
  5
25FD
331
23A9
  5
23A9
331
221F
  5
221F
331
225E
  5
225E
331
1EC9
  5
1EC9
331
2060
  5
2060
331
257F
  5
257F
331
25F9
  5
25F9
331
25BE
  5
25BE
331
23A5
  5
23A5
331
23E4
  5
23E4
331
221B
  5
221B
331
225A
  5
225A
331
2634
  5
2634
331
257B
  5
257B
331
25F5
  5
25F5
331
25BA
  5
25BA
331
23A1
  5
23A1
331
23E0
  5
23E0
331
2630
  5
2630
331
25F1
  5
25F1
331
10D5
  5
10D5
331
1E8E
  5
1E8E
331
1EC5
  5
1EC5
331
205C
  5
205C
331
1E8A
  5
1E8A
331
2217
  5
2217
331
2256
  5
2256
331
1EC1
  5
1EC1
331
2058
  5
2058
331
1E86
  5
1E86
331
2577
  5
2577
331
25B6
  5
25B6
331
23DC
  5
23DC
331
2213
  5
2213
331
2252
  5
2252
331
1EBD
  5
1EBD
331
2054
  5
2054
331
262C
  5
262C
331
25ED
  5
25ED
331
25B2
  5
25B2
331
23D8
  5
23D8
331
220F
  5
220F
331
224E
  5
224E
331
1EB9
  5
1EB9
331
2050
  5
2050
331
2628
  5
2628
331
25AE
  5
25AE
331
25E9
  5
25E9
331
23D4
  5
23D4
331
220B
  5
220B
331
224A
  5
224A
331
25AA
  5
25AA
331
25E5
  5
25E5
331
2624
  5
2624
331
23D0
  5
23D0
331
25E1
  5
25E1
331
2620
  5
2620
331
1EB5
  5
1EB5
331
204C
  5
204C
331
2207
  5
2207
331
2246
  5
2246
331
1EB1
  5
1EB1
331
2048
  5
2048
331
25A6
  5
25A6
331
23CC
  5
23CC
331
2203
  5
2203
331
2242
  5
2242
331
1EAD
  5
1EAD
331
2044
  5
2044
331
2563
  5
2563
331
25DD
  5
25DD
331
261C
  5
261C
331
25A2
  5
25A2
331
23C8
  5
23C8
331
21FF
  5
21FF
331
223E
  5
223E
331
1EA9
  5
1EA9
331
2040
  5
2040
331
259E
  5
259E
331
25D9
  5
25D9
331
2618
  5
2618
331
23C4
  5
23C4
331
21FB
  5
21FB
331
223A
  5
223A
331
259A
  5
259A
331
25D5
  5
25D5
331
2614
  5
2614
331
23C0
  5
23C0
331
25D1
  5
25D1
331
2610
  5
2610
331
18EE
  5
18EE
331
1EA5
  5
1EA5
331
21F7
  5
21F7
331
2236
  5
2236
331
1EA1
  5
1EA1
331
2596
  5
2596
331
23BC
  5
23BC
331
23F7
  5
23F7
331
21F3
  5
21F3
331
2232
  5
2232
331
1E9D
  5
1E9D
331
13B2
  5
13B2
331
2592
  5
2592
331
23B8
  5
23B8
331
25CD
  5
25CD
331
260C
  5
260C
331
23F3
  5
23F3
331
21EF
  5
21EF
331
222E
  5
222E
331
1E99
  5
1E99
331
23B4
  5
23B4
331
258E
  5
258E
331
25C9
  5
25C9
331
2608
  5
2608
331
23EF
  5
23EF
331
2265
  5
2265
331
21EB
  5
21EB
331
222A
  5
222A
331
2643
  5
2643
331
1ED8
  5
1ED8
331
23B0
  5
23B0
331
258A
  5
258A
331
25C5
  5
25C5
331
2604
  5
2604
331
23EB
  5
23EB
331
2261
  5
2261
331
263F
  5
263F
331
25C1
  5
25C1
331
2600
  5
2600
331
263B
  5
263B
331
2226
  5
2226
331
1ED4
  5
1ED4
331
1153
  5
1153
331
1E95
  5
1E95
331
2586
  5
2586
331
23AC
  5
23AC
331
2222
  5
2222
331
1ED0
  5
1ED0
331
1E91
  5
1E91
331
2582
  5
2582
331
25FC
  5
25FC
331
23A8
  5
23A8
331
23E7
  5
23E7
331
221E
  5
221E
331
225D
  5
225D
331
1ECC
  5
1ECC
331
257E
  5
257E
331
25BD
  5
25BD
331
23A4
  5
23A4
331
23E3
  5
23E3
331
221A
  5
221A
331
2259
  5
2259
331
25F8
  5
25F8
331
2637
  5
2637
331
1EC8
  5
1EC8
331
257A
  5
257A
331
25B9
  5
25B9
331
23A0
  5
23A0
331
25F4
  5
25F4
331
2633
  5
2633
331
25F0
  5
25F0
331
205F
  5
205F
331
1E8D
  5
1E8D
331
205B
  5
205B
331
1E89
  5
1E89
331
23DF
  5
23DF
331
2216
  5
2216
331
2255
  5
2255
331
1EC4
  5
1EC4
331
2057
  5
2057
331
1E85
  5
1E85
331
25B5
  5
25B5
331
23DB
  5
23DB
331
2212
  5
2212
331
2251
  5
2251
331
1EC0
  5
1EC0
331
262F
  5
262F
331
2576
  5
2576
331
2053
  5
2053
331
25B1
  5
25B1
331
23D7
  5
23D7
331
220E
  5
220E
331
224D
  5
224D
331
262B
  5
262B
331
1EBC
  5
1EBC
331
25EC
  5
25EC
331
23D3
  5
23D3
331
220A
  5
220A
331
2249
  5
2249
331
1EB8
  5
1EB8
331
25AD
  5
25AD
331
25E8
  5
25E8
331
2627
  5
2627
331
25A9
  5
25A9
331
25E4
  5
25E4
331
2623
  5
2623
331
25E0
  5
25E0
331
204F
  5
204F
331
204B
  5
204B
331
23CF
  5
23CF
331
2206
  5
2206
331
2245
  5
2245
331
1EB4
  5
1EB4
331
2047
  5
2047
331
23CB
  5
23CB
331
2202
  5
2202
331
2241
  5
2241
331
1EB0
  5
1EB0
331
25A5
  5
25A5
331
261F
  5
261F
331
2043
  5
2043
331
23C7
  5
23C7
331
21FE
  5
21FE
331
223D
  5
223D
331
1EAC
  5
1EAC
331
2562
  5
2562
331
25DC
  5
25DC
331
261B
  5
261B
331
25A1
  5
25A1
331
23C3
  5
23C3
331
21FA
  5
21FA
331
2239
  5
2239
331
1EA8
  5
1EA8
331
259D
  5
259D
331
25D8
  5
25D8
331
2617
  5
2617
331
2599
  5
2599
331
25D4
  5
25D4
331
2613
  5
2613
331
25D0
  5
25D0
331
18ED
  5
18ED
331
203F
  5
203F
331
1EA4
  5
1EA4
331
23BF
  5
23BF
331
21F6
  5
21F6
331
2235
  5
2235
331
1EA0
  5
1EA0
331
23BB
  5
23BB
331
21F2
  5
21F2
331
2231
  5
2231
331
23F6
  5
23F6
331
2595
  5
2595
331
260F
  5
260F
331
1E9C
  5
1E9C
331
23B7
  5
23B7
331
21EE
  5
21EE
331
222D
  5
222D
331
23F2
  5
23F2
331
2591
  5
2591
331
2646
  5
2646
331
25CC
  5
25CC
331
260B
  5
260B
331
1E98
  5
1E98
331
23B3
  5
23B3
331
2264
  5
2264
331
21EA
  5
21EA
331
2229
  5
2229
331
23EE
  5
23EE
331
258D
  5
258D
331
2642
  5
2642
331
25C8
  5
25C8
331
2607
  5
2607
331
2260
  5
2260
331
23EA
  5
23EA
331
2589
  5
2589
331
263E
  5
263E
331
25C4
  5
25C4
331
2603
  5
2603
331
263A
  5
263A
331
25C0
  5
25C0
331
1ED7
  5
1ED7
331
23AF
  5
23AF
331
2225
  5
2225
331
1ED3
  5
1ED3
331
1E94
  5
1E94
331
23AB
  5
23AB
331
2221
  5
2221
331
1ECF
  5
1ECF
331
2585
  5
2585
331
25FF
  5
25FF
331
1E90
  5
1E90
331
23A7
  5
23A7
331
23E6
  5
23E6
331
221D
  5
221D
331
225C
  5
225C
331
1ECB
  5
1ECB
331
2581
  5
2581
331
25FB
  5
25FB
331
23A3
  5
23A3
331
23E2
  5
23E2
331
2219
  5
2219
331
2258
  5
2258
331
2636
  5
2636
331
257D
  5
257D
331
25F7
  5
25F7
331
25BC
  5
25BC
331
2632
  5
2632
331
2579
  5
2579
331
25F3
  5
25F3
331
25B8
  5
25B8
331
11C5
  5
11C5
331
205E
  5
205E
331
1E8C
  5
1E8C
331
1EC7
  5
1EC7
331
205A
  5
205A
331
1E88
  5
1E88
331
239F
  5
239F
331
23DE
  5
23DE
331
2215
  5
2215
331
2254
  5
2254
331
1EC3
  5
1EC3
331
2056
  5
2056
331
1E84
  5
1E84
331
23DA
  5
23DA
331
2211
  5
2211
331
2250
  5
2250
331
1EBF
  5
1EBF
331
262E
  5
262E
331
25EF
  5
25EF
331
25B4
  5
25B4
331
2052
  5
2052
331
23D6
  5
23D6
331
220D
  5
220D
331
224C
  5
224C
331
1EBB
  5
1EBB
331
262A
  5
262A
331
25EB
  5
25EB
331
25B0
  5
25B0
331
23D2
  5
23D2
331
2209
  5
2209
331
2248
  5
2248
331
25AC
  5
25AC
331
25E7
  5
25E7
331
2626
  5
2626
331
25A8
  5
25A8
331
25E3
  5
25E3
331
2622
  5
2622
331
204E
  5
204E
331
1EB7
  5
1EB7
331
1AFC
  5
19FC
331
204A
  5
204A
331
23CE
  5
23CE
331
2205
  5
2205
331
2244
  5
2244
331
1EB3
  5
1EB3
331
2046
  5
2046
331
23CA
  5
23CA
331
2201
  5
2201
331
2240
  5
2240
331
1EAF
  5
1EAF
331
25A4
  5
25A4
331
25DF
  5
25DF
331
261E
  5
261E
331
2042
  5
2042
331
23C6
  5
23C6
331
21FD
  5
21FD
331
223C
  5
223C
331
1EAB
  5
1EAB
331
25DB
  5
25DB
331
261A
  5
261A
331
25A0
  5
25A0
331
23C2
  5
23C2
331
21F9
  5
21F9
331
2238
  5
2238
331
259C
  5
259C
331
25D7
  5
25D7
331
2616
  5
2616
331
23F9
  5
23F9
331
2598
  5
2598
331
25D3
  5
25D3
331
2612
  5
2612
331
1EA7
  5
1EA7
331
1EA3
  5
1EA3
331
23BE
  5
23BE
331
21F5
  5
21F5
331
2234
  5
2234
331
1E9F
  5
1E9F
331
23BA
  5
23BA
331
21F1
  5
21F1
331
2230
  5
2230
331
23F5
  5
23F5
331
2594
  5
2594
331
25CF
  5
25CF
331
260E
  5
260E
331
1E9B
  5
1E9B
331
23B6
  5
23B6
331
21ED
  5
21ED
331
222C
  5
222C
331
23F1
  5
23F1
331
2590
  5
2590
331
2645
  5
2645
331
25CB
  5
25CB
331
260A
  5
260A
331
23B2
  5
23B2
331
2263
  5
2263
331
21E9
  5
21E9
331
2228
  5
2228
331
23ED
  5
23ED
331
258C
  5
258C
331
2641
  5
2641
331
25C7
  5
25C7
331
2606
  5
2606
331
23E9
  5
23E9
331
2588
  5
2588
331
263D
  5
263D
331
25C3
  5
25C3
331
2602
  5
2602
331
2639
  5
2639
  0
XRECORD
  5
1058
102
{ACAD_REACTORS
330
1057
102
}
330
1057
100
AcDbXrecord
280
     1
340
14
  0
SORTENTSTABLE
  5
2999
102
{ACAD_REACTORS
330
2998
102
}
330
2998
100
AcDbSortentsTable
330
298E
  0
XRECORD
  5
29E2
102
{ACAD_REACTORS
330
29E1
102
}
330
29E1
100
AcDbXrecord
280
     1
 40
102645.0
  1
\pxqr;{\fArial TUR|b0|i0|c0|p34;\T1.05;AN ARCONIC COMPANY}
  0
LAYOUT
  5
1030
102
{ACAD_XDICTIONARY
360
29E7
102
}
102
{ACAD_REACTORS
330
102D
102
}
330
102D
100
AcDbPlotSettings
  1

  2
HP LaserJet 4MV
  4

  6

 40
0.0
 41
0.0
 42
0.0
 43
0.0
 44
0.0
 45
0.0
 46
0.0
 47
0.0
 48
0.0
 49
0.0
140
0.0
141
0.0
142
1.0
143
1.0
 70
   688
 72
     0
 73
     0
 74
     5
  7

 75
    16
147
1.0
148
0.0
149
0.0
100
AcDbLayout
  1
Layout1
 70
     1
 71
     1
 10
0.0
 20
0.0
 11
12.0
 21
9.0
 12
0.0
 22
0.0
 32
0.0
 14
1.000000000000000E+20
 24
1.000000000000000E+20
 34
1.000000000000000E+20
 15
-1.000000000000000E+20
 25
-1.000000000000000E+20
 35
-1.000000000000000E+20
146
0.0
 13
0.0
 23
0.0
 33
0.0
 16
1.0
 26
0.0
 36
0.0
 17
0.0
 27
1.0
 37
0.0
 76
     0
330
14
  0
LAYOUT
  5
102F
102
{ACAD_XDICTIONARY
360
29E5
102
}
102
{ACAD_REACTORS
330
102D
102
}
330
102D
100
AcDbPlotSettings
  1

  2
HP LaserJet 4MV
  4

  6

 40
0.0
 41
0.0
 42
0.0
 43
0.0
 44
0.0
 45
0.0
 46
0.0
 47
0.0
 48
0.0
 49
0.0
140
0.0
141
0.0
142
1.0
143
1.0
 70
  1712
 72
     0
 73
     0
 74
     0
  7

 75
     0
147
1.0
148
0.0
149
0.0
100
AcDbLayout
  1
Model
 70
     1
 71
     0
 10
0.0
 20
0.0
 11
12.0
 21
9.0
 12
0.0
 22
0.0
 32
0.0
 14
0.0
 24
0.0
 34
0.0
 15
0.0
 25
0.0
 35
0.0
146
0.0
 13
0.0
 23
0.0
 33
0.0
 16
1.0
 26
0.0
 36
0.0
 17
0.0
 27
1.0
 37
0.0
 76
     0
330
17
331
1033
  0
MATERIAL
  5
1067
102
{ACAD_XDICTIONARY
360
1068
102
}
102
{ACAD_REACTORS
330
105E
102
}
330
105E
100
AcDbMaterial
  1
ByBlock
 72
     0
 43
0.0208333333333333
 43
0.0
 43
0.0
 43
0.0
 43
0.0
 43
0.0208333333333333
 43
0.0
 43
0.0
 43
0.0
 43
0.0
 43
1.0
 43
0.0
 43
0.0
 43
0.0
 43
0.0
 43
1.0
 77
     0
 47
0.0208333333333333
 47
0.0
 47
0.0
 47
0.0
 47
0.0
 47
0.0208333333333333
 47
0.0
 47
0.0
 47
0.0
 47
0.0
 47
1.0
 47
0.0
 47
0.0
 47
0.0
 47
0.0
 47
1.0
171
     0
 49
0.0208333333333333
 49
0.0
 49
0.0
 49
0.0
 49
0.0
 49
0.0208333333333333
 49
0.0
 49
0.0
 49
0.0
 49
0.0
 49
1.0
 49
0.0
 49
0.0
 49
0.0
 49
0.0
 49
1.0
175
     0
142
0.0208333333333333
142
0.0
142
0.0
142
0.0
142
0.0
142
0.0208333333333333
142
0.0
142
0.0
142
0.0
142
0.0
142
1.0
142
0.0
142
0.0
142
0.0
142
0.0
142
1.0
179
     0
144
0.0208333333333333
144
0.0
144
0.0
144
0.0
144
0.0
144
0.0208333333333333
144
0.0
144
0.0
144
0.0
144
0.0
144
1.0
144
0.0
144
0.0
144
0.0
144
0.0
144
1.0
147
0.0208333333333333
147
0.0
147
0.0
147
0.0
147
0.0
147
0.0208333333333333
147
0.0
147
0.0
147
0.0
147
0.0
147
1.0
147
0.0
147
0.0
147
0.0
147
0.0
147
1.0
  0
MATERIAL
  5
105F
102
{ACAD_XDICTIONARY
360
1060
102
}
102
{ACAD_REACTORS
330
105E
102
}
330
105E
100
AcDbMaterial
  1
ByLayer
 72
     0
 43
0.0208333333333333
 43
0.0
 43
0.0
 43
0.0
 43
0.0
 43
0.0208333333333333
 43
0.0
 43
0.0
 43
0.0
 43
0.0
 43
1.0
 43
0.0
 43
0.0
 43
0.0
 43
0.0
 43
1.0
 77
     0
 47
0.0208333333333333
 47
0.0
 47
0.0
 47
0.0
 47
0.0
 47
0.0208333333333333
 47
0.0
 47
0.0
 47
0.0
 47
0.0
 47
1.0
 47
0.0
 47
0.0
 47
0.0
 47
0.0
 47
1.0
171
     0
 49
0.0208333333333333
 49
0.0
 49
0.0
 49
0.0
 49
0.0
 49
0.0208333333333333
 49
0.0
 49
0.0
 49
0.0
 49
0.0
 49
1.0
 49
0.0
 49
0.0
 49
0.0
 49
0.0
 49
1.0
175
     0
142
0.0208333333333333
142
0.0
142
0.0
142
0.0
142
0.0
142
0.0208333333333333
142
0.0
142
0.0
142
0.0
142
0.0
142
1.0
142
0.0
142
0.0
142
0.0
142
0.0
142
1.0
179
     0
144
0.0208333333333333
144
0.0
144
0.0
144
0.0
144
0.0
144
0.0208333333333333
144
0.0
144
0.0
144
0.0
144
0.0
144
1.0
144
0.0
144
0.0
144
0.0
144
0.0
144
1.0
147
0.0208333333333333
147
0.0
147
0.0
147
0.0
147
0.0
147
0.0208333333333333
147
0.0
147
0.0
147
0.0
147
0.0
147
1.0
147
0.0
147
0.0
147
0.0
147
0.0
147
1.0
  0
MATERIAL
  5
106F
102
{ACAD_XDICTIONARY
360
1070
102
}
102
{ACAD_REACTORS
330
105E
102
}
330
105E
100
AcDbMaterial
  1
Global
 72
     0
 43
0.0208333333333333
 43
0.0
 43
0.0
 43
0.0
 43
0.0
 43
0.0208333333333333
 43
0.0
 43
0.0
 43
0.0
 43
0.0
 43
1.0
 43
0.0
 43
0.0
 43
0.0
 43
0.0
 43
1.0
 77
     0
 47
0.0208333333333333
 47
0.0
 47
0.0
 47
0.0
 47
0.0
 47
0.0208333333333333
 47
0.0
 47
0.0
 47
0.0
 47
0.0
 47
1.0
 47
0.0
 47
0.0
 47
0.0
 47
0.0
 47
1.0
171
     0
 49
0.0208333333333333
 49
0.0
 49
0.0
 49
0.0
 49
0.0
 49
0.0208333333333333
 49
0.0
 49
0.0
 49
0.0
 49
0.0
 49
1.0
 49
0.0
 49
0.0
 49
0.0
 49
0.0
 49
1.0
175
     0
142
0.0208333333333333
142
0.0
142
0.0
142
0.0
142
0.0
142
0.0208333333333333
142
0.0
142
0.0
142
0.0
142
0.0
142
1.0
142
0.0
142
0.0
142
0.0
142
0.0
142
1.0
179
     0
144
0.0208333333333333
144
0.0
144
0.0
144
0.0
144
0.0
144
0.0208333333333333
144
0.0
144
0.0
144
0.0
144
0.0
144
1.0
144
0.0
144
0.0
144
0.0
144
0.0
144
1.0
147
0.0208333333333333
147
0.0
147
0.0
147
0.0
147
0.0
147
0.0208333333333333
147
0.0
147
0.0
147
0.0
147
0.0
147
1.0
147
0.0
147
0.0
147
0.0
147
0.0
147
1.0
  0
MLEADERSTYLE
  5
10A6
102
{ACAD_REACTORS
330
10A5
102
}
330
10A5
100
AcDbMLeaderStyle
170
     2
171
     1
172
     0
 90
        2
 40
0.0
 41
0.0
173
     1
 91
-1056964608
340
11
 92
       -2
290
     1
 42
0.09
291
     1
 43
0.36
  3
Standard
 44
0.18
300

342
F
174
     1
178
     6
175
     1
176
     0
 93
-1056964608
 45
0.18
292
     0
297
     0
 46
0.18
 94
-1056964608
 47
1.0
 49
1.0
140
1.0
293
     1
141
0.0
294
     1
177
     0
142
1.0
295
     0
296
     0
143
0.125
1001
ACAD_MLEADERVER
1070
     2
  0
MLINESTYLE
  5
1B
102
{ACAD_REACTORS
330
1A
102
}
330
1A
100
AcDbMlineStyle
  2
STANDARD
 70
     0
  3

 62
   256
 51
90.0
 52
90.0
 71
     2
 49
0.5
 62
   256
  6
BYLAYER
 49
-0.5
 62
   256
  6
BYLAYER
  0
ACDBPLACEHOLDER
  5
102C
102
{ACAD_REACTORS
330
102B
102
}
330
102B
  0
SCALE
  5
1094
102
{ACAD_REACTORS
330
1093
102
}
330
1093
100
AcDbScale
 70
     0
300
1:1
140
1.0
141
1.0
290
     1
  0
SCALE
  5
296C
102
{ACAD_REACTORS
330
1093
102
}
330
1093
100
AcDbScale
 70
     0
300
1/128" = 1'-0"
140
0.0078125
141
12.0
290
     0
  0
SCALE
  5
296D
102
{ACAD_REACTORS
330
1093
102
}
330
1093
100
AcDbScale
 70
     0
300
1/64" = 1'-0"
140
0.015625
141
12.0
290
     0
  0
SCALE
  5
296E
102
{ACAD_REACTORS
330
1093
102
}
330
1093
100
AcDbScale
 70
     0
300
1/32" = 1'-0"
140
0.03125
141
12.0
290
     0
  0
SCALE
  5
296F
102
{ACAD_REACTORS
330
1093
102
}
330
1093
100
AcDbScale
 70
     0
300
1/16" = 1'-0"
140
0.0625
141
12.0
290
     0
  0
SCALE
  5
2970
102
{ACAD_REACTORS
330
1093
102
}
330
1093
100
AcDbScale
 70
     0
300
3/32" = 1'-0"
140
0.09375
141
12.0
290
     0
  0
SCALE
  5
2971
102
{ACAD_REACTORS
330
1093
102
}
330
1093
100
AcDbScale
 70
     0
300
1/8" = 1'-0"
140
0.125
141
12.0
290
     0
  0
SCALE
  5
2972
102
{ACAD_REACTORS
330
1093
102
}
330
1093
100
AcDbScale
 70
     0
300
3/16" = 1'-0"
140
0.1875
141
12.0
290
     0
  0
SCALE
  5
2973
102
{ACAD_REACTORS
330
1093
102
}
330
1093
100
AcDbScale
 70
     0
300
1/4" = 1'-0"
140
0.25
141
12.0
290
     0
  0
SCALE
  5
2974
102
{ACAD_REACTORS
330
1093
102
}
330
1093
100
AcDbScale
 70
     0
300
3/8" = 1'-0"
140
0.375
141
12.0
290
     0
  0
SCALE
  5
2975
102
{ACAD_REACTORS
330
1093
102
}
330
1093
100
AcDbScale
 70
     0
300
1/2" = 1'-0"
140
0.5
141
12.0
290
     0
  0
SCALE
  5
2976
102
{ACAD_REACTORS
330
1093
102
}
330
1093
100
AcDbScale
 70
     0
300
3/4" = 1'-0"
140
0.75
141
12.0
290
     0
  0
SCALE
  5
2977
102
{ACAD_REACTORS
330
1093
102
}
330
1093
100
AcDbScale
 70
     0
300
1" = 1'-0"
140
1.0
141
12.0
290
     0
  0
SCALE
  5
2978
102
{ACAD_REACTORS
330
1093
102
}
330
1093
100
AcDbScale
 70
     0
300
1-1/2" = 1'-0"
140
1.5
141
12.0
290
     0
  0
SCALE
  5
2979
102
{ACAD_REACTORS
330
1093
102
}
330
1093
100
AcDbScale
 70
     0
300
3" = 1'-0"
140
3.0
141
12.0
290
     0
  0
SCALE
  5
297A
102
{ACAD_REACTORS
330
1093
102
}
330
1093
100
AcDbScale
 70
     0
300
6" = 1'-0"
140
6.0
141
12.0
290
     0
  0
SCALE
  5
297B
102
{ACAD_REACTORS
330
1093
102
}
330
1093
100
AcDbScale
 70
     0
300
1'-0" = 1'-0"
140
12.0
141
12.0
290
     0
  0
TABLESTYLE
  5
1092
102
{ACAD_XDICTIONARY
360
10E4
102
}
102
{ACAD_REACTORS
330
1091
102
}
330
1091
100
AcDbTableStyle
  3
Standard
 70
     0
 71
     0
 40
0.06
 41
0.06
280
     0
281
     0
  7
STANDARD
140
0.18
170
     2
 62
     0
 63
     7
283
     0
274
    -2
284
     1
 64
     0
275
    -2
285
     1
 65
     0
276
    -2
286
     1
 66
     0
277
    -2
287
     1
 67
     0
278
    -2
288
     1
 68
     0
279
    -2
289
     1
 69
     0
  7
STANDARD
140
0.25
170
     5
 62
     0
 63
     7
283
     0
274
    -2
284
     1
 64
     0
275
    -2
285
     1
 65
     0
276
    -2
286
     1
 66
     0
277
    -2
287
     1
 67
     0
278
    -2
288
     1
 68
     0
279
    -2
289
     1
 69
     0
  7
STANDARD
140
0.18
170
     5
 62
     0
 63
     7
283
     0
274
    -2
284
     1
 64
     0
275
    -2
285
     1
 65
     0
276
    -2
286
     1
 66
     0
277
    -2
287
     1
 67
     0
278
    -2
288
     1
 68
     0
279
    -2
289
     1
 69
     0
  0
VISUALSTYLE
  5
107D
102
{ACAD_XDICTIONARY
360
29F6
102
}
102
{ACAD_REACTORS
330
1077
102
}
330
1077
100
AcDbVisualStyle
  2
2dWireframe
 70
     4
 71
     0
 72
     2
 73
     0
 90
        0
 40
-0.6
 41
-30.0
 62
     5
 63
     7
 74
     1
 91
        4
 64
     7
 65
   257
 75
     1
175
     1
 42
1.0
 92
        0
 66
   257
 43
1.0
 76
     1
 77
     6
 78
     2
 67
     7
 79
     5
170
     0
171
     0
290
     0
174
     0
 93
        1
 44
0.0
173
     0
291
     0
 45
0.0
1001
ACAD
1000
AcDbSavedByObjectVersion
1070
     0
  0
VISUALSTYLE
  5
298C
102
{ACAD_XDICTIONARY
360
2A1D
102
}
102
{ACAD_REACTORS
330
1077
102
}
330
1077
100
AcDbVisualStyle
  2
3D Hidden
 70
     6
 71
     1
 72
     2
 73
     2
 90
        0
 40
-0.6
 41
-30.0
 62
     5
 63
     7
 74
     2
 91
        2
 64
     7
 65
   257
 75
     2
175
     1
 42
40.0
 92
        0
 66
   257
 43
1.0
 76
     1
 77
     6
 78
     2
 67
     7
 79
     3
170
     0
171
     0
290
     0
174
     0
 93
        1
 44
0.0
173
     0
291
     0
 45
0.0
1001
ACAD
1000
AcDbSavedByObjectVersion
1070
     0
  0
VISUALSTYLE
  5
298D
102
{ACAD_XDICTIONARY
360
2A1F
102
}
102
{ACAD_REACTORS
330
1077
102
}
330
1077
100
AcDbVisualStyle
  2
3dWireframe
 70
     5
 71
     0
 72
     2
 73
     0
 90
        0
 40
-0.6
 41
-30.0
 62
     5
 63
     7
 74
     1
 91
        4
 64
     7
 65
   257
 75
     1
175
     1
 42
1.0
 92
        0
 66
   257
 43
1.0
 76
     1
 77
     6
 78
     2
 67
     7
 79
     5
170
     0
171
     0
290
     0
174
     0
 93
        1
 44
0.0
173
     0
291
     0
 45
0.0
1001
ACAD
1000
AcDbSavedByObjectVersion
1070
     0
  0
VISUALSTYLE
  5
107C
102
{ACAD_XDICTIONARY
360
29F4
102
}
102
{ACAD_REACTORS
330
1077
102
}
330
1077
100
AcDbVisualStyle
  2
Basic
 70
     7
 71
     1
 72
     0
 73
     1
 90
        0
 40
-0.6
 41
-30.0
 62
     5
 63
     7
 74
     0
 91
        4
 64
     7
 65
   257
 75
     1
175
     1
 42
1.0
 92
        8
 66
     7
 43
1.0
 76
     1
 77
     6
 78
     2
 67
     7
 79
     5
170
     0
171
     0
290
     0
174
     0
 93
        1
 44
0.0
173
     0
291
     1
 45
0.0
1001
ACAD
1000
AcDbSavedByObjectVersion
1070
     0
  0
VISUALSTYLE
  5
1083
102
{ACAD_XDICTIONARY
360
2A02
102
}
102
{ACAD_REACTORS
330
1077
102
}
330
1077
100
AcDbVisualStyle
  2
Brighten
 70
    12
 71
     2
 72
     2
 73
     0
 90
        0
 40
-0.6
 41
-30.0
 62
     5
 63
     7
 74
     1
 91
        4
 64
     7
 65
   257
 75
     1
175
     1
 42
1.0
 92
        8
 66
     7
 43
1.0
 76
     1
 77
     6
 78
     2
 67
     7
 79
     5
170
     0
171
     0
290
     0
174
     0
 93
        1
 44
50.0
173
     0
291
     1
 45
0.0
1001
ACAD
1000
AcDbSavedByObjectVersion
1070
     0
  0
VISUALSTYLE
  5
1087
102
{ACAD_XDICTIONARY
360
2A0A
102
}
102
{ACAD_REACTORS
330
1077
102
}
330
1077
100
AcDbVisualStyle
  2
ColorChange
 70
    16
 71
     2
 72
     2
 73
     3
 90
        0
 40
-0.6
 41
-30.0
 62
     5
 63
     8
 74
     1
 91
        4
 64
     7
 65
   257
 75
     1
175
     1
 42
1.0
 92
        8
 66
     8
 43
1.0
 76
     1
 77
     6
 78
     2
 67
     7
 79
     5
170
     0
171
     0
290
     0
174
     0
 93
        1
 44
0.0
173
     0
291
     1
 45
0.0
1001
ACAD
1000
AcDbSavedByObjectVersion
1070
     0
  0
VISUALSTYLE
  5
1080
102
{ACAD_XDICTIONARY
360
29FC
102
}
102
{ACAD_REACTORS
330
1077
102
}
330
1077
100
AcDbVisualStyle
  2
Conceptual
 70
     9
 71
     3
 72
     2
 73
     0
 90
        0
 40
-0.6
 41
-30.0
 62
     5
 63
     7
 74
     2
 91
        2
 64
     7
 65
   257
 75
     1
175
     1
 42
179.0
 92
        8
 66
     7
 43
1.0
 76
     1
 77
     6
 78
     2
 67
     7
 79
     3
170
     0
171
     0
290
     0
174
     0
 93
        1
 44
0.0
173
     0
291
     0
 45
0.0
1001
ACAD
1000
AcDbSavedByObjectVersion
1070
     0
  0
VISUALSTYLE
  5
1082
102
{ACAD_XDICTIONARY
360
2A00
102
}
102
{ACAD_REACTORS
330
1077
102
}
330
1077
100
AcDbVisualStyle
  2
Dim
 70
    11
 71
     2
 72
     2
 73
     0
 90
        0
 40
-0.6
 41
-30.0
 62
     5
 63
     7
 74
     1
 91
        4
 64
     7
 65
   257
 75
     1
175
     1
 42
1.0
 92
        8
 66
     7
 43
1.0
 76
     1
 77
     6
 78
     2
 67
     7
 79
     5
170
     0
171
     0
290
     0
174
     0
 93
        1
 44
-50.0
173
     0
291
     1
 45
0.0
1001
ACAD
1000
AcDbSavedByObjectVersion
1070
     0
  0
VISUALSTYLE
  5
108F
102
{ACAD_XDICTIONARY
360
2A1A
102
}
102
{ACAD_REACTORS
330
1077
102
}
330
1077
100
AcDbVisualStyle
  2
EdgeColorOff
 70
    22
 71
     2
 72
     2
 73
     0
 90
        0
 40
-0.6
 41
-30.0
 62
     5
 63
     7
 74
     1
 91
        4
 64
     7
 65
   257
 75
     1
175
     1
 42
1.0
 92
        8
 66
     7
 43
1.0
 76
     1
 77
     6
 78
     2
 67
     7
 79
     5
170
     0
171
     0
290
     0
174
     0
 93
        1
 44
0.0
173
     0
291
     1
 45
0.0
1001
ACAD
1000
AcDbSavedByObjectVersion
1070
     0
  0
VISUALSTYLE
  5
1086
102
{ACAD_XDICTIONARY
360
2A08
102
}
102
{ACAD_REACTORS
330
1077
102
}
330
1077
100
AcDbVisualStyle
  2
Facepattern
 70
    15
 71
     2
 72
     2
 73
     0
 90
        0
 40
-0.6
 41
-30.0
 62
     5
 63
     7
 74
     1
 91
        4
 64
     7
 65
   257
 75
     1
175
     1
 42
1.0
 92
        8
 66
     7
 43
1.0
 76
     1
 77
     6
 78
     2
 67
     7
 79
     5
170
     0
171
     0
290
     0
174
     0
 93
        1
 44
0.0
173
     0
291
     1
 45
0.0
1001
ACAD
1000
AcDbSavedByObjectVersion
1070
     0
  0
VISUALSTYLE
  5
1078
102
{ACAD_XDICTIONARY
360
29EC
102
}
102
{ACAD_REACTORS
330
1077
102
}
330
1077
100
AcDbVisualStyle
  2
Flat
 70
     0
 71
     2
 72
     1
 73
     1
 90
        2
 40
-0.6
 41
30.0
 62
     5
 63
     7
 74
     0
 91
        0
 64
     7
 65
   257
 75
     1
175
     1
 42
1.0
 92
        8
 66
     7
 43
1.0
 76
     1
 77
     6
 78
     2
 67
     7
 79
     5
170
     0
171
     0
290
     0
174
     0
 93
       13
 44
0.0
173
     0
291
     1
 45
0.0
1001
ACAD
1000
AcDbSavedByObjectVersion
1070
     0
  0
VISUALSTYLE
  5
1079
102
{ACAD_XDICTIONARY
360
29EE
102
}
102
{ACAD_REACTORS
330
1077
102
}
330
1077
100
AcDbVisualStyle
  2
FlatWithEdges
 70
     1
 71
     2
 72
     1
 73
     1
 90
        2
 40
-0.6
 41
30.0
 62
     5
 63
     7
 74
     1
 91
        0
 64
     7
 65
   257
 75
     1
175
     1
 42
1.0
 92
        0
 66
   257
 43
1.0
 76
     1
 77
     6
 78
     2
 67
     7
 79
     5
170
     0
171
     0
290
     0
174
     0
 93
       13
 44
0.0
173
     0
291
     1
 45
0.0
1001
ACAD
1000
AcDbSavedByObjectVersion
1070
     0
  0
VISUALSTYLE
  5
107A
102
{ACAD_XDICTIONARY
360
29F0
102
}
102
{ACAD_REACTORS
330
1077
102
}
330
1077
100
AcDbVisualStyle
  2
Gouraud
 70
     2
 71
     2
 72
     2
 73
     1
 90
        2
 40
-0.6
 41
30.0
 62
     5
 63
     7
 74
     0
 91
        0
 64
     7
 65
   257
 75
     1
175
     1
 42
1.0
 92
        0
 66
     7
 43
1.0
 76
     1
 77
     6
 78
     2
 67
     7
 79
     5
170
     0
171
     0
290
     0
174
     0
 93
       13
 44
0.0
173
     0
291
     1
 45
0.0
1001
ACAD
1000
AcDbSavedByObjectVersion
1070
     0
  0
VISUALSTYLE
  5
107B
102
{ACAD_XDICTIONARY
360
29F2
102
}
102
{ACAD_REACTORS
330
1077
102
}
330
1077
100
AcDbVisualStyle
  2
GouraudWithEdges
 70
     3
 71
     2
 72
     2
 73
     1
 90
        2
 40
-0.6
 41
30.0
 62
     5
 63
     7
 74
     1
 91
        0
 64
     7
 65
   257
 75
     1
175
     1
 42
1.0
 92
        0
 66
   257
 43
1.0
 76
     1
 77
     6
 78
     2
 67
     7
 79
     5
170
     0
171
     0
290
     0
174
     0
 93
       13
 44
0.0
173
     0
291
     1
 45
0.0
1001
ACAD
1000
AcDbSavedByObjectVersion
1070
     0
  0
VISUALSTYLE
  5
107F
102
{ACAD_XDICTIONARY
360
29FA
102
}
102
{ACAD_REACTORS
330
1077
102
}
330
1077
100
AcDbVisualStyle
  2
Hidden
 70
     6
 71
     1
 72
     2
 73
     2
 90
        0
 40
-0.6
 41
-30.0
 62
     5
 63
     7
 74
     2
 91
        2
 64
     7
 65
   257
 75
     2
175
     1
 42
40.0
 92
        0
 66
   257
 43
1.0
 76
     1
 77
     6
 78
     2
 67
     7
 79
     3
170
     0
171
     0
290
     0
174
     0
 93
        1
 44
0.0
173
     0
291
     0
 45
0.0
1001
ACAD
1000
AcDbSavedByObjectVersion
1070
     0
  0
VISUALSTYLE
  5
108D
102
{ACAD_XDICTIONARY
360
2A16
102
}
102
{ACAD_REACTORS
330
1077
102
}
330
1077
100
AcDbVisualStyle
  2
JitterOff
 70
    20
 71
     2
 72
     2
 73
     0
 90
        0
 40
-0.6
 41
-30.0
 62
     5
 63
     7
 74
     1
 91
        4
 64
     7
 65
   257
 75
     1
175
     1
 42
1.0
 92
       10
 66
     7
 43
1.0
 76
     1
 77
     6
 78
     2
 67
     7
 79
     5
170
     0
171
     0
290
     0
174
     0
 93
        1
 44
0.0
173
     0
291
     1
 45
0.0
1001
ACAD
1000
AcDbSavedByObjectVersion
1070
     0
  0
VISUALSTYLE
  5
1085
102
{ACAD_XDICTIONARY
360
2A06
102
}
102
{ACAD_REACTORS
330
1077
102
}
330
1077
100
AcDbVisualStyle
  2
Linepattern
 70
    14
 71
     2
 72
     2
 73
     0
 90
        0
 40
-0.6
 41
-30.0
 62
     5
 63
     7
 74
     1
 91
        4
 64
     7
 65
   257
 75
     7
175
     7
 42
1.0
 92
        8
 66
     7
 43
1.0
 76
     1
 77
     6
 78
     2
 67
     7
 79
     5
170
     0
171
     0
290
     0
174
     0
 93
        1
 44
0.0
173
     0
291
     1
 45
0.0
1001
ACAD
1000
AcDbSavedByObjectVersion
1070
     0
  0
VISUALSTYLE
  5
108E
102
{ACAD_XDICTIONARY
360
2A18
102
}
102
{ACAD_REACTORS
330
1077
102
}
330
1077
100
AcDbVisualStyle
  2
OverhangOff
 70
    21
 71
     2
 72
     2
 73
     0
 90
        0
 40
-0.6
 41
-30.0
 62
     5
 63
     7
 74
     1
 91
        4
 64
     7
 65
   257
 75
     1
175
     1
 42
1.0
 92
        9
 66
     7
 43
1.0
 76
     1
 77
     6
 78
     2
 67
     7
 79
     5
170
     0
171
     0
290
     0
174
     0
 93
        1
 44
0.0
173
     0
291
     1
 45
0.0
1001
ACAD
1000
AcDbSavedByObjectVersion
1070
     0
  0
VISUALSTYLE
  5
1081
102
{ACAD_XDICTIONARY
360
29FE
102
}
102
{ACAD_REACTORS
330
1077
102
}
330
1077
100
AcDbVisualStyle
  2
Realistic
 70
     8
 71
     2
 72
     2
 73
     0
 90
        2
 40
-0.6
 41
30.0
 62
     5
 63
     7
 74
     0
 91
        0
 64
     7
 65
   257
 75
     1
175
     1
 42
1.0
 92
        8
 66
   257
 43
1.0
 76
     1
 77
     6
 78
     2
 67
     7
 79
     3
170
     0
171
     0
290
     0
174
     0
 93
       13
 44
0.0
173
     0
291
     0
 45
0.0
1001
ACAD
1000
AcDbSavedByObjectVersion
1070
     0
  0
VISUALSTYLE
  5
108C
102
{ACAD_XDICTIONARY
360
2A14
102
}
102
{ACAD_REACTORS
330
1077
102
}
330
1077
100
AcDbVisualStyle
  2
Shaded
 70
    27
 71
     2
 72
     2
 73
     1
 90
        2
 40
-0.6
 41
30.0
 62
     5
 63
     7
 74
     0
 91
        4
 64
     7
 65
   257
 75
     1
175
     1
 42
1.0
 92
        8
 66
   257
 43
1.0
 76
     1
 77
     6
 78
     2
 67
     8
 79
     3
170
     0
171
     0
290
     0
174
     0
 93
        5
 44
0.0
173
     0
291
     0
 45
0.0
1001
ACAD
1000
AcDbSavedByObjectVersion
1070
     0
  0
VISUALSTYLE
  5
108B
102
{ACAD_XDICTIONARY
360
2A12
102
}
102
{ACAD_REACTORS
330
1077
102
}
330
1077
100
AcDbVisualStyle
  2
Shaded with edges
 70
    26
 71
     2
 72
     2
 73
     1
 90
        2
 40
-0.6
 41
30.0
 62
     5
 63
     7
 74
     1
 91
       10
 64
     7
 65
   257
 75
     2
175
     1
 42
1.0
 92
        8
 66
   257
 43
1.0
 76
     1
 77
     6
 78
     2
 67
     7
 79
     3
170
     0
171
     0
290
     0
174
     0
 93
        5
 44
0.0
173
     0
291
     0
 45
0.0
1001
ACAD
1000
AcDbSavedByObjectVersion
1070
     0
  0
VISUALSTYLE
  5
1088
102
{ACAD_XDICTIONARY
360
2A0C
102
}
102
{ACAD_REACTORS
330
1077
102
}
330
1077
100
AcDbVisualStyle
  2
Shades of Gray
 70
    23
 71
     2
 72
     2
 73
     3
 90
        0
 40
-0.6
 41
-30.0
 62
     5
 63
     7
 74
     2
 91
        2
 64
     7
 65
     7
 75
     1
175
     1
 42
40.0
 92
        8
 66
     7
 43
1.0
 76
     1
 77
     6
 78
     2
 67
     7
 79
     3
170
     0
171
     0
290
     0
174
     0
 93
        1
 44
0.0
173
     0
291
     0
 45
0.0
1001
ACAD
1000
AcDbSavedByObjectVersion
1070
     0
  0
VISUALSTYLE
  5
1089
102
{ACAD_XDICTIONARY
360
2A0E
102
}
102
{ACAD_REACTORS
330
1077
102
}
330
1077
100
AcDbVisualStyle
  2
Sketchy
 70
    24
 71
     1
 72
     2
 73
     2
 90
        0
 40
-0.6
 41
-30.0
 62
     5
 63
     7
 74
     2
 91
        2
 64
     7
 65
     7
 75
     1
175
     1
 42
40.0
 92
       11
 66
     7
 43
1.0
 76
     1
 77
     6
 78
     2
 67
     7
 79
     6
170
     0
171
     0
290
     0
174
     0
 93
        1
 44
0.0
173
     0
291
     0
 45
0.0
1001
ACAD
1000
AcDbSavedByObjectVersion
1070
     0
  0
VISUALSTYLE
  5
1084
102
{ACAD_XDICTIONARY
360
2A04
102
}
102
{ACAD_REACTORS
330
1077
102
}
330
1077
100
AcDbVisualStyle
  2
Thicken
 70
    13
 71
     2
 72
     2
 73
     0
 90
        0
 40
-0.6
 41
-30.0
 62
     5
 63
     7
 74
     1
 91
        4
 64
     7
 65
   257
 75
     1
175
     1
 42
1.0
 92
       12
 66
     7
 43
1.0
 76
     1
 77
     6
 78
     2
 67
     7
 79
     5
170
     0
171
     0
290
     0
174
     0
 93
        1
 44
0.0
173
     0
291
     1
 45
0.0
1001
ACAD
1000
AcDbSavedByObjectVersion
1070
     0
  0
VISUALSTYLE
  5
107E
102
{ACAD_XDICTIONARY
360
29F8
102
}
102
{ACAD_REACTORS
330
1077
102
}
330
1077
100
AcDbVisualStyle
  2
Wireframe
 70
     5
 71
     0
 72
     2
 73
     0
 90
        0
 40
-0.6
 41
-30.0
 62
     5
 63
     7
 74
     1
 91
        4
 64
     7
 65
   257
 75
     1
175
     1
 42
1.0
 92
        0
 66
   257
 43
1.0
 76
     1
 77
     6
 78
     2
 67
     7
 79
     3
170
     0
171
     0
290
     0
174
     0
 93
        1
 44
0.0
173
     0
291
     0
 45
0.0
1001
ACAD
1000
AcDbSavedByObjectVersion
1070
     0
  0
VISUALSTYLE
  5
108A
102
{ACAD_XDICTIONARY
360
2A10
102
}
102
{ACAD_REACTORS
330
1077
102
}
330
1077
100
AcDbVisualStyle
  2
X-Ray
 70
    25
 71
     2
 72
     2
 73
     1
 90
        1
 40
0.5
 41
-30.0
 62
     5
 63
     7
 74
     1
 91
        0
 64
     7
 65
   257
 75
     1
175
     1
 42
1.0
 92
        8
 66
     7
 43
1.0
 76
     1
 77
     6
 78
     2
 67
     7
 79
     3
170
     0
171
     0
290
     0
174
     0
 93
       13
 44
0.0
173
     0
291
     0
 45
0.0
1001
ACAD
1000
AcDbSavedByObjectVersion
1070
     0
  0
DICTIONARYVAR
  5
1125
102
{ACAD_REACTORS
330
24
102
}
330
24
100
DictionaryVariables
280
     0
  1
1:1
  0
DICTIONARYVAR
  5
1124
102
{ACAD_REACTORS
330
24
102
}
330
24
100
DictionaryVariables
280
     0
  1
STANDARD
  0
DICTIONARYVAR
  5
1123
102
{ACAD_REACTORS
330
24
102
}
330
24
100
DictionaryVariables
280
     0
  1
STANDARD
  0
DICTIONARYVAR
  5
25
102
{ACAD_REACTORS
330
24
102
}
330
24
100
DictionaryVariables
280
     0
  1
0
  0
DICTIONARYVAR
  5
1128
102
{ACAD_REACTORS
330
24
102
}
330
24
100
DictionaryVariables
280
     0
  1
0
  0
DICTIONARYVAR
  5
1127
102
{ACAD_REACTORS
330
24
102
}
330
24
100
DictionaryVariables
280
     0
  1
0
  0
DICTIONARYVAR
  5
1126
102
{ACAD_REACTORS
330
24
102
}
330
24
100
DictionaryVariables
280
     0
  1
127
  0
DICTIONARYVAR
  5
299E
102
{ACAD_REACTORS
330
24
102
}
330
24
100
DictionaryVariables
280
     0
  1
2
  0
DICTIONARY
  5
29E7
330
1030
100
AcDbDictionary
280
     1
281
     1
  3
ACAD_XREC_ROUNDTRIP
360
29E8
  0
DICTIONARY
  5
29E5
330
102F
100
AcDbDictionary
280
     1
281
     1
  3
ACAD_XREC_ROUNDTRIP
360
29E6
  0
DICTIONARY
  5
1068
330
1067
100
AcDbDictionary
280
     1
281
     1
  3
ACAD_XREC_ROUNDTRIP
360
29EA
  3
BUMPTILE
360
106A
  3
DIFFUSETILE
360
1069
  3
OPACITYTILE
360
106D
  3
REFLECTIONTILE
360
106C
  3
REFRACTIONTILE
360
106E
  3
SPECULARTILE
360
106B
  0
DICTIONARY
  5
1060
330
105F
100
AcDbDictionary
280
     1
281
     1
  3
ACAD_XREC_ROUNDTRIP
360
29E9
  3
BUMPTILE
360
1062
  3
DIFFUSETILE
360
1061
  3
OPACITYTILE
360
1065
  3
REFLECTIONTILE
360
1064
  3
REFRACTIONTILE
360
1066
  3
SPECULARTILE
360
1063
  0
DICTIONARY
  5
1070
330
106F
100
AcDbDictionary
280
     1
281
     1
  3
ACAD_XREC_ROUNDTRIP
360
29EB
  3
BUMPTILE
360
1072
  3
DIFFUSETILE
360
1071
  3
OPACITYTILE
360
1075
  3
REFLECTIONTILE
360
1074
  3
REFRACTIONTILE
360
1076
  3
SPECULARTILE
360
1073
  0
DICTIONARY
  5
10E4
330
1092
100
AcDbDictionary
280
     1
281
     1
  3
ACAD_ROUNDTRIP_2008_TABLESTYLE_CELLSTYLEMAP
360
29E0
  3
ACAD_XREC_ROUNDTRIP
360
2A1C
  0
DICTIONARY
  5
29F6
330
107D
100
AcDbDictionary
280
     1
281
     1
  3
ACAD_XREC_ROUNDTRIP
360
29F7
  0
DICTIONARY
  5
2A1D
330
298C
100
AcDbDictionary
280
     1
281
     1
  3
ACAD_XREC_ROUNDTRIP
360
2A1E
  0
DICTIONARY
  5
2A1F
330
298D
100
AcDbDictionary
280
     1
281
     1
  3
ACAD_XREC_ROUNDTRIP
360
2A20
  0
DICTIONARY
  5
29F4
330
107C
100
AcDbDictionary
280
     1
281
     1
  3
ACAD_XREC_ROUNDTRIP
360
29F5
  0
DICTIONARY
  5
2A02
330
1083
100
AcDbDictionary
280
     1
281
     1
  3
ACAD_XREC_ROUNDTRIP
360
2A03
  0
DICTIONARY
  5
2A0A
330
1087
100
AcDbDictionary
280
     1
281
     1
  3
ACAD_XREC_ROUNDTRIP
360
2A0B
  0
DICTIONARY
  5
29FC
330
1080
100
AcDbDictionary
280
     1
281
     1
  3
ACAD_XREC_ROUNDTRIP
360
29FD
  0
DICTIONARY
  5
2A00
330
1082
100
AcDbDictionary
280
     1
281
     1
  3
ACAD_XREC_ROUNDTRIP
360
2A01
  0
DICTIONARY
  5
2A1A
330
108F
100
AcDbDictionary
280
     1
281
     1
  3
ACAD_XREC_ROUNDTRIP
360
2A1B
  0
DICTIONARY
  5
2A08
330
1086
100
AcDbDictionary
280
     1
281
     1
  3
ACAD_XREC_ROUNDTRIP
360
2A09
  0
DICTIONARY
  5
29EC
330
1078
100
AcDbDictionary
280
     1
281
     1
  3
ACAD_XREC_ROUNDTRIP
360
29ED
  0
DICTIONARY
  5
29EE
330
1079
100
AcDbDictionary
280
     1
281
     1
  3
ACAD_XREC_ROUNDTRIP
360
29EF
  0
DICTIONARY
  5
29F0
330
107A
100
AcDbDictionary
280
     1
281
     1
  3
ACAD_XREC_ROUNDTRIP
360
29F1
  0
DICTIONARY
  5
29F2
330
107B
100
AcDbDictionary
280
     1
281
     1
  3
ACAD_XREC_ROUNDTRIP
360
29F3
  0
DICTIONARY
  5
29FA
330
107F
100
AcDbDictionary
280
     1
281
     1
  3
ACAD_XREC_ROUNDTRIP
360
29FB
  0
DICTIONARY
  5
2A16
330
108D
100
AcDbDictionary
280
     1
281
     1
  3
ACAD_XREC_ROUNDTRIP
360
2A17
  0
DICTIONARY
  5
2A06
330
1085
100
AcDbDictionary
280
     1
281
     1
  3
ACAD_XREC_ROUNDTRIP
360
2A07
  0
DICTIONARY
  5
2A18
330
108E
100
AcDbDictionary
280
     1
281
     1
  3
ACAD_XREC_ROUNDTRIP
360
2A19
  0
DICTIONARY
  5
29FE
330
1081
100
AcDbDictionary
280
     1
281
     1
  3
ACAD_XREC_ROUNDTRIP
360
29FF
  0
DICTIONARY
  5
2A14
330
108C
100
AcDbDictionary
280
     1
281
     1
  3
ACAD_XREC_ROUNDTRIP
360
2A15
  0
DICTIONARY
  5
2A12
330
108B
100
AcDbDictionary
280
     1
281
     1
  3
ACAD_XREC_ROUNDTRIP
360
2A13
  0
DICTIONARY
  5
2A0C
330
1088
100
AcDbDictionary
280
     1
281
     1
  3
ACAD_XREC_ROUNDTRIP
360
2A0D
  0
DICTIONARY
  5
2A0E
330
1089
100
AcDbDictionary
280
     1
281
     1
  3
ACAD_XREC_ROUNDTRIP
360
2A0F
  0
DICTIONARY
  5
2A04
330
1084
100
AcDbDictionary
280
     1
281
     1
  3
ACAD_XREC_ROUNDTRIP
360
2A05
  0
DICTIONARY
  5
29F8
330
107E
100
AcDbDictionary
280
     1
281
     1
  3
ACAD_XREC_ROUNDTRIP
360
29F9
  0
DICTIONARY
  5
2A10
330
108A
100
AcDbDictionary
280
     1
281
     1
  3
ACAD_XREC_ROUNDTRIP
360
2A11
  0
XRECORD
  5
29E8
102
{ACAD_REACTORS
330
29E7
102
}
330
29E7
100
AcDbXrecord
280
     1
102
SHADEPLOT
 70
     0
102
SHADEPLOTRESLEVEL
 70
     2
102
SHADEPLOTCUSTOMDPI
 70
   300
  0
XRECORD
  5
29E6
102
{ACAD_REACTORS
330
29E5
102
}
330
29E5
100
AcDbXrecord
280
     1
102
SHADEPLOT
 70
     0
102
SHADEPLOTRESLEVEL
 70
     2
102
SHADEPLOTCUSTOMDPI
 70
   300
  0
XRECORD
  5
29EA
102
{ACAD_REACTORS
330
1068
102
}
330
1068
100
AcDbXrecord
280
     1
102
MATERIAL
148
0.0
149
0.0
149
0.0
 93
        0
 94
      127
282
     0
 72
     0
 77
     0
171
     0
175
     0
179
     0
273
     0
  0
XRECORD
  5
106A
102
{ACAD_REACTORS
330
1068
102
}
330
1068
100
AcDbXrecord
280
     1
270
     1
271
     1
  0
XRECORD
  5
1069
102
{ACAD_REACTORS
330
1068
102
}
330
1068
100
AcDbXrecord
280
     1
270
     1
271
     1
  0
XRECORD
  5
106D
102
{ACAD_REACTORS
330
1068
102
}
330
1068
100
AcDbXrecord
280
     1
270
     1
271
     1
  0
XRECORD
  5
106C
102
{ACAD_REACTORS
330
1068
102
}
330
1068
100
AcDbXrecord
280
     1
270
     1
271
     1
  0
XRECORD
  5
106E
102
{ACAD_REACTORS
330
1068
102
}
330
1068
100
AcDbXrecord
280
     1
270
     1
271
     1
  0
XRECORD
  5
106B
102
{ACAD_REACTORS
330
1068
102
}
330
1068
100
AcDbXrecord
280
     1
270
     1
271
     1
  0
XRECORD
  5
29E9
102
{ACAD_REACTORS
330
1060
102
}
330
1060
100
AcDbXrecord
280
     1
102
MATERIAL
148
0.0
149
0.0
149
0.0
 93
        0
 94
      127
282
     0
 72
     0
 77
     0
171
     0
175
     0
179
     0
273
     0
  0
XRECORD
  5
1062
102
{ACAD_REACTORS
330
1060
102
}
330
1060
100
AcDbXrecord
280
     1
270
     1
271
     1
  0
XRECORD
  5
1061
102
{ACAD_REACTORS
330
1060
102
}
330
1060
100
AcDbXrecord
280
     1
270
     1
271
     1
  0
XRECORD
  5
1065
102
{ACAD_REACTORS
330
1060
102
}
330
1060
100
AcDbXrecord
280
     1
270
     1
271
     1
  0
XRECORD
  5
1064
102
{ACAD_REACTORS
330
1060
102
}
330
1060
100
AcDbXrecord
280
     1
270
     1
271
     1
  0
XRECORD
  5
1066
102
{ACAD_REACTORS
330
1060
102
}
330
1060
100
AcDbXrecord
280
     1
270
     1
271
     1
  0
XRECORD
  5
1063
102
{ACAD_REACTORS
330
1060
102
}
330
1060
100
AcDbXrecord
280
     1
270
     1
271
     1
  0
XRECORD
  5
29EB
102
{ACAD_REACTORS
330
1070
102
}
330
1070
100
AcDbXrecord
280
     1
102
MATERIAL
148
0.0
149
0.0
149
0.0
 93
        0
 94
      127
282
     0
 72
     0
 77
     0
171
     0
175
     0
179
     0
273
     0
  0
XRECORD
  5
1072
102
{ACAD_REACTORS
330
1070
102
}
330
1070
100
AcDbXrecord
280
     1
270
     1
271
     1
  0
XRECORD
  5
1071
102
{ACAD_REACTORS
330
1070
102
}
330
1070
100
AcDbXrecord
280
     1
270
     1
271
     1
  0
XRECORD
  5
1075
102
{ACAD_REACTORS
330
1070
102
}
330
1070
100
AcDbXrecord
280
     1
270
     1
271
     1
  0
XRECORD
  5
1074
102
{ACAD_REACTORS
330
1070
102
}
330
1070
100
AcDbXrecord
280
     1
270
     1
271
     1
  0
XRECORD
  5
1076
102
{ACAD_REACTORS
330
1070
102
}
330
1070
100
AcDbXrecord
280
     1
270
     1
271
     1
  0
XRECORD
  5
1073
102
{ACAD_REACTORS
330
1070
102
}
330
1070
100
AcDbXrecord
280
     1
270
     1
271
     1
  0
CELLSTYLEMAP
  5
29E0
102
{ACAD_REACTORS
330
10E4
102
}
330
10E4
100
AcDbCellStyleMap
 90
        3
300
CELLSTYLE
  1
TABLEFORMAT_BEGIN
 90
        5
170
     1
 91
        0
 92
    32768
 62
   257
 93
        1
300
CONTENTFORMAT
  1
CONTENTFORMAT_BEGIN
 90
        0
 91
        0
 92
      512
 93
        0
300

 40
0.0
140
1.0
 94
        5
 62
     0
340
F
144
0.25
309
CONTENTFORMAT_END
171
     0
 94
        0
309
TABLEFORMAT_END
  1
CELLSTYLE_BEGIN
 90
        1
 91
        1
300
_TITLE
309
CELLSTYLE_END
300
CELLSTYLE
  1
TABLEFORMAT_BEGIN
 90
        5
170
     1
 91
        0
 92
        0
 62
   257
 93
        1
300
CONTENTFORMAT
  1
CONTENTFORMAT_BEGIN
 90
        0
 91
        0
 92
      512
 93
        0
300

 40
0.0
140
1.0
 94
        5
 62
     0
340
F
144
0.18
309
CONTENTFORMAT_END
171
     0
 94
        0
309
TABLEFORMAT_END
  1
CELLSTYLE_BEGIN
 90
        2
 91
        1
300
_HEADER
309
CELLSTYLE_END
300
CELLSTYLE
  1
TABLEFORMAT_BEGIN
 90
        5
170
     1
 91
        0
 92
        0
 62
   257
 93
        1
300
CONTENTFORMAT
  1
CONTENTFORMAT_BEGIN
 90
        0
 91
        0
 92
      512
 93
        0
300

 40
0.0
140
1.0
 94
        2
 62
     0
340
F
144
0.18
309
CONTENTFORMAT_END
171
     0
 94
        0
309
TABLEFORMAT_END
  1
CELLSTYLE_BEGIN
 90
        3
 91
        2
300
_DATA
309
CELLSTYLE_END
  0
XRECORD
  5
2A1C
102
{ACAD_REACTORS
330
10E4
102
}
330
10E4
100
AcDbXrecord
280
     1
102
ACAD_ROUNDTRIP_PRE2007_TABLESTYLE
 90
      512
 91
        0
  1

 92
      512
 93
        0
  2

 94
      512
 95
        0
  3

  0
XRECORD
  5
29F7
102
{ACAD_REACTORS
330
29F6
102
}
330
29F6
100
AcDbXrecord
280
     1
102
RTVSPropertyOp0
 70
     1
102
RTVSPropertyOp1
 70
     1
102
RTVSPropertyOp2
 70
     1
102
RTVSPropertyOp3
 70
     1
102
RTVSPropertyOp4
 70
     1
102
RTVSPropertyOp5
 70
     1
102
RTVSPropertyOp6
 70
     1
102
RTVSPropertyOp7
 70
     1
102
RTVSPropertyOp8
 70
     1
102
RTVSPropertyOp9
 70
     1
102
RTVSPropertyOp10
 70
     1
102
RTVSPropertyOp11
 70
     1
102
RTVSPropertyOp12
 70
     1
102
RTVSPropertyOp13
 70
     1
102
RTVSPropertyOp14
 70
     1
102
RTVSPropertyOp15
 70
     1
102
RTVSPropertyOp16
 70
     1
102
RTVSPropertyOp17
 70
     1
102
RTVSPropertyOp18
 70
     1
102
RTVSPropertyOp19
 70
     1
102
RTVSPropertyOp20
 70
     1
102
RTVSPropertyOp21
 70
     1
102
RTVSPropertyOp22
 70
     1
102
RTVSPropertyOp23
 70
     1
102
RTVSPropertyOp24
 70
     1
102
RTVSPropertyOp25
 70
     1
102
RTVSPropertyOp26
 70
     1
102
RTVSPropertyOp27
 70
     1
102
RTVSPropertyOp28
 70
     1
102
RTVSPropertyOp29
 70
     1
102
RTVSPropertyOp30
 70
     1
102
RTVSPropertyOp31
 70
     1
102
RTVSPropertyOp32
 70
     1
  0
XRECORD
  5
2A1E
102
{ACAD_REACTORS
330
2A1D
102
}
330
2A1D
100
AcDbXrecord
280
     1
102
RTVSPropertyOp0
 70
     1
102
RTVSPropertyOp1
 70
     1
102
RTVSPropertyOp2
 70
     1
102
RTVSPropertyOp3
 70
     1
102
RTVSPropertyOp4
 70
     1
102
RTVSPropertyOp5
 70
     1
102
RTVSPropertyOp6
 70
     1
102
RTVSPropertyOp7
 70
     1
102
RTVSPropertyOp8
 70
     1
102
RTVSPropertyOp9
 70
     1
102
RTVSPropertyOp10
 70
     1
102
RTVSPropertyOp11
 70
     1
102
RTVSPropertyOp12
 70
     1
102
RTVSPropertyOp13
 70
     1
102
RTVSPropertyOp14
 70
     1
102
RTVSPropertyOp15
 70
     1
102
RTVSPropertyOp16
 70
     1
102
RTVSPropertyOp17
 70
     1
102
RTVSPropertyOp18
 70
     1
102
RTVSPropertyOp19
 70
     1
102
RTVSPropertyOp20
 70
     1
102
RTVSPropertyOp21
 70
     1
102
RTVSPropertyOp22
 70
     1
102
RTVSPropertyOp23
 70
     1
102
RTVSPropertyOp24
 70
     1
102
RTVSPropertyOp25
 70
     1
102
RTVSPropertyOp26
 70
     1
102
RTVSPropertyOp27
 70
     1
102
RTVSPropertyOp28
 70
     1
102
RTVSPropertyOp29
 70
     1
102
RTVSPropertyOp30
 70
     1
102
RTVSPropertyOp31
 70
     1
102
RTVSPropertyOp32
 70
     1
  0
XRECORD
  5
2A20
102
{ACAD_REACTORS
330
2A1F
102
}
330
2A1F
100
AcDbXrecord
280
     1
102
RTVSPropertyOp0
 70
     1
102
RTVSPropertyOp1
 70
     1
102
RTVSPropertyOp2
 70
     1
102
RTVSPropertyOp3
 70
     1
102
RTVSPropertyOp4
 70
     1
102
RTVSPropertyOp5
 70
     1
102
RTVSPropertyOp6
 70
     1
102
RTVSPropertyOp7
 70
     1
102
RTVSPropertyOp8
 70
     1
102
RTVSPropertyOp9
 70
     1
102
RTVSPropertyOp10
 70
     1
102
RTVSPropertyOp11
 70
     1
102
RTVSPropertyOp12
 70
     1
102
RTVSPropertyOp13
 70
     1
102
RTVSPropertyOp14
 70
     1
102
RTVSPropertyOp15
 70
     1
102
RTVSPropertyOp16
 70
     1
102
RTVSPropertyOp17
 70
     1
102
RTVSPropertyOp18
 70
     1
102
RTVSPropertyOp19
 70
     1
102
RTVSPropertyOp20
 70
     1
102
RTVSPropertyOp21
 70
     1
102
RTVSPropertyOp22
 70
     1
102
RTVSPropertyOp23
 70
     1
102
RTVSPropertyOp24
 70
     1
102
RTVSPropertyOp25
 70
     1
102
RTVSPropertyOp26
 70
     1
102
RTVSPropertyOp27
 70
     1
102
RTVSPropertyOp28
 70
     1
102
RTVSPropertyOp29
 70
     1
102
RTVSPropertyOp30
 70
     1
102
RTVSPropertyOp31
 70
     1
102
RTVSPropertyOp32
 70
     1
  0
XRECORD
  5
29F5
102
{ACAD_REACTORS
330
29F4
102
}
330
29F4
100
AcDbXrecord
280
     1
102
RTVSPropertyOp0
 70
     1
102
RTVSPropertyOp1
 70
     1
102
RTVSPropertyOp2
 70
     1
102
RTVSPropertyOp3
 70
     1
102
RTVSPropertyOp4
 70
     1
102
RTVSPropertyOp5
 70
     1
102
RTVSPropertyOp6
 70
     1
102
RTVSPropertyOp7
 70
     1
102
RTVSPropertyOp8
 70
     1
102
RTVSPropertyOp9
 70
     1
102
RTVSPropertyOp10
 70
     1
102
RTVSPropertyOp11
 70
     1
102
RTVSPropertyOp12
 70
     1
102
RTVSPropertyOp13
 70
     1
102
RTVSPropertyOp14
 70
     1
102
RTVSPropertyOp15
 70
     1
102
RTVSPropertyOp16
 70
     1
102
RTVSPropertyOp17
 70
     1
102
RTVSPropertyOp18
 70
     1
102
RTVSPropertyOp19
 70
     1
102
RTVSPropertyOp20
 70
     1
102
RTVSPropertyOp21
 70
     1
102
RTVSPropertyOp22
 70
     1
102
RTVSPropertyOp23
 70
     1
102
RTVSPropertyOp24
 70
     1
102
RTVSPropertyOp25
 70
     1
102
RTVSPropertyOp26
 70
     1
102
RTVSPropertyOp27
 70
     1
102
RTVSPropertyOp28
 70
     1
102
RTVSPropertyOp29
 70
     1
102
RTVSPropertyOp30
 70
     1
102
RTVSPropertyOp31
 70
     1
102
RTVSPropertyOp32
 70
     1
  0
XRECORD
  5
2A03
102
{ACAD_REACTORS
330
2A02
102
}
330
2A02
100
AcDbXrecord
280
     1
102
RTVSPropertyOp0
 70
     1
102
RTVSPropertyOp1
 70
     1
102
RTVSPropertyOp2
 70
     1
102
RTVSPropertyOp3
 70
     1
102
RTVSPropertyOp4
 70
     1
102
RTVSPropertyOp5
 70
     1
102
RTVSPropertyOp6
 70
     1
102
RTVSPropertyOp7
 70
     1
102
RTVSPropertyOp8
 70
     1
102
RTVSPropertyOp9
 70
     1
102
RTVSPropertyOp10
 70
     1
102
RTVSPropertyOp11
 70
     1
102
RTVSPropertyOp12
 70
     1
102
RTVSPropertyOp13
 70
     1
102
RTVSPropertyOp14
 70
     1
102
RTVSPropertyOp15
 70
     1
102
RTVSPropertyOp16
 70
     1
102
RTVSPropertyOp17
 70
     1
102
RTVSPropertyOp18
 70
     1
102
RTVSPropertyOp19
 70
     1
102
RTVSPropertyOp20
 70
     1
102
RTVSPropertyOp21
 70
     1
102
RTVSPropertyOp22
 70
     1
102
RTVSPropertyOp23
 70
     1
102
RTVSPropertyOp24
 70
     1
102
RTVSPropertyOp25
 70
     1
102
RTVSPropertyOp26
 70
     1
102
RTVSPropertyOp27
 70
     1
102
RTVSPropertyOp28
 70
     1
102
RTVSPropertyOp29
 70
     1
102
RTVSPropertyOp30
 70
     1
102
RTVSPropertyOp31
 70
     1
102
RTVSPropertyOp32
 70
     1
  0
XRECORD
  5
2A0B
102
{ACAD_REACTORS
330
2A0A
102
}
330
2A0A
100
AcDbXrecord
280
     1
102
RTVSPropertyOp0
 70
     1
102
RTVSPropertyOp1
 70
     1
102
RTVSPropertyOp2
 70
     1
102
RTVSPropertyOp3
 70
     1
102
RTVSPropertyOp4
 70
     1
102
RTVSPropertyOp5
 70
     1
102
RTVSPropertyOp6
 70
     1
102
RTVSPropertyOp7
 70
     1
102
RTVSPropertyOp8
 70
     1
102
RTVSPropertyOp9
 70
     1
102
RTVSPropertyOp10
 70
     1
102
RTVSPropertyOp11
 70
     1
102
RTVSPropertyOp12
 70
     1
102
RTVSPropertyOp13
 70
     1
102
RTVSPropertyOp14
 70
     1
102
RTVSPropertyOp15
 70
     1
102
RTVSPropertyOp16
 70
     1
102
RTVSPropertyOp17
 70
     1
102
RTVSPropertyOp18
 70
     1
102
RTVSPropertyOp19
 70
     1
102
RTVSPropertyOp20
 70
     1
102
RTVSPropertyOp21
 70
     1
102
RTVSPropertyOp22
 70
     1
102
RTVSPropertyOp23
 70
     1
102
RTVSPropertyOp24
 70
     1
102
RTVSPropertyOp25
 70
     1
102
RTVSPropertyOp26
 70
     1
102
RTVSPropertyOp27
 70
     1
102
RTVSPropertyOp28
 70
     1
102
RTVSPropertyOp29
 70
     1
102
RTVSPropertyOp30
 70
     1
102
RTVSPropertyOp31
 70
     1
102
RTVSPropertyOp32
 70
     1
  0
XRECORD
  5
29FD
102
{ACAD_REACTORS
330
29FC
102
}
330
29FC
100
AcDbXrecord
280
     1
102
RTVSPropertyOp0
 70
     1
102
RTVSPropertyOp1
 70
     1
102
RTVSPropertyOp2
 70
     1
102
RTVSPropertyOp3
 70
     1
102
RTVSPropertyOp4
 70
     1
102
RTVSPropertyOp5
 70
     1
102
RTVSPropertyOp6
 70
     1
102
RTVSPropertyOp7
 70
     1
102
RTVSPropertyOp8
 70
     1
102
RTVSPropertyOp9
 70
     1
102
RTVSPropertyOp10
 70
     1
102
RTVSPropertyOp11
 70
     1
102
RTVSPropertyOp12
 70
     1
102
RTVSPropertyOp13
 70
     1
102
RTVSPropertyOp14
 70
     1
102
RTVSPropertyOp15
 70
     1
102
RTVSPropertyOp16
 70
     1
102
RTVSPropertyOp17
 70
     1
102
RTVSPropertyOp18
 70
     1
102
RTVSPropertyOp19
 70
     1
102
RTVSPropertyOp20
 70
     1
102
RTVSPropertyOp21
 70
     1
102
RTVSPropertyOp22
 70
     1
102
RTVSPropertyOp23
 70
     1
102
RTVSPropertyOp24
 70
     1
102
RTVSPropertyOp25
 70
     1
102
RTVSPropertyOp26
 70
     1
102
RTVSPropertyOp27
 70
     1
102
RTVSPropertyOp28
 70
     1
102
RTVSPropertyOp29
 70
     1
102
RTVSPropertyOp30
 70
     1
102
RTVSPropertyOp31
 70
     1
102
RTVSPropertyOp32
 70
     1
  0
XRECORD
  5
2A01
102
{ACAD_REACTORS
330
2A00
102
}
330
2A00
100
AcDbXrecord
280
     1
102
RTVSPropertyOp0
 70
     1
102
RTVSPropertyOp1
 70
     1
102
RTVSPropertyOp2
 70
     1
102
RTVSPropertyOp3
 70
     1
102
RTVSPropertyOp4
 70
     1
102
RTVSPropertyOp5
 70
     1
102
RTVSPropertyOp6
 70
     1
102
RTVSPropertyOp7
 70
     1
102
RTVSPropertyOp8
 70
     1
102
RTVSPropertyOp9
 70
     1
102
RTVSPropertyOp10
 70
     1
102
RTVSPropertyOp11
 70
     1
102
RTVSPropertyOp12
 70
     1
102
RTVSPropertyOp13
 70
     1
102
RTVSPropertyOp14
 70
     1
102
RTVSPropertyOp15
 70
     1
102
RTVSPropertyOp16
 70
     1
102
RTVSPropertyOp17
 70
     1
102
RTVSPropertyOp18
 70
     1
102
RTVSPropertyOp19
 70
     1
102
RTVSPropertyOp20
 70
     1
102
RTVSPropertyOp21
 70
     1
102
RTVSPropertyOp22
 70
     1
102
RTVSPropertyOp23
 70
     1
102
RTVSPropertyOp24
 70
     1
102
RTVSPropertyOp25
 70
     1
102
RTVSPropertyOp26
 70
     1
102
RTVSPropertyOp27
 70
     1
102
RTVSPropertyOp28
 70
     1
102
RTVSPropertyOp29
 70
     1
102
RTVSPropertyOp30
 70
     1
102
RTVSPropertyOp31
 70
     1
102
RTVSPropertyOp32
 70
     1
  0
XRECORD
  5
2A1B
102
{ACAD_REACTORS
330
2A1A
102
}
330
2A1A
100
AcDbXrecord
280
     1
102
RTVSPropertyOp0
 70
     0
102
RTVSPropertyOp1
 70
     0
102
RTVSPropertyOp2
 70
     0
102
RTVSPropertyOp3
 70
     0
102
RTVSPropertyOp4
 70
     0
102
RTVSPropertyOp5
 70
     0
102
RTVSPropertyOp6
 70
     0
102
RTVSPropertyOp7
 70
     0
102
RTVSPropertyOp8
 70
     0
102
RTVSPropertyOp9
 70
     0
102
RTVSPropertyOp10
 70
     0
102
RTVSPropertyOp11
 70
     0
102
RTVSPropertyOp12
 70
     0
102
RTVSPropertyOp13
 70
     0
102
RTVSPropertyOp14
 70
     2
102
RTVSPropertyOp15
 70
     0
102
RTVSPropertyOp16
 70
     0
102
RTVSPropertyOp17
 70
     0
102
RTVSPropertyOp18
 70
     0
102
RTVSPropertyOp19
 70
     0
102
RTVSPropertyOp20
 70
     0
102
RTVSPropertyOp21
 70
     0
102
RTVSPropertyOp22
 70
     0
102
RTVSPropertyOp23
 70
     0
102
RTVSPropertyOp24
 70
     0
102
RTVSPropertyOp25
 70
     0
102
RTVSPropertyOp26
 70
     0
102
RTVSPropertyOp27
 70
     0
102
RTVSPropertyOp28
 70
     0
102
RTVSPropertyOp29
 70
     0
102
RTVSPropertyOp30
 70
     0
102
RTVSPropertyOp31
 70
     0
102
RTVSPropertyOp32
 70
     0
  0
XRECORD
  5
2A09
102
{ACAD_REACTORS
330
2A08
102
}
330
2A08
100
AcDbXrecord
280
     1
102
RTVSPropertyOp0
 70
     1
102
RTVSPropertyOp1
 70
     1
102
RTVSPropertyOp2
 70
     1
102
RTVSPropertyOp3
 70
     1
102
RTVSPropertyOp4
 70
     1
102
RTVSPropertyOp5
 70
     1
102
RTVSPropertyOp6
 70
     1
102
RTVSPropertyOp7
 70
     1
102
RTVSPropertyOp8
 70
     1
102
RTVSPropertyOp9
 70
     1
102
RTVSPropertyOp10
 70
     1
102
RTVSPropertyOp11
 70
     1
102
RTVSPropertyOp12
 70
     1
102
RTVSPropertyOp13
 70
     1
102
RTVSPropertyOp14
 70
     1
102
RTVSPropertyOp15
 70
     1
102
RTVSPropertyOp16
 70
     1
102
RTVSPropertyOp17
 70
     1
102
RTVSPropertyOp18
 70
     1
102
RTVSPropertyOp19
 70
     1
102
RTVSPropertyOp20
 70
     1
102
RTVSPropertyOp21
 70
     1
102
RTVSPropertyOp22
 70
     1
102
RTVSPropertyOp23
 70
     1
102
RTVSPropertyOp24
 70
     1
102
RTVSPropertyOp25
 70
     1
102
RTVSPropertyOp26
 70
     1
102
RTVSPropertyOp27
 70
     1
102
RTVSPropertyOp28
 70
     1
102
RTVSPropertyOp29
 70
     1
102
RTVSPropertyOp30
 70
     1
102
RTVSPropertyOp31
 70
     1
102
RTVSPropertyOp32
 70
     1
  0
XRECORD
  5
29ED
102
{ACAD_REACTORS
330
29EC
102
}
330
29EC
100
AcDbXrecord
280
     1
102
RTVSPropertyOp0
 70
     1
102
RTVSPropertyOp1
 70
     1
102
RTVSPropertyOp2
 70
     1
102
RTVSPropertyOp3
 70
     1
102
RTVSPropertyOp4
 70
     1
102
RTVSPropertyOp5
 70
     1
102
RTVSPropertyOp6
 70
     1
102
RTVSPropertyOp7
 70
     1
102
RTVSPropertyOp8
 70
     1
102
RTVSPropertyOp9
 70
     1
102
RTVSPropertyOp10
 70
     1
102
RTVSPropertyOp11
 70
     1
102
RTVSPropertyOp12
 70
     1
102
RTVSPropertyOp13
 70
     1
102
RTVSPropertyOp14
 70
     1
102
RTVSPropertyOp15
 70
     1
102
RTVSPropertyOp16
 70
     1
102
RTVSPropertyOp17
 70
     1
102
RTVSPropertyOp18
 70
     1
102
RTVSPropertyOp19
 70
     1
102
RTVSPropertyOp20
 70
     1
102
RTVSPropertyOp21
 70
     1
102
RTVSPropertyOp22
 70
     1
102
RTVSPropertyOp23
 70
     1
102
RTVSPropertyOp24
 70
     1
102
RTVSPropertyOp25
 70
     1
102
RTVSPropertyOp26
 70
     1
102
RTVSPropertyOp27
 70
     1
102
RTVSPropertyOp28
 70
     1
102
RTVSPropertyOp29
 70
     1
102
RTVSPropertyOp30
 70
     1
102
RTVSPropertyOp31
 70
     1
102
RTVSPropertyOp32
 70
     1
  0
XRECORD
  5
29EF
102
{ACAD_REACTORS
330
29EE
102
}
330
29EE
100
AcDbXrecord
280
     1
102
RTVSPropertyOp0
 70
     1
102
RTVSPropertyOp1
 70
     1
102
RTVSPropertyOp2
 70
     1
102
RTVSPropertyOp3
 70
     1
102
RTVSPropertyOp4
 70
     1
102
RTVSPropertyOp5
 70
     1
102
RTVSPropertyOp6
 70
     1
102
RTVSPropertyOp7
 70
     1
102
RTVSPropertyOp8
 70
     1
102
RTVSPropertyOp9
 70
     1
102
RTVSPropertyOp10
 70
     1
102
RTVSPropertyOp11
 70
     1
102
RTVSPropertyOp12
 70
     1
102
RTVSPropertyOp13
 70
     1
102
RTVSPropertyOp14
 70
     1
102
RTVSPropertyOp15
 70
     1
102
RTVSPropertyOp16
 70
     1
102
RTVSPropertyOp17
 70
     1
102
RTVSPropertyOp18
 70
     1
102
RTVSPropertyOp19
 70
     1
102
RTVSPropertyOp20
 70
     1
102
RTVSPropertyOp21
 70
     1
102
RTVSPropertyOp22
 70
     1
102
RTVSPropertyOp23
 70
     1
102
RTVSPropertyOp24
 70
     1
102
RTVSPropertyOp25
 70
     1
102
RTVSPropertyOp26
 70
     1
102
RTVSPropertyOp27
 70
     1
102
RTVSPropertyOp28
 70
     1
102
RTVSPropertyOp29
 70
     1
102
RTVSPropertyOp30
 70
     1
102
RTVSPropertyOp31
 70
     1
102
RTVSPropertyOp32
 70
     1
  0
XRECORD
  5
29F1
102
{ACAD_REACTORS
330
29F0
102
}
330
29F0
100
AcDbXrecord
280
     1
102
RTVSPropertyOp0
 70
     1
102
RTVSPropertyOp1
 70
     1
102
RTVSPropertyOp2
 70
     1
102
RTVSPropertyOp3
 70
     1
102
RTVSPropertyOp4
 70
     1
102
RTVSPropertyOp5
 70
     1
102
RTVSPropertyOp6
 70
     1
102
RTVSPropertyOp7
 70
     1
102
RTVSPropertyOp8
 70
     1
102
RTVSPropertyOp9
 70
     1
102
RTVSPropertyOp10
 70
     1
102
RTVSPropertyOp11
 70
     1
102
RTVSPropertyOp12
 70
     1
102
RTVSPropertyOp13
 70
     1
102
RTVSPropertyOp14
 70
     1
102
RTVSPropertyOp15
 70
     1
102
RTVSPropertyOp16
 70
     1
102
RTVSPropertyOp17
 70
     1
102
RTVSPropertyOp18
 70
     1
102
RTVSPropertyOp19
 70
     1
102
RTVSPropertyOp20
 70
     1
102
RTVSPropertyOp21
 70
     1
102
RTVSPropertyOp22
 70
     1
102
RTVSPropertyOp23
 70
     1
102
RTVSPropertyOp24
 70
     1
102
RTVSPropertyOp25
 70
     1
102
RTVSPropertyOp26
 70
     1
102
RTVSPropertyOp27
 70
     1
102
RTVSPropertyOp28
 70
     1
102
RTVSPropertyOp29
 70
     1
102
RTVSPropertyOp30
 70
     1
102
RTVSPropertyOp31
 70
     1
102
RTVSPropertyOp32
 70
     1
  0
XRECORD
  5
29F3
102
{ACAD_REACTORS
330
29F2
102
}
330
29F2
100
AcDbXrecord
280
     1
102
RTVSPropertyOp0
 70
     1
102
RTVSPropertyOp1
 70
     1
102
RTVSPropertyOp2
 70
     1
102
RTVSPropertyOp3
 70
     1
102
RTVSPropertyOp4
 70
     1
102
RTVSPropertyOp5
 70
     1
102
RTVSPropertyOp6
 70
     1
102
RTVSPropertyOp7
 70
     1
102
RTVSPropertyOp8
 70
     1
102
RTVSPropertyOp9
 70
     1
102
RTVSPropertyOp10
 70
     1
102
RTVSPropertyOp11
 70
     1
102
RTVSPropertyOp12
 70
     1
102
RTVSPropertyOp13
 70
     1
102
RTVSPropertyOp14
 70
     1
102
RTVSPropertyOp15
 70
     1
102
RTVSPropertyOp16
 70
     1
102
RTVSPropertyOp17
 70
     1
102
RTVSPropertyOp18
 70
     1
102
RTVSPropertyOp19
 70
     1
102
RTVSPropertyOp20
 70
     1
102
RTVSPropertyOp21
 70
     1
102
RTVSPropertyOp22
 70
     1
102
RTVSPropertyOp23
 70
     1
102
RTVSPropertyOp24
 70
     1
102
RTVSPropertyOp25
 70
     1
102
RTVSPropertyOp26
 70
     1
102
RTVSPropertyOp27
 70
     1
102
RTVSPropertyOp28
 70
     1
102
RTVSPropertyOp29
 70
     1
102
RTVSPropertyOp30
 70
     1
102
RTVSPropertyOp31
 70
     1
102
RTVSPropertyOp32
 70
     1
  0
XRECORD
  5
29FB
102
{ACAD_REACTORS
330
29FA
102
}
330
29FA
100
AcDbXrecord
280
     1
102
RTVSPropertyOp0
 70
     1
102
RTVSPropertyOp1
 70
     1
102
RTVSPropertyOp2
 70
     1
102
RTVSPropertyOp3
 70
     1
102
RTVSPropertyOp4
 70
     1
102
RTVSPropertyOp5
 70
     1
102
RTVSPropertyOp6
 70
     1
102
RTVSPropertyOp7
 70
     1
102
RTVSPropertyOp8
 70
     1
102
RTVSPropertyOp9
 70
     1
102
RTVSPropertyOp10
 70
     1
102
RTVSPropertyOp11
 70
     1
102
RTVSPropertyOp12
 70
     1
102
RTVSPropertyOp13
 70
     1
102
RTVSPropertyOp14
 70
     1
102
RTVSPropertyOp15
 70
     1
102
RTVSPropertyOp16
 70
     1
102
RTVSPropertyOp17
 70
     1
102
RTVSPropertyOp18
 70
     1
102
RTVSPropertyOp19
 70
     1
102
RTVSPropertyOp20
 70
     1
102
RTVSPropertyOp21
 70
     1
102
RTVSPropertyOp22
 70
     1
102
RTVSPropertyOp23
 70
     1
102
RTVSPropertyOp24
 70
     1
102
RTVSPropertyOp25
 70
     1
102
RTVSPropertyOp26
 70
     1
102
RTVSPropertyOp27
 70
     1
102
RTVSPropertyOp28
 70
     1
102
RTVSPropertyOp29
 70
     1
102
RTVSPropertyOp30
 70
     1
102
RTVSPropertyOp31
 70
     1
102
RTVSPropertyOp32
 70
     1
  0
XRECORD
  5
2A17
102
{ACAD_REACTORS
330
2A16
102
}
330
2A16
100
AcDbXrecord
280
     1
102
RTVSPropertyOp0
 70
     0
102
RTVSPropertyOp1
 70
     0
102
RTVSPropertyOp2
 70
     0
102
RTVSPropertyOp3
 70
     0
102
RTVSPropertyOp4
 70
     0
102
RTVSPropertyOp5
 70
     0
102
RTVSPropertyOp6
 70
     0
102
RTVSPropertyOp7
 70
     0
102
RTVSPropertyOp8
 70
     0
102
RTVSPropertyOp9
 70
     0
102
RTVSPropertyOp10
 70
     0
102
RTVSPropertyOp11
 70
     0
102
RTVSPropertyOp12
 70
     0
102
RTVSPropertyOp13
 70
     0
102
RTVSPropertyOp14
 70
     2
102
RTVSPropertyOp15
 70
     0
102
RTVSPropertyOp16
 70
     0
102
RTVSPropertyOp17
 70
     0
102
RTVSPropertyOp18
 70
     0
102
RTVSPropertyOp19
 70
     0
102
RTVSPropertyOp20
 70
     0
102
RTVSPropertyOp21
 70
     0
102
RTVSPropertyOp22
 70
     0
102
RTVSPropertyOp23
 70
     0
102
RTVSPropertyOp24
 70
     0
102
RTVSPropertyOp25
 70
     0
102
RTVSPropertyOp26
 70
     0
102
RTVSPropertyOp27
 70
     0
102
RTVSPropertyOp28
 70
     0
102
RTVSPropertyOp29
 70
     0
102
RTVSPropertyOp30
 70
     0
102
RTVSPropertyOp31
 70
     0
102
RTVSPropertyOp32
 70
     0
  0
XRECORD
  5
2A07
102
{ACAD_REACTORS
330
2A06
102
}
330
2A06
100
AcDbXrecord
280
     1
102
RTVSPropertyOp0
 70
     1
102
RTVSPropertyOp1
 70
     1
102
RTVSPropertyOp2
 70
     1
102
RTVSPropertyOp3
 70
     1
102
RTVSPropertyOp4
 70
     1
102
RTVSPropertyOp5
 70
     1
102
RTVSPropertyOp6
 70
     1
102
RTVSPropertyOp7
 70
     1
102
RTVSPropertyOp8
 70
     1
102
RTVSPropertyOp9
 70
     1
102
RTVSPropertyOp10
 70
     1
102
RTVSPropertyOp11
 70
     1
102
RTVSPropertyOp12
 70
     1
102
RTVSPropertyOp13
 70
     1
102
RTVSPropertyOp14
 70
     1
102
RTVSPropertyOp15
 70
     1
102
RTVSPropertyOp16
 70
     1
102
RTVSPropertyOp17
 70
     1
102
RTVSPropertyOp18
 70
     1
102
RTVSPropertyOp19
 70
     1
102
RTVSPropertyOp20
 70
     1
102
RTVSPropertyOp21
 70
     1
102
RTVSPropertyOp22
 70
     1
102
RTVSPropertyOp23
 70
     1
102
RTVSPropertyOp24
 70
     1
102
RTVSPropertyOp25
 70
     1
102
RTVSPropertyOp26
 70
     1
102
RTVSPropertyOp27
 70
     1
102
RTVSPropertyOp28
 70
     1
102
RTVSPropertyOp29
 70
     1
102
RTVSPropertyOp30
 70
     1
102
RTVSPropertyOp31
 70
     1
102
RTVSPropertyOp32
 70
     1
  0
XRECORD
  5
2A19
102
{ACAD_REACTORS
330
2A18
102
}
330
2A18
100
AcDbXrecord
280
     1
102
RTVSPropertyOp0
 70
     0
102
RTVSPropertyOp1
 70
     0
102
RTVSPropertyOp2
 70
     0
102
RTVSPropertyOp3
 70
     0
102
RTVSPropertyOp4
 70
     0
102
RTVSPropertyOp5
 70
     0
102
RTVSPropertyOp6
 70
     0
102
RTVSPropertyOp7
 70
     0
102
RTVSPropertyOp8
 70
     0
102
RTVSPropertyOp9
 70
     0
102
RTVSPropertyOp10
 70
     0
102
RTVSPropertyOp11
 70
     0
102
RTVSPropertyOp12
 70
     0
102
RTVSPropertyOp13
 70
     0
102
RTVSPropertyOp14
 70
     2
102
RTVSPropertyOp15
 70
     0
102
RTVSPropertyOp16
 70
     0
102
RTVSPropertyOp17
 70
     0
102
RTVSPropertyOp18
 70
     0
102
RTVSPropertyOp19
 70
     0
102
RTVSPropertyOp20
 70
     0
102
RTVSPropertyOp21
 70
     0
102
RTVSPropertyOp22
 70
     0
102
RTVSPropertyOp23
 70
     0
102
RTVSPropertyOp24
 70
     0
102
RTVSPropertyOp25
 70
     0
102
RTVSPropertyOp26
 70
     0
102
RTVSPropertyOp27
 70
     0
102
RTVSPropertyOp28
 70
     0
102
RTVSPropertyOp29
 70
     0
102
RTVSPropertyOp30
 70
     0
102
RTVSPropertyOp31
 70
     0
102
RTVSPropertyOp32
 70
     0
  0
XRECORD
  5
29FF
102
{ACAD_REACTORS
330
29FE
102
}
330
29FE
100
AcDbXrecord
280
     1
102
RTVSPropertyOp0
 70
     1
102
RTVSPropertyOp1
 70
     1
102
RTVSPropertyOp2
 70
     1
102
RTVSPropertyOp3
 70
     1
102
RTVSPropertyOp4
 70
     1
102
RTVSPropertyOp5
 70
     1
102
RTVSPropertyOp6
 70
     1
102
RTVSPropertyOp7
 70
     1
102
RTVSPropertyOp8
 70
     1
102
RTVSPropertyOp9
 70
     1
102
RTVSPropertyOp10
 70
     1
102
RTVSPropertyOp11
 70
     1
102
RTVSPropertyOp12
 70
     1
102
RTVSPropertyOp13
 70
     1
102
RTVSPropertyOp14
 70
     1
102
RTVSPropertyOp15
 70
     1
102
RTVSPropertyOp16
 70
     1
102
RTVSPropertyOp17
 70
     1
102
RTVSPropertyOp18
 70
     1
102
RTVSPropertyOp19
 70
     1
102
RTVSPropertyOp20
 70
     1
102
RTVSPropertyOp21
 70
     1
102
RTVSPropertyOp22
 70
     1
102
RTVSPropertyOp23
 70
     1
102
RTVSPropertyOp24
 70
     1
102
RTVSPropertyOp25
 70
     1
102
RTVSPropertyOp26
 70
     1
102
RTVSPropertyOp27
 70
     1
102
RTVSPropertyOp28
 70
     1
102
RTVSPropertyOp29
 70
     1
102
RTVSPropertyOp30
 70
     1
102
RTVSPropertyOp31
 70
     1
102
RTVSPropertyOp32
 70
     1
  0
XRECORD
  5
2A15
102
{ACAD_REACTORS
330
2A14
102
}
330
2A14
100
AcDbXrecord
280
     1
102
RTVSPropertyOp0
 70
     1
102
RTVSPropertyOp1
 70
     1
102
RTVSPropertyOp2
 70
     1
102
RTVSPropertyOp3
 70
     1
102
RTVSPropertyOp4
 70
     1
102
RTVSPropertyOp5
 70
     1
102
RTVSPropertyOp6
 70
     1
102
RTVSPropertyOp7
 70
     1
102
RTVSPropertyOp8
 70
     1
102
RTVSPropertyOp9
 70
     1
102
RTVSPropertyOp10
 70
     1
102
RTVSPropertyOp11
 70
     1
102
RTVSPropertyOp12
 70
     1
102
RTVSPropertyOp13
 70
     1
102
RTVSPropertyOp14
 70
     1
102
RTVSPropertyOp15
 70
     1
102
RTVSPropertyOp16
 70
     1
102
RTVSPropertyOp17
 70
     1
102
RTVSPropertyOp18
 70
     1
102
RTVSPropertyOp19
 70
     1
102
RTVSPropertyOp20
 70
     1
102
RTVSPropertyOp21
 70
     1
102
RTVSPropertyOp22
 70
     1
102
RTVSPropertyOp23
 70
     1
102
RTVSPropertyOp24
 70
     1
102
RTVSPropertyOp25
 70
     1
102
RTVSPropertyOp26
 70
     1
102
RTVSPropertyOp27
 70
     1
102
RTVSPropertyOp28
 70
     1
102
RTVSPropertyOp29
 70
     1
102
RTVSPropertyOp30
 70
     1
102
RTVSPropertyOp31
 70
     1
102
RTVSPropertyOp32
 70
     1
  0
XRECORD
  5
2A13
102
{ACAD_REACTORS
330
2A12
102
}
330
2A12
100
AcDbXrecord
280
     1
102
RTVSPropertyOp0
 70
     1
102
RTVSPropertyOp1
 70
     1
102
RTVSPropertyOp2
 70
     1
102
RTVSPropertyOp3
 70
     1
102
RTVSPropertyOp4
 70
     1
102
RTVSPropertyOp5
 70
     1
102
RTVSPropertyOp6
 70
     1
102
RTVSPropertyOp7
 70
     1
102
RTVSPropertyOp8
 70
     1
102
RTVSPropertyOp9
 70
     1
102
RTVSPropertyOp10
 70
     1
102
RTVSPropertyOp11
 70
     1
102
RTVSPropertyOp12
 70
     1
102
RTVSPropertyOp13
 70
     1
102
RTVSPropertyOp14
 70
     1
102
RTVSPropertyOp15
 70
     1
102
RTVSPropertyOp16
 70
     1
102
RTVSPropertyOp17
 70
     1
102
RTVSPropertyOp18
 70
     1
102
RTVSPropertyOp19
 70
     1
102
RTVSPropertyOp20
 70
     1
102
RTVSPropertyOp21
 70
     1
102
RTVSPropertyOp22
 70
     1
102
RTVSPropertyOp23
 70
     1
102
RTVSPropertyOp24
 70
     1
102
RTVSPropertyOp25
 70
     1
102
RTVSPropertyOp26
 70
     1
102
RTVSPropertyOp27
 70
     1
102
RTVSPropertyOp28
 70
     1
102
RTVSPropertyOp29
 70
     1
102
RTVSPropertyOp30
 70
     1
102
RTVSPropertyOp31
 70
     1
102
RTVSPropertyOp32
 70
     1
  0
XRECORD
  5
2A0D
102
{ACAD_REACTORS
330
2A0C
102
}
330
2A0C
100
AcDbXrecord
280
     1
102
RTVSPropertyOp0
 70
     1
102
RTVSPropertyOp1
 70
     1
102
RTVSPropertyOp2
 70
     1
102
RTVSPropertyOp3
 70
     1
102
RTVSPropertyOp4
 70
     1
102
RTVSPropertyOp5
 70
     1
102
RTVSPropertyOp6
 70
     1
102
RTVSPropertyOp7
 70
     1
102
RTVSPropertyOp8
 70
     1
102
RTVSPropertyOp9
 70
     1
102
RTVSPropertyOp10
 70
     1
102
RTVSPropertyOp11
 70
     1
102
RTVSPropertyOp12
 70
     1
102
RTVSPropertyOp13
 70
     1
102
RTVSPropertyOp14
 70
     1
102
RTVSPropertyOp15
 70
     1
102
RTVSPropertyOp16
 70
     1
102
RTVSPropertyOp17
 70
     1
102
RTVSPropertyOp18
 70
     1
102
RTVSPropertyOp19
 70
     1
102
RTVSPropertyOp20
 70
     1
102
RTVSPropertyOp21
 70
     1
102
RTVSPropertyOp22
 70
     1
102
RTVSPropertyOp23
 70
     1
102
RTVSPropertyOp24
 70
     1
102
RTVSPropertyOp25
 70
     1
102
RTVSPropertyOp26
 70
     1
102
RTVSPropertyOp27
 70
     1
102
RTVSPropertyOp28
 70
     1
102
RTVSPropertyOp29
 70
     1
102
RTVSPropertyOp30
 70
     1
102
RTVSPropertyOp31
 70
     1
102
RTVSPropertyOp32
 70
     1
  0
XRECORD
  5
2A0F
102
{ACAD_REACTORS
330
2A0E
102
}
330
2A0E
100
AcDbXrecord
280
     1
102
RTVSPropertyOp0
 70
     1
102
RTVSPropertyOp1
 70
     1
102
RTVSPropertyOp2
 70
     1
102
RTVSPropertyOp3
 70
     1
102
RTVSPropertyOp4
 70
     1
102
RTVSPropertyOp5
 70
     1
102
RTVSPropertyOp6
 70
     1
102
RTVSPropertyOp7
 70
     1
102
RTVSPropertyOp8
 70
     1
102
RTVSPropertyOp9
 70
     1
102
RTVSPropertyOp10
 70
     1
102
RTVSPropertyOp11
 70
     1
102
RTVSPropertyOp12
 70
     1
102
RTVSPropertyOp13
 70
     1
102
RTVSPropertyOp14
 70
     1
102
RTVSPropertyOp15
 70
     1
102
RTVSPropertyOp16
 70
     1
102
RTVSPropertyOp17
 70
     1
102
RTVSPropertyOp18
 70
     1
102
RTVSPropertyOp19
 70
     1
102
RTVSPropertyOp20
 70
     1
102
RTVSPropertyOp21
 70
     1
102
RTVSPropertyOp22
 70
     1
102
RTVSPropertyOp23
 70
     1
102
RTVSPropertyOp24
 70
     1
102
RTVSPropertyOp25
 70
     1
102
RTVSPropertyOp26
 70
     1
102
RTVSPropertyOp27
 70
     1
102
RTVSPropertyOp28
 70
     1
102
RTVSPropertyOp29
 70
     1
102
RTVSPropertyOp30
 70
     1
102
RTVSPropertyOp31
 70
     1
102
RTVSPropertyOp32
 70
     1
  0
XRECORD
  5
2A05
102
{ACAD_REACTORS
330
2A04
102
}
330
2A04
100
AcDbXrecord
280
     1
102
RTVSPropertyOp0
 70
     1
102
RTVSPropertyOp1
 70
     1
102
RTVSPropertyOp2
 70
     1
102
RTVSPropertyOp3
 70
     1
102
RTVSPropertyOp4
 70
     1
102
RTVSPropertyOp5
 70
     1
102
RTVSPropertyOp6
 70
     1
102
RTVSPropertyOp7
 70
     1
102
RTVSPropertyOp8
 70
     1
102
RTVSPropertyOp9
 70
     1
102
RTVSPropertyOp10
 70
     1
102
RTVSPropertyOp11
 70
     1
102
RTVSPropertyOp12
 70
     1
102
RTVSPropertyOp13
 70
     1
102
RTVSPropertyOp14
 70
     1
102
RTVSPropertyOp15
 70
     1
102
RTVSPropertyOp16
 70
     1
102
RTVSPropertyOp17
 70
     1
102
RTVSPropertyOp18
 70
     1
102
RTVSPropertyOp19
 70
     1
102
RTVSPropertyOp20
 70
     1
102
RTVSPropertyOp21
 70
     1
102
RTVSPropertyOp22
 70
     1
102
RTVSPropertyOp23
 70
     1
102
RTVSPropertyOp24
 70
     1
102
RTVSPropertyOp25
 70
     1
102
RTVSPropertyOp26
 70
     1
102
RTVSPropertyOp27
 70
     1
102
RTVSPropertyOp28
 70
     1
102
RTVSPropertyOp29
 70
     1
102
RTVSPropertyOp30
 70
     1
102
RTVSPropertyOp31
 70
     1
102
RTVSPropertyOp32
 70
     1
  0
XRECORD
  5
29F9
102
{ACAD_REACTORS
330
29F8
102
}
330
29F8
100
AcDbXrecord
280
     1
102
RTVSPropertyOp0
 70
     1
102
RTVSPropertyOp1
 70
     1
102
RTVSPropertyOp2
 70
     1
102
RTVSPropertyOp3
 70
     1
102
RTVSPropertyOp4
 70
     1
102
RTVSPropertyOp5
 70
     1
102
RTVSPropertyOp6
 70
     1
102
RTVSPropertyOp7
 70
     1
102
RTVSPropertyOp8
 70
     1
102
RTVSPropertyOp9
 70
     1
102
RTVSPropertyOp10
 70
     1
102
RTVSPropertyOp11
 70
     1
102
RTVSPropertyOp12
 70
     1
102
RTVSPropertyOp13
 70
     1
102
RTVSPropertyOp14
 70
     1
102
RTVSPropertyOp15
 70
     1
102
RTVSPropertyOp16
 70
     1
102
RTVSPropertyOp17
 70
     1
102
RTVSPropertyOp18
 70
     1
102
RTVSPropertyOp19
 70
     1
102
RTVSPropertyOp20
 70
     1
102
RTVSPropertyOp21
 70
     1
102
RTVSPropertyOp22
 70
     1
102
RTVSPropertyOp23
 70
     1
102
RTVSPropertyOp24
 70
     1
102
RTVSPropertyOp25
 70
     1
102
RTVSPropertyOp26
 70
     1
102
RTVSPropertyOp27
 70
     1
102
RTVSPropertyOp28
 70
     1
102
RTVSPropertyOp29
 70
     1
102
RTVSPropertyOp30
 70
     1
102
RTVSPropertyOp31
 70
     1
102
RTVSPropertyOp32
 70
     1
  0
XRECORD
  5
2A11
102
{ACAD_REACTORS
330
2A10
102
}
330
2A10
100
AcDbXrecord
280
     1
102
RTVSPropertyOp0
 70
     1
102
RTVSPropertyOp1
 70
     1
102
RTVSPropertyOp2
 70
     1
102
RTVSPropertyOp3
 70
     1
102
RTVSPropertyOp4
 70
     1
102
RTVSPropertyOp5
 70
     1
102
RTVSPropertyOp6
 70
     1
102
RTVSPropertyOp7
 70
     1
102
RTVSPropertyOp8
 70
     1
102
RTVSPropertyOp9
 70
     1
102
RTVSPropertyOp10
 70
     1
102
RTVSPropertyOp11
 70
     1
102
RTVSPropertyOp12
 70
     1
102
RTVSPropertyOp13
 70
     1
102
RTVSPropertyOp14
 70
     1
102
RTVSPropertyOp15
 70
     1
102
RTVSPropertyOp16
 70
     1
102
RTVSPropertyOp17
 70
     1
102
RTVSPropertyOp18
 70
     1
102
RTVSPropertyOp19
 70
     1
102
RTVSPropertyOp20
 70
     1
102
RTVSPropertyOp21
 70
     1
102
RTVSPropertyOp22
 70
     1
102
RTVSPropertyOp23
 70
     1
102
RTVSPropertyOp24
 70
     1
102
RTVSPropertyOp25
 70
     1
102
RTVSPropertyOp26
 70
     1
102
RTVSPropertyOp27
 70
     1
102
RTVSPropertyOp28
 70
     1
102
RTVSPropertyOp29
 70
     1
102
RTVSPropertyOp30
 70
     1
102
RTVSPropertyOp31
 70
     1
102
RTVSPropertyOp32
 70
     1
  0
ENDSEC
  0
EOF
