  0
SECTION
  2
HEADER
  9
$ACADVER
  1
AC1015
  9
$ACADMAINTVER
 70
    20
  9
$DWGCODEPAGE
  3
ANSI_1252
  9
$INSBASE
 10
0.0
 20
0.0
 30
0.0
  9
$EXTMIN
 10
0.0
 20
0.0
 30
0.0
  9
$EXTMAX
 10
58.43059373869616
 20
36.19195733340607
 30
0.0
  9
$LIMMIN
 10
0.0
 20
0.0
  9
$LIMMAX
 10
12.0
 20
9.0
  9
$ORTHOMODE
 70
     0
  9
$REGENMODE
 70
     1
  9
$FILLMODE
 70
     1
  9
$QTEXTMODE
 70
     0
  9
$MIRRTEXT
 70
     1
  9
$LTSCALE
 40
0.5
  9
$ATTMODE
 70
     1
  9
$TEXTSIZE
 40
0.25
  9
$TRACEWID
 40
0.05
  9
$TEXTSTYLE
  7
STANDARD
  9
$CLAYER
  8
0
  9
$CELTYPE
  6
BYLAYER
  9
$CECOLOR
 62
   256
  9
$CELTSCALE
 40
1.0
  9
$DISPSILH
 70
     0
  9
$DIMSCALE
 40
1.0
  9
$DIMASZ
 40
0.2
  9
$DIMEXO
 40
0.125
  9
$DIMDLI
 40
0.375
  9
$DIMRND
 40
0.0
  9
$DIMDLE
 40
0.0
  9
$DIMEXE
 40
0.125
  9
$DIMTP
 40
0.0
  9
$DIMTM
 40
0.0
  9
$DIMTXT
 40
0.25
  9
$DIMCEN
 40
0.0
  9
$DIMTSZ
 40
0.0
  9
$DIMTOL
 70
     0
  9
$DIMLIM
 70
     0
  9
$DIMTIH
 70
     0
  9
$DIMTOH
 70
     0
  9
$DIMSE1
 70
     0
  9
$DIMSE2
 70
     0
  9
$DIMTAD
 70
     1
  9
$DIMZIN
 70
     3
  9
$DIMBLK
  1

  9
$DIMASO
 70
     1
  9
$DIMSHO
 70
     1
  9
$DIMPOST
  1

  9
$DIMAPOST
  1

  9
$DIMALT
 70
     0
  9
$DIMALTD
 70
     2
  9
$DIMALTF
 40
25.4
  9
$DIMLFAC
 40
1.0
  9
$DIMTOFL
 70
     0
  9
$DIMTVP
 40
0.0
  9
$DIMTIX
 70
     0
  9
$DIMSOXD
 70
     0
  9
$DIMSAH
 70
     0
  9
$DIMBLK1
  1

  9
$DIMBLK2
  1

  9
$DIMSTYLE
  2
STANDARD
  9
$DIMCLRD
 70
     0
  9
$DIMCLRE
 70
     0
  9
$DIMCLRT
 70
     0
  9
$DIMTFAC
 40
1.0
  9
$DIMGAP
 40
0.125
  9
$DIMJUST
 70
     0
  9
$DIMSD1
 70
     0
  9
$DIMSD2
 70
     0
  9
$DIMTOLJ
 70
     1
  9
$DIMTZIN
 70
     3
  9
$DIMALTZ
 70
     3
  9
$DIMALTTZ
 70
     3
  9
$DIMUPT
 70
     0
  9
$DIMDEC
 70
     5
  9
$DIMTDEC
 70
     5
  9
$DIMALTU
 70
     4
  9
$DIMALTTD
 70
     2
  9
$DIMTXSTY
  7
STANDARD
  9
$DIMAUNIT
 70
     0
  9
$DIMADEC
 70
     0
  9
$DIMALTRND
 40
0.0
  9
$DIMAZIN
 70
     0
  9
$DIMDSEP
 70
    46
  9
$DIMATFIT
 70
     0
  9
$DIMFRAC
 70
     2
  9
$DIMLDRBLK
  1

  9
$DIMLUNIT
 70
     4
  9
$DIMLWD
 70
    -2
  9
$DIMLWE
 70
    -2
  9
$DIMTMOVE
 70
     0
  9
$LUNITS
 70
     2
  9
$LUPREC
 70
     5
  9
$SKETCHINC
 40
0.1
  9
$FILLETRAD
 40
0.0
  9
$AUNITS
 70
     0
  9
$AUPREC
 70
     0
  9
$MENU
  1
ACAD
  9
$ELEVATION
 40
0.0
  9
$PELEVATION
 40
0.0
  9
$THICKNESS
 40
0.0
  9
$LIMCHECK
 70
     0
  9
$CHAMFERA
 40
0.0
  9
$CHAMFERB
 40
0.0
  9
$CHAMFERC
 40
0.0
  9
$CHAMFERD
 40
0.0
  9
$SKPOLY
 70
     0
  9
$TDCREATE
 40
2450777.537570949
  9
$TDUCREATE
 40
2450777.745904282
  9
$TDUPDATE
 40
2457812.593838218
  9
$TDUUPDATE
 40
2457812.802171551
  9
$TDINDWG
 40
0.5444440162
  9
$TDUSRTIMER
 40
0.5444440162
  9
$USRTIMER
 70
     1
  9
$ANGBASE
 50
0.0
  9
$ANGDIR
 70
     0
  9
$PDMODE
 70
     0
  9
$PDSIZE
 40
0.0
  9
$PLINEWID
 40
0.0
  9
$SPLFRAME
 70
     0
  9
$SPLINETYPE
 70
     6
  9
$SPLINESEGS
 70
     8
  9
$HANDSEED
  5
6F54
  9
$SURFTAB1
 70
     6
  9
$SURFTAB2
 70
     6
  9
$SURFTYPE
 70
     6
  9
$SURFU
 70
     6
  9
$SURFV
 70
     6
  9
$UCSBASE
  2

  9
$UCSNAME
  2

  9
$UCSORG
 10
0.0
 20
0.0
 30
0.0
  9
$UCSXDIR
 10
1.0
 20
0.0
 30
0.0
  9
$UCSYDIR
 10
0.0
 20
1.0
 30
0.0
  9
$UCSORTHOREF
  2

  9
$UCSORTHOVIEW
 70
     0
  9
$UCSORGTOP
 10
0.0
 20
0.0
 30
0.0
  9
$UCSORGBOTTOM
 10
0.0
 20
0.0
 30
0.0
  9
$UCSORGLEFT
 10
0.0
 20
0.0
 30
0.0
  9
$UCSORGRIGHT
 10
0.0
 20
0.0
 30
0.0
  9
$UCSORGFRONT
 10
0.0
 20
0.0
 30
0.0
  9
$UCSORGBACK
 10
0.0
 20
0.0
 30
0.0
  9
$PUCSBASE
  2

  9
$PUCSNAME
  2

  9
$PUCSORG
 10
0.0
 20
0.0
 30
0.0
  9
$PUCSXDIR
 10
1.0
 20
0.0
 30
0.0
  9
$PUCSYDIR
 10
0.0
 20
1.0
 30
0.0
  9
$PUCSORTHOREF
  2

  9
$PUCSORTHOVIEW
 70
     0
  9
$PUCSORGTOP
 10
0.0
 20
0.0
 30
0.0
  9
$PUCSORGBOTTOM
 10
0.0
 20
0.0
 30
0.0
  9
$PUCSORGLEFT
 10
0.0
 20
0.0
 30
0.0
  9
$PUCSORGRIGHT
 10
0.0
 20
0.0
 30
0.0
  9
$PUCSORGFRONT
 10
0.0
 20
0.0
 30
0.0
  9
$PUCSORGBACK
 10
0.0
 20
0.0
 30
0.0
  9
$USERI1
 70
     0
  9
$USERI2
 70
     0
  9
$USERI3
 70
     0
  9
$USERI4
 70
     0
  9
$USERI5
 70
     0
  9
$USERR1
 40
0.0
  9
$USERR2
 40
0.0
  9
$USERR3
 40
0.0
  9
$USERR4
 40
0.0
  9
$USERR5
 40
0.0
  9
$WORLDVIEW
 70
     1
  9
$SHADEDGE
 70
     3
  9
$SHADEDIF
 70
    70
  9
$TILEMODE
 70
     1
  9
$MAXACTVP
 70
    16
  9
$PINSBASE
 10
0.0
 20
0.0
 30
0.0
  9
$PLIMCHECK
 70
     0
  9
$PEXTMIN
 10
1.000000000000000E+20
 20
1.000000000000000E+20
 30
1.000000000000000E+20
  9
$PEXTMAX
 10
-1.000000000000000E+20
 20
-1.000000000000000E+20
 30
-1.000000000000000E+20
  9
$PLIMMIN
 10
0.0
 20
0.0
  9
$PLIMMAX
 10
12.0
 20
9.0
  9
$UNITMODE
 70
     0
  9
$VISRETAIN
 70
     0
  9
$PLINEGEN
 70
     0
  9
$PSLTSCALE
 70
     1
  9
$TREEDEPTH
 70
  3020
  9
$CMLSTYLE
  2
STANDARD
  9
$CMLJUST
 70
     0
  9
$CMLSCALE
 40
1.0
  9
$PROXYGRAPHICS
 70
     1
  9
$MEASUREMENT
 70
     0
  9
$CELWEIGHT
370
    -1
  9
$ENDCAPS
280
     0
  9
$JOINSTYLE
280
     0
  9
$LWDISPLAY
290
     0
  9
$INSUNITS
 70
     0
  9
$HYPERLINKBASE
  1

  9
$STYLESHEET
  1
monochrome.ctb
  9
$XEDIT
290
     1
  9
$CEPSNTYPE
380
     0
  9
$PSTYLEMODE
290
     1
  9
$FINGERPRINTGUID
  2
{AFB9463B-F323-4607-850C-DC68DBB64F67}
  9
$VERSIONGUID
  2
{2738EA38-9CBB-4412-B06D-F97568CBD102}
  9
$EXTNAMES
290
     1
  9
$PSVPSCALE
 40
0.0
  9
$OLESTARTUP
290
     0
  0
ENDSEC
  0
SECTION
  2
CLASSES
  0
CLASS
  1
DICTIONARYVAR
  2
AcDbDictionaryVar
  3
ObjectDBX Classes
 90
        0
280
     0
281
     0
  0
CLASS
  1
ACDBDICTIONARYWDFLT
  2
AcDbDictionaryWithDefault
  3
ObjectDBX Classes
 90
        0
280
     0
281
     0
  0
CLASS
  1
ACDBPLACEHOLDER
  2
AcDbPlaceHolder
  3
ObjectDBX Classes
 90
        0
280
     0
281
     0
  0
CLASS
  1
LAYOUT
  2
AcDbLayout
  3
ObjectDBX Classes
 90
        0
280
     0
281
     0
  0
CLASS
  1
MATERIAL
  2
AcDbMaterial
  3
ObjectDBX Classes
 90
     1153
280
     0
281
     0
  0
CLASS
  1
VISUALSTYLE
  2
AcDbVisualStyle
  3
ObjectDBX Classes
 90
     4095
280
     0
281
     0
  0
CLASS
  1
TABLESTYLE
  2
AcDbTableStyle
  3
ObjectDBX Classes
 90
     4095
280
     0
281
     0
  0
CLASS
  1
SCALE
  2
AcDbScale
  3
ObjectDBX Classes
 90
     1153
280
     0
281
     0
  0
CLASS
  1
MLEADERSTYLE
  2
AcDbMLeaderStyle
  3
ACDB_MLEADERSTYLE_CLASS
 90
     4095
280
     0
281
     0
  0
CLASS
  1
SORTENTSTABLE
  2
AcDbSortentsTable
  3
ObjectDBX Classes
 90
        0
280
     0
281
     0
  0
CLASS
  1
CELLSTYLEMAP
  2
AcDbCellStyleMap
  3
ObjectDBX Classes
 90
     1152
280
     0
281
     0
  0
CLASS
  1
EXACXREFPANELOBJECT
  2
ExAcXREFPanelObject
  3
EXAC_ESW
 90
     1025
280
     0
281
     0
  0
CLASS
  1
NPOCOLLECTION
  2
AcDbImpNonPersistentObjectsCollection
  3
ObjectDBX Classes
 90
     1153
280
     0
281
     0
  0
CLASS
  1
FIELD
  2
AcDbField
  3
ObjectDBX Classes
 90
    33920
280
     0
281
     0
  0
CLASS
  1
FIELDLIST
  2
AcDbFieldList
  3
ObjectDBX Classes
 90
     1152
280
     0
281
     0
  0
ENDSEC
  0
SECTION
  2
TABLES
  0
TABLE
  2
VPORT
  5
8
102
{ACAD_XDICTIONARY
360
65BE
102
}
330
0
100
AcDbSymbolTable
 70
     1
  0
VPORT
  5
650C
330
8
100
AcDbSymbolTableRecord
100
AcDbViewportTableRecord
  2
*Active
 70
     0
 10
0.0
 20
0.0
 11
1.0
 21
1.0
 12
43.179337944965
 22
18.09597891951636
 13
0.0
 23
0.0
 14
1.0
 24
1.0
 15
0.0
 25
0.0
 16
0.0
 26
0.0
 36
1.0
 17
0.0
 27
0.0
 37
0.0
 40
36.42987547974141
 41
2.829944547134935
 42
50.0
 43
0.0
 44
0.0
 50
0.0
 51
0.0
 71
     0
 72
  2000
 73
     1
 74
     0
 75
     0
 76
     0
 77
     0
 78
     0
281
     0
 65
     1
110
0.0
120
0.0
130
0.0
111
1.0
121
0.0
131
0.0
112
0.0
122
1.0
132
0.0
 79
     0
146
0.0
1001
ACAD_NAV_VCDISPLAY
1070
     3
  0
ENDTAB
  0
TABLE
  2
LTYPE
  5
5
330
0
100
AcDbSymbolTable
 70
     3
  0
LTYPE
  5
11
330
5
100
AcDbSymbolTableRecord
100
AcDbLinetypeTableRecord
  2
BYBLOCK
 70
     0
  3

 72
    65
 73
     0
 40
0.0
  0
LTYPE
  5
12
330
5
100
AcDbSymbolTableRecord
100
AcDbLinetypeTableRecord
  2
BYLAYER
 70
     0
  3

 72
    65
 73
     0
 40
0.0
  0
LTYPE
  5
13
330
5
100
AcDbSymbolTableRecord
100
AcDbLinetypeTableRecord
  2
CONTINUOUS
 70
     0
  3
Solid line
 72
    65
 73
     0
 40
0.0
  0
LTYPE
  5
6E4A
330
5
100
AcDbSymbolTableRecord
100
AcDbLinetypeTableRecord
  2
DASHED
 70
     0
  3
Dashed __ __ __ __ __ __ __ __ __ __ __ __ __ _
 72
    65
 73
     2
 40
0.75
 49
0.5
 74
     0
 49
-0.25
 74
     0
  0
LTYPE
  5
6E4B
330
5
100
AcDbSymbolTableRecord
100
AcDbLinetypeTableRecord
  2
DOT
 70
     0
  3
Dot . . . . . . . . . . . . . . . . . . . . . .
 72
    65
 73
     2
 40
0.25
 49
0.0
 74
     0
 49
-0.25
 74
     0
  0
ENDTAB
  0
TABLE
  2
LAYER
  5
2
102
{ACAD_XDICTIONARY
360
659D
102
}
330
0
100
AcDbSymbolTable
 70
     8
  0
LAYER
  5
E
102
{ACAD_XDICTIONARY
360
65AD
102
}
330
2
100
AcDbSymbolTableRecord
100
AcDbLayerTableRecord
  2
0
 70
     0
 62
     7
  6
CONTINUOUS
370
    -3
390
485B
  0
LAYER
  5
6019
102
{ACAD_XDICTIONARY
360
65AF
102
}
330
2
100
AcDbSymbolTableRecord
100
AcDbLayerTableRecord
  2
R-SWTS-DET1
 70
     0
 62
     1
  6
CONTINUOUS
370
    -3
390
485B
  0
LAYER
  5
601A
102
{ACAD_XDICTIONARY
360
65B1
102
}
330
2
100
AcDbSymbolTableRecord
100
AcDbLayerTableRecord
  2
PART_NUMBERS
 70
     0
 62
     6
  6
CONTINUOUS
370
    -3
390
485B
  0
LAYER
  5
601B
102
{ACAD_XDICTIONARY
360
65B3
102
}
330
2
100
AcDbSymbolTableRecord
100
AcDbLayerTableRecord
  2
R-ANNO-DIMS
 70
     0
 62
     3
  6
CONTINUOUS
370
    -3
390
485B
  0
LAYER
  5
601C
102
{ACAD_XDICTIONARY
360
65B5
102
}
330
2
100
AcDbSymbolTableRecord
100
AcDbLayerTableRecord
  2
R-SWTS-DET2
 70
     0
 62
     4
  6
CONTINUOUS
370
    -3
390
485B
  0
LAYER
  5
601D
102
{ACAD_XDICTIONARY
360
65B7
102
}
330
2
100
AcDbSymbolTableRecord
100
AcDbLayerTableRecord
  2
R-SWTS-DET3
 70
     0
 62
     5
  6
CONTINUOUS
370
    -3
390
485B
  0
LAYER
  5
6617
102
{ACAD_XDICTIONARY
360
6618
102
}
330
2
100
AcDbSymbolTableRecord
100
AcDbLayerTableRecord
  2
TEXT
 70
     0
 62
     3
  6
CONTINUOUS
370
    -3
390
485B
  0
LAYER
  5
6E4C
330
2
100
AcDbSymbolTableRecord
100
AcDbLayerTableRecord
  2
Kawneer Logo-English
 70
     0
 62
     7
  6
CONTINUOUS
370
    -3
390
485B
1001
AcAecLayerStandard
1000

1000

1001
AcCmTransparency
1071
        0
  0
ENDTAB
  0
TABLE
  2
STYLE
  5
3
330
0
100
AcDbSymbolTable
 70
     1
  0
STYLE
  5
F
330
3
100
AcDbSymbolTableRecord
100
AcDbTextStyleTableRecord
  2
STANDARD
 70
     0
 40
0.0
 41
1.0
 50
0.0
 71
     0
 42
0.25
  3
arial.ttf
  4

1001
ACAD
1000
Arial
1071
       34
  0
ENDTAB
  0
TABLE
  2
VIEW
  5
6
330
0
100
AcDbSymbolTable
 70
     0
  0
ENDTAB
  0
TABLE
  2
UCS
  5
7
330
0
100
AcDbSymbolTable
 70
     0
  0
ENDTAB
  0
TABLE
  2
APPID
  5
9
330
0
100
AcDbSymbolTable
 70
    15
  0
APPID
  5
10
330
9
100
AcDbSymbolTableRecord
100
AcDbRegAppTableRecord
  2
ACAD
 70
     0
  0
APPID
  5
661B
330
9
100
AcDbSymbolTableRecord
100
AcDbRegAppTableRecord
  2
ACAD_NAV_VCDISPLAY
 70
     0
  0
APPID
  5
6E4D
330
9
100
AcDbSymbolTableRecord
100
AcDbRegAppTableRecord
  2
ACAD_EXEMPT_FROM_CAD_STANDARDS
 70
     0
  0
APPID
  5
6E4E
330
9
100
AcDbSymbolTableRecord
100
AcDbRegAppTableRecord
  2
GradientColor1ACI
 70
     0
  0
APPID
  5
6E4F
330
9
100
AcDbSymbolTableRecord
100
AcDbRegAppTableRecord
  2
GradientColor2ACI
 70
     0
  0
APPID
  5
6E50
330
9
100
AcDbSymbolTableRecord
100
AcDbRegAppTableRecord
  2
ACAD_MLEADERVER
 70
     0
  0
APPID
  5
6E51
330
9
100
AcDbSymbolTableRecord
100
AcDbRegAppTableRecord
  2
ACAD_PSEXT
 70
     0
  0
APPID
  5
6E52
330
9
100
AcDbSymbolTableRecord
100
AcDbRegAppTableRecord
  2
ACAD_DSTYLE_DIMJAG
 70
     0
  0
APPID
  5
6E53
330
9
100
AcDbSymbolTableRecord
100
AcDbRegAppTableRecord
  2
ACAD_DSTYLE_DIMTALN
 70
     0
  0
APPID
  5
6E54
330
9
100
AcDbSymbolTableRecord
100
AcDbRegAppTableRecord
  2
ACAD_DSTYLE_DIMBREAK
 70
     0
  0
APPID
  5
6E55
330
9
100
AcDbSymbolTableRecord
100
AcDbRegAppTableRecord
  2
AcDbDynamicBlockGUID
 70
     0
  0
APPID
  5
6E56
330
9
100
AcDbSymbolTableRecord
100
AcDbRegAppTableRecord
  2
ACAUTHENVIRON
 70
     0
  0
APPID
  5
6E57
330
9
100
AcDbSymbolTableRecord
100
AcDbRegAppTableRecord
  2
AcDbDynamicBlockTrueName
 70
     0
  0
APPID
  5
6E58
330
9
100
AcDbSymbolTableRecord
100
AcDbRegAppTableRecord
  2
AcAecLayerStandard
 70
     0
  0
APPID
  5
6E59
330
9
100
AcDbSymbolTableRecord
100
AcDbRegAppTableRecord
  2
AcCmTransparency
 70
     0
  0
ENDTAB
  0
TABLE
  2
DIMSTYLE
  5
A
330
0
100
AcDbSymbolTable
 70
     1
100
AcDbDimStyleTable
 71
     0
  0
DIMSTYLE
105
26C
330
A
100
AcDbSymbolTableRecord
100
AcDbDimStyleTableRecord
  2
STANDARD
 70
     0
340
F
  0
ENDTAB
  0
TABLE
  2
BLOCK_RECORD
  5
1
330
0
100
AcDbSymbolTable
 70
     1
  0
BLOCK_RECORD
  5
17
102
{ACAD_XDICTIONARY
360
4A11
102
}
330
1
100
AcDbSymbolTableRecord
100
AcDbBlockTableRecord
  2
*MODEL_SPACE
340
485E
  0
BLOCK_RECORD
  5
14
102
{ACAD_XDICTIONARY
360
4A0F
102
}
330
1
100
AcDbSymbolTableRecord
100
AcDbBlockTableRecord
  2
*PAPER_SPACE
340
485F
  0
BLOCK_RECORD
  5
6E5C
102
{ACAD_XDICTIONARY
360
6E66
102
}
330
1
100
AcDbSymbolTableRecord
100
AcDbBlockTableRecord
  2
Kawneer Logo English
340
0
102
{BLKREFS
331
6E6A
102
}
1001
ACAD
1000
DesignCenter Data
1002
{
1070
     1
1070
     1
1002
}
  0
ENDTAB
  0
ENDSEC
  0
SECTION
  2
BLOCKS
  0
BLOCK
  5
3C
330
17
100
AcDbEntity
  8
0
100
AcDbBlockBegin
  2
*MODEL_SPACE
 70
     0
 10
0.0
 20
0.0
 30
0.0
  3
*MODEL_SPACE
  1

  0
ENDBLK
  5
3D
330
17
100
AcDbEntity
  8
0
100
AcDbBlockEnd
  0
BLOCK
  5
3A
330
14
100
AcDbEntity
 67
     1
  8
0
100
AcDbBlockBegin
  2
*PAPER_SPACE
 70
     0
 10
0.0
 20
0.0
 30
0.0
  3
*PAPER_SPACE
  1

  0
ENDBLK
  5
3B
330
14
100
AcDbEntity
 67
     1
  8
0
100
AcDbBlockEnd
  0
BLOCK
  5
6E68
330
6E5C
100
AcDbEntity
  8
0
100
AcDbBlockBegin
  2
Kawneer Logo English
 70
     0
 10
0.0
 20
0.0
 30
0.0
  3
Kawneer Logo English
  1

  0
MTEXT
  5
6E5D
102
{ACAD_XDICTIONARY
360
6F14
102
}
330
6E5C
100
AcDbEntity
  8
Kawneer Logo-English
100
AcDbMText
 10
1.510096758583198
 20
0.0372523876656778
 30
0.0
 40
0.036
 41
0.6125900866323382
 71
     3
 72
     5
  1
{\fArial TUR|b0|i0|c0|p34;\T1.05;AN ARCONIC COMPANY}
 73
     1
 44
1.0
1001
ACAD
1000
ACAD_MTEXT_COLUMN_INFO_BEGIN
1070
    75
1070
     2
1070
    79
1070
     0
1070
    76
1070
     1
1070
    78
1070
     0
1070
    48
1040
0.6125900866323382
1070
    49
1040
1.0
1070
    50
1070
     1
1040
0.0
1000
ACAD_MTEXT_COLUMN_INFO_END
1000
MTEXTBEGIN
1070
    73
1070
     1
1070
    44
1040
1.0
1070
    74
1070
     0
1000
MTEXTEND
  0
HATCH
  5
6E5E
330
6E5C
100
AcDbEntity
  8
Kawneer Logo-English
100
AcDbHatch
 10
0.0
 20
0.0
 30
0.0
210
0.0
220
0.0
230
1.0
  2
SOLID
 70
     1
 71
     0
 91
        1
 92
        1
 93
       81
 72
     1
 10
0.2706169776412204
 20
0.0336337282279411
 11
0.2687512969786691
 21
0.0350329887248546
 72
     1
 10
0.2687512969786696
 20
0.0350329887248547
 11
0.2633408230572721
 21
0.039137486182467
 72
     1
 10
0.2633408230572729
 20
0.0391374861824669
 11
0.2550385441089194
 21
0.0453875164020133
 72
     1
 10
0.2550385441089191
 20
0.0453875164020132
 11
0.2442175962661241
 21
0.053596511317238
 72
     1
 10
0.2442175962661235
 20
0.0535965113172379
 11
0.2314376837276472
 21
0.0632980507625037
 72
     1
 10
0.2314376837276479
 20
0.0632980507625037
 11
0.2172585106922595
 21
0.0741189986052996
 72
     1
 10
0.2172585106922598
 20
0.0741189986052996
 11
0.2019599292593419
 21
0.0856862187131167
 72
     1
 10
0.201959929259341
 20
0.0856862187131167
 11
0.1862882116939105
 21
0.0976265749534437
 72
     1
 10
0.1862882116939102
 20
0.0976265749534437
 11
0.1706164941284813
 21
0.1095669311937706
 72
     1
 10
0.1706164941284811
 20
0.1095669311937709
 11
0.1553179126955632
 21
0.1211341513015875
 72
     1
 10
0.1553179126955642
 20
0.1211341513015876
 11
0.1411387396601757
 21
0.131955099144384
 72
     1
 10
0.1411387396601755
 20
0.1319550991443839
 11
0.1284521111548274
 21
0.141749922622777
 72
     1
 10
0.1284521111548278
 20
0.1417499226227768
 11
0.117631163312031
 21
0.1499589175380016
 72
     1
 10
0.1176311633120304
 20
0.1499589175380017
 11
0.1094221683968068
 21
0.1563022317906752
 72
     1
 10
0.1094221683968062
 20
0.1563022317906754
 11
0.1041049785085351
 21
0.1604067292482882
 72
     1
 10
0.1041049785085351
 20
0.1604067292482878
 11
0.1023325818791119
 21
0.1618992737783286
 72
     1
 10
0.1023325818791116
 20
0.1618992737783289
 11
0.1043848306079176
 21
0.1636716704077524
 72
     1
 10
0.1043848306079194
 20
0.1636716704077524
 11
0.1100751566286996
 21
0.1683358720641301
 72
     1
 10
0.1100751566286986
 20
0.1683358720641301
 11
0.1189371397758159
 21
0.1757053106812067
 72
     1
 10
0.1189371397758161
 20
0.1757053106812067
 11
0.1304110758505067
 21
0.1851269980270901
 72
     1
 10
0.1304110758505059
 20
0.1851269980270902
 11
0.1439372606540007
 21
0.1963210820023967
 72
     1
 10
0.1439372606540017
 20
0.1963210820023967
 11
0.1589559899875385
 21
0.2087278584083611
 72
     1
 10
0.1589559899875379
 20
0.2087278584083611
 11
0.1750941277186041
 21
0.2220674751456017
 72
     1
 10
0.1750941277186047
 20
0.2220674751456017
 11
0.19169868561531
 21
0.2358735120484796
 72
     1
 10
0.1916986856153105
 20
0.2358735120484796
 11
0.208303243512014
 21
0.2495862649182301
 72
     1
 10
0.2083032435120131
 20
0.2495862649182304
 11
0.2244413812430811
 21
0.2628325976223432
 72
     1
 10
0.2244413812430812
 20
0.2628325976223429
 11
0.239460110576618
 21
0.2753326580614352
 72
     1
 10
0.2394601105766174
 20
0.2753326580614351
 11
0.2529862953801122
 21
0.2864334580036143
 72
     1
 10
0.2529862953801132
 20
0.2864334580036143
 11
0.2643669474216756
 21
0.2958551453494973
 72
     1
 10
0.2643669474216757
 20
0.2958551453494973
 11
0.2731356465356649
 21
0.3031312999334466
 72
     1
 10
0.273135646535664
 20
0.3031312999334466
 11
0.2788259725564443
 21
0.3077955015898243
 72
     1
 10
0.278825972556445
 20
0.3077955015898246
 11
0.2807849372521245
 21
0.3094746141861208
 72
     1
 10
0.2807849372521249
 20
0.3094746141861205
 11
0.2798520969208501
 21
0.3094746141861205
 72
     1
 10
0.2798520969208496
 20
0.3094746141861205
 11
0.2769602918938953
 21
0.3095678982192478
 72
     1
 10
0.2769602918938943
 20
0.3095678982192481
 11
0.2724826583037715
 21
0.3095678982192481
 72
     1
 10
0.2724826583037729
 20
0.3095678982192481
 11
0.2666057642167363
 21
0.3095678982192481
 72
     1
 10
0.266605764216735
 20
0.3095678982192481
 11
0.2597027457652953
 21
0.3095678982192481
 72
     1
 10
0.2597027457652956
 20
0.3095678982192481
 11
0.2519601710157094
 21
0.3095678982192481
 72
     1
 10
0.2519601710157104
 20
0.3095678982192481
 11
0.2437511761004851
 21
0.3095678982192481
 72
     1
 10
0.243751176100484
 20
0.3095678982192481
 11
0.2351690450527495
 21
0.3095678982192481
 72
     1
 10
0.2351690450527495
 20
0.3095678982192481
 11
0.2266801980381413
 21
0.3095678982192481
 72
     1
 10
0.2266801980381423
 20
0.3095678982192481
 11
0.2183779190897905
 21
0.3094746141861208
 72
     1
 10
0.2183779190897899
 20
0.3094746141861205
 11
0.2106353443402037
 21
0.3094746141861205
 72
     1
 10
0.2106353443402029
 20
0.3094746141861205
 11
0.2037323258887632
 21
0.3094746141861205
 72
     1
 10
0.203732325888764
 20
0.3094746141861205
 11
0.1978554318017273
 21
0.3094746141861205
 72
     1
 10
0.1978554318017278
 20
0.3094746141861205
 11
0.1932845141784786
 21
0.3094746141861205
 72
     1
 10
0.1932845141784787
 20
0.3094746141861205
 11
0.1903927091515244
 21
0.3094746141861205
 72
     1
 10
0.1903927091515234
 20
0.3094746141861205
 11
0.1893665847871204
 21
0.3094746141861205
 72
     1
 10
0.1893665847871206
 20
0.3094746141861205
 11
0.1879673242902067
 21
0.3077955015898243
 72
     1
 10
0.1879673242902076
 20
0.3077955015898246
 11
0.1841426789319786
 21
0.3030380159003196
 72
     1
 10
0.1841426789319787
 20
0.3030380159003192
 11
0.1780792167786874
 21
0.29576186131637
 72
     1
 10
0.1780792167786873
 20
0.29576186131637
 11
0.170243357995973
 21
0.2862468899373593
 72
     1
 10
0.170243357995973
 20
0.2862468899373593
 11
0.1610082387163447
 21
0.2750528059620528
 72
     1
 10
0.1610082387163438
 20
0.2750528059620528
 11
0.1507469950723126
 21
0.2624594614898328
 72
     1
 10
0.1507469950723133
 20
0.2624594614898328
 11
0.1396461951301336
 21
0.2491198447525922
 72
     1
 10
0.1396461951301333
 20
0.2491198447525922
 11
0.1282655430885727
 21
0.2352205238165866
 72
     1
 10
0.1282655430885726
 20
0.2352205238165868
 11
0.1168848910470102
 21
0.2214144869137089
 72
     1
 10
0.1168848910470102
 20
0.2214144869137087
 11
0.1058773751379587
 21
0.2079815861433408
 72
     1
 10
0.105877375137958
 20
0.2079815861433408
 11
0.0955228474608004
 21
0.1954815257042486
 72
     1
 10
0.0955228474608019
 20
0.1954815257042488
 11
0.0862877281811736
 21
0.1842874417289424
 72
     1
 10
0.0862877281811727
 20
0.1842874417289424
 11
0.0784518693984583
 21
0.1747724703499316
 72
     1
 10
0.0784518693984584
 20
0.1747724703499314
 11
0.0723884072451672
 21
0.1674963157659821
 72
     1
 10
0.0723884072451671
 20
0.1674963157659822
 11
0.0685637618869363
 21
0.1627388300764767
 72
     1
 10
0.0685637618869364
 20
0.1627388300764767
 11
0.0671645013900242
 21
0.1611530015133082
 72
     1
 10
0.0671645013900251
 20
0.1611530015133082
 11
0.0680040576881734
 21
0.1596604569832674
 72
     1
 10
0.0680040576881726
 20
0.1596604569832674
 11
0.0704294425494878
 21
0.1556492435587824
 72
     1
 10
0.0704294425494871
 20
0.1556492435587824
 11
0.0742540879077179
 21
0.1493059293061089
 72
     1
 10
0.0742540879077192
 20
0.1493059293061089
 11
0.0791048576303511
 21
0.1411902184240116
 72
     1
 10
0.0791048576303508
 20
0.1411902184240116
 11
0.0848884676842594
 21
0.1314886789787458
 72
     1
 10
0.0848884676842596
 20
0.1314886789787459
 11
0.0913250659700619
 21
0.1207610151690772
 72
     1
 10
0.0913250659700613
 20
0.1207610151690775
 11
0.0982280844214992
 21
0.1091937950612604
 72
     1
 10
0.0982280844214985
 20
0.1091937950612603
 11
0.1053176709391927
 21
0.0973467228540611
 72
     1
 10
0.105317670939193
 20
0.0973467228540612
 11
0.1124072574568872
 21
0.0854996506468619
 72
     1
 10
0.1124072574568871
 20
0.0854996506468617
 11
0.1193102759083267
 21
0.0739324305390446
 72
     1
 10
0.1193102759083278
 20
0.0739324305390448
 11
0.1257468741941283
 21
0.0632047667293762
 72
     1
 10
0.1257468741941277
 20
0.063204766729376
 11
0.1315304842480362
 21
0.0535032272841102
 72
     1
 10
0.1315304842480365
 20
0.0535032272841104
 11
0.1363812539706702
 21
0.0453875164020132
 72
     1
 10
0.1363812539706699
 20
0.0453875164020132
 11
0.1402058993288989
 21
0.0391374861824667
 72
     1
 10
0.1402058993288988
 20
0.0391374861824669
 11
0.1426312841902157
 21
0.0350329887248546
 72
     1
 10
0.1426312841902164
 20
0.0350329887248547
 11
0.1434708404883648
 21
0.0336337282279412
 72
     1
 10
0.143470840488364
 20
0.0336337282279411
 11
0.2706169776412211
 21
0.0336337282279411
 97
        0
 75
     0
 76
     1
 98
        1
 10
-0.3743130907707726
 20
-0.2500502867693841
1001
ACAD
1010
0.0
1020
0.0
1030
0.0
  0
HATCH
  5
6E5F
330
6E5C
100
AcDbEntity
  8
Kawneer Logo-English
100
AcDbHatch
 10
0.0
 20
0.0
 30
0.0
210
0.0
220
0.0
230
1.0
  2
SOLID
 70
     1
 71
     0
 91
        1
 92
        1
 93
       18
 72
     1
 10
0.0001865656044393
 20
0.2563959993365415
 11
-0.0000000024618153
 21
0.113671428651383
 72
     1
 10
-0.0000000024618159
 20
0.1136714286513832
 11
0.0012126899688416
 21
0.1152572572145516
 72
     1
 10
0.0012126899688421
 20
0.1152572572145516
 11
0.0045709151614355
 21
0.1197348908046738
 72
     1
 10
0.004570915161435
 20
0.119734890804674
 11
0.0098881050497044
 21
0.1268244773223682
 72
     1
 10
0.0098881050497044
 20
0.1268244773223682
 11
0.0166978394680158
 21
0.1359663125688683
 72
     1
 10
0.016697839468016
 20
0.1359663125688683
 11
0.0248135503501131
 21
0.1467872604116651
 72
     1
 10
0.024813550350113
 20
0.1467872604116652
 11
0.0338621015634867
 21
0.1588209006851195
 72
     1
 10
0.0338621015634872
 20
0.1588209006851194
 11
0.0434703569756247
 21
0.1716940972567221
 72
     1
 10
0.0434703569756247
 20
0.1716940972567224
 11
0.0534517485202732
 21
0.1850337139939626
 72
     1
 10
0.0534517485202724
 20
0.1850337139939624
 11
0.0634331400649208
 21
0.1983733307312025
 72
     1
 10
0.0634331400649222
 20
0.1983733307312024
 11
0.0730413954770597
 21
0.2112465273028051
 72
     1
 10
0.0730413954770595
 20
0.2112465273028053
 11
0.0820899466904331
 21
0.2233734516093873
 72
     1
 10
0.0820899466904321
 20
0.2233734516093873
 11
0.0902056575725293
 21
0.2341943994521837
 72
     1
 10
0.0902056575725308
 20
0.2341943994521837
 11
0.0970153919908422
 21
0.2433362346986839
 72
     1
 10
0.0970153919908405
 20
0.2433362346986839
 11
0.1022392978459834
 21
0.2503325371832507
 72
     1
 10
0.1022392978459843
 20
0.2503325371832508
 11
0.1056908070717041
 21
0.2549034548065008
 72
     1
 10
0.1056908070717046
 20
0.254903454806501
 11
0.1069034995023621
 21
0.2564892833696694
 72
     1
 10
0.1069034995023625
 20
0.2564892833696695
 11
0.0001865656044399
 21
0.2563959993365418
 97
        0
 75
     0
 76
     1
 98
        1
 10
-0.3743130907707726
 20
-0.2500502867693841
1001
ACAD
1010
0.0
1020
0.0
1030
0.0
  0
HATCH
  5
6E60
330
6E5C
100
AcDbEntity
  8
Kawneer Logo-English
100
AcDbHatch
 10
0.0
 20
0.0
 30
0.0
210
0.0
220
0.0
230
1.0
  2
SOLID
 70
     1
 71
     0
 91
        2
 92
       16
 93
       76
 72
     1
 10
1.358402087941634
 20
0.1650709309046659
 11
1.358402087941634
 21
0.16796273593162
 72
     1
 10
1.358402087941634
 20
0.1679627359316202
 11
1.358402087941634
 21
0.1729067896873803
 72
     1
 10
1.358402087941634
 20
0.1729067896873803
 11
1.358402087941634
 21
0.1791568199069267
 72
     1
 10
1.358402087941634
 20
0.1791568199069267
 11
1.358402087941634
 21
0.1861531223914932
 72
     1
 10
1.358402087941634
 20
0.186153122391493
 11
1.358402087941634
 21
0.1931494248760595
 72
     1
 10
1.358402087941634
 20
0.1931494248760596
 11
1.358402087941634
 21
0.1994927391287338
 72
     1
 10
1.358402087941634
 20
0.1994927391287336
 11
1.358402087941634
 21
0.2044367928844937
 72
     1
 10
1.358402087941634
 20
0.2044367928844937
 11
1.358402087941634
 21
0.2072353138783208
 72
     1
 10
1.358402087941634
 20
0.2072353138783208
 11
1.359894632471676
 21
0.2072353138783208
 72
     1
 10
1.359894632471676
 20
0.2072353138783208
 11
1.362693153465502
 21
0.2072353138783208
 72
     1
 10
1.362693153465502
 20
0.2072353138783208
 11
1.366424514790605
 21
0.2072353138783208
 72
     1
 10
1.366424514790606
 20
0.2072353138783208
 11
1.371088716446983
 21
0.2072353138783208
 72
     1
 10
1.371088716446982
 20
0.2072353138783208
 11
1.376405906335254
 21
0.2072353138783208
 72
     1
 10
1.376405906335254
 20
0.2072353138783208
 11
1.382282800422289
 21
0.2072353138783208
 72
     1
 10
1.38228280042229
 20
0.2072353138783208
 11
1.388346262575581
 21
0.2072353138783208
 72
     1
 10
1.388346262575579
 20
0.2072353138783208
 11
1.394596292795125
 21
0.2072353138783208
 72
     1
 10
1.394596292795125
 20
0.2072353138783208
 11
1.400753038981545
 21
0.2072353138783208
 72
     1
 10
1.400753038981546
 20
0.2072353138783208
 11
1.406723217101709
 21
0.2072353138783208
 72
     1
 10
1.406723217101708
 20
0.2072353138783208
 11
1.412320259089362
 21
0.2072353138783208
 72
     1
 10
1.412320259089362
 20
0.2072353138783208
 11
1.417264312845122
 21
0.2072353138783208
 72
     1
 10
1.417264312845123
 20
0.2072353138783208
 11
1.421368810302735
 21
0.2072353138783208
 72
     1
 10
1.421368810302734
 20
0.2072353138783208
 11
1.424540467429071
 21
0.2072353138783208
 72
     1
 10
1.424540467429072
 20
0.2072353138783208
 11
1.426592716157878
 21
0.2072353138783208
 72
     1
 10
1.426592716157878
 20
0.2072353138783208
 11
1.427338988422898
 21
0.2072353138783208
 72
     1
 10
1.427338988422898
 20
0.2072353138783208
 11
1.430977065714873
 21
0.207142029845193
 72
     1
 10
1.430977065714872
 20
0.207142029845193
 11
1.434335290907465
 21
0.2068621777458102
 72
     1
 10
1.434335290907465
 20
0.2068621777458102
 11
1.435921119470633
 21
0.2066756096795552
 72
     1
 10
1.435921119470633
 20
0.206675609679555
 11
1.437413664000673
 21
0.2063957575801723
 72
     1
 10
1.437413664000674
 20
0.2063957575801723
 11
1.438906208530714
 21
0.2061159054807895
 72
     1
 10
1.438906208530714
 20
0.2061159054807898
 11
1.440398753060756
 21
0.2056494853151523
 72
     1
 10
1.440398753060756
 20
0.2056494853151521
 11
1.441704729524542
 21
0.2050897811163865
 72
     1
 10
1.441704729524542
 20
0.2050897811163866
 11
1.443010705988328
 21
0.204530076917621
 72
     1
 10
1.443010705988329
 20
0.204530076917621
 11
1.444223398418986
 21
0.2036905206194736
 72
     1
 10
1.444223398418985
 20
0.2036905206194736
 11
1.445436090849643
 21
0.2028509643213252
 72
     1
 10
1.445436090849643
 20
0.2028509643213252
 11
1.446555499247174
 21
0.2018248399569224
 72
     1
 10
1.446555499247173
 20
0.2018248399569223
 11
1.447581623611576
 21
0.2007054315593917
 72
     1
 10
1.447581623611578
 20
0.2007054315593915
 11
1.448607747975981
 21
0.1993061710624781
 72
     1
 10
1.448607747975981
 20
0.1993061710624781
 11
1.449540588307258
 21
0.1978136265324374
 72
     1
 10
1.449540588307256
 20
0.1978136265324373
 11
1.450380144605403
 21
0.1961345139361415
 72
     1
 10
1.450380144605404
 20
0.1961345139361415
 11
1.451126416870426
 21
0.1944554013398453
 72
     1
 10
1.451126416870426
 20
0.1944554013398454
 11
1.451592837036063
 21
0.1929628568098046
 72
     1
 10
1.451592837036062
 20
0.1929628568098046
 11
1.451965973168573
 21
0.1913770282466361
 72
     1
 10
1.451965973168574
 20
0.1913770282466361
 11
1.452245825267955
 21
0.1899777677497231
 72
     1
 10
1.452245825267954
 20
0.1899777677497231
 11
1.452432393334211
 21
0.188671791285937
 72
     1
 10
1.452432393334211
 20
0.1886717912859369
 11
1.452432393334211
 21
0.1874590988552789
 72
     1
 10
1.452432393334211
 20
0.1874590988552789
 11
1.452525677367338
 21
0.1863396904577482
 72
     1
 10
1.452525677367337
 20
0.1863396904577481
 11
1.452432393334211
 21
0.1844740097951972
 72
     1
 10
1.452432393334211
 20
0.1844740097951974
 11
1.452245825267955
 21
0.1827948971989012
 72
     1
 10
1.452245825267954
 20
0.1827948971989009
 11
1.451872689135445
 21
0.1810225005694773
 72
     1
 10
1.451872689135446
 20
0.1810225005694774
 11
1.451406268969809
 21
0.1794366720063093
 72
     1
 10
1.451406268969809
 20
0.1794366720063094
 11
1.450846564771043
 21
0.1779441274762682
 72
     1
 10
1.450846564771041
 20
0.1779441274762681
 11
1.450100292506021
 21
0.1764515829462274
 72
     1
 10
1.450100292506023
 20
0.1764515829462275
 11
1.449260736207875
 21
0.1750523224493141
 72
     1
 10
1.449260736207873
 20
0.1750523224493139
 11
1.448327895876597
 21
0.1737463459855283
 72
     1
 10
1.448327895876596
 20
0.1737463459855281
 11
1.44702191941281
 21
0.1723470854886151
 72
     1
 10
1.447021919412811
 20
0.1723470854886151
 11
1.445715942949025
 21
0.1711343930579568
 72
     1
 10
1.445715942949026
 20
0.1711343930579568
 11
1.444316682452114
 21
0.1700149846604262
 72
     1
 10
1.444316682452114
 20
0.1700149846604259
 11
1.442824137922072
 21
0.168988860296023
 72
     1
 10
1.442824137922072
 20
0.168988860296023
 11
1.441238309358904
 21
0.1682425880310024
 72
     1
 10
1.441238309358902
 20
0.1682425880310024
 11
1.439559196762608
 21
0.1674963157659821
 72
     1
 10
1.439559196762608
 20
0.1674963157659822
 11
1.437880084166311
 21
0.1669366115672166
 72
     1
 10
1.437880084166311
 20
0.1669366115672167
 11
1.436107687536888
 21
0.1664701914015788
 72
     1
 10
1.436107687536888
 20
0.1664701914015789
 11
1.434242006874337
 21
0.166003771235941
 72
     1
 10
1.434242006874337
 20
0.1660037712359412
 11
1.432376326211786
 21
0.1657239191365588
 72
     1
 10
1.432376326211785
 20
0.1657239191365585
 11
1.430417361516107
 21
0.1655373510703035
 72
     1
 10
1.430417361516108
 20
0.1655373510703037
 11
1.428458396820429
 21
0.1653507830040482
 72
     1
 10
1.428458396820428
 20
0.1653507830040482
 11
1.424353899362817
 21
0.1651642149377932
 72
     1
 10
1.424353899362817
 20
0.1651642149377932
 11
1.420156117872077
 21
0.1650709309046658
 72
     1
 10
1.420156117872076
 20
0.1650709309046659
 11
1.41773073301076
 21
0.1650709309046659
 72
     1
 10
1.417730733010761
 20
0.1650709309046659
 11
1.411107566658704
 21
0.1650709309046659
 72
     1
 10
1.411107566658702
 20
0.1650709309046659
 11
1.401779163345947
 21
0.1650709309046659
 72
     1
 10
1.401779163345949
 20
0.1650709309046659
 11
1.390958215503152
 21
0.1650709309046659
 72
     1
 10
1.390958215503152
 20
0.1650709309046659
 11
1.379950699594101
 21
0.1650709309046659
 72
     1
 10
1.379950699594099
 20
0.1650709309046659
 11
1.369969308049451
 21
0.1650709309046659
 72
     1
 10
1.369969308049451
 20
0.1650709309046659
 11
1.362320017332992
 21
0.1650709309046659
 72
     1
 10
1.362320017332992
 20
0.1650709309046659
 11
1.358402087941635
 21
0.1650709309046659
 97
        0
 92
        1
 93
      107
 72
     1
 10
1.443756978253348
 20
0.1485596570410883
 11
1.446928635379685
 21
0.1492126452729816
 72
     1
 10
1.446928635379685
 20
0.1492126452729817
 11
1.449540588307256
 21
0.1498656335048746
 72
     1
 10
1.449540588307256
 20
0.1498656335048745
 11
1.451872689135445
 21
0.1506119057698948
 72
     1
 10
1.451872689135446
 20
0.1506119057698946
 11
1.45401822189738
 21
0.1514514620680426
 72
     1
 10
1.45401822189738
 20
0.1514514620680425
 11
1.455883902559929
 21
0.1521977343330632
 72
     1
 10
1.455883902559929
 20
0.1521977343330631
 11
1.457563015156225
 21
0.1530372906312111
 72
     1
 10
1.457563015156225
 20
0.1530372906312111
 11
1.459148843719394
 21
0.1539701309624869
 72
     1
 10
1.459148843719394
 20
0.1539701309624866
 11
1.460641388249434
 21
0.1549029712937624
 72
     1
 10
1.460641388249434
 20
0.1549029712937622
 11
1.462133932779476
 21
0.155835811625038
 72
     1
 10
1.462133932779476
 20
0.155835811625038
 11
1.463439909243262
 21
0.1568619359894408
 72
     1
 10
1.463439909243262
 20
0.1568619359894408
 11
1.464745885707048
 21
0.1579813443869714
 72
     1
 10
1.464745885707047
 20
0.1579813443869716
 11
1.465865294104579
 21
0.1591007527845022
 72
     1
 10
1.465865294104579
 20
0.1591007527845025
 11
1.466984702502109
 21
0.1602201611820331
 72
     1
 10
1.466984702502108
 20
0.1602201611820328
 11
1.468010826866511
 21
0.1613395695795634
 72
     1
 10
1.468010826866511
 20
0.1613395695795637
 11
1.468943667197788
 21
0.1625522620102216
 72
     1
 10
1.468943667197788
 20
0.1625522620102216
 11
1.469876507529063
 21
0.1636716704077522
 72
     1
 10
1.469876507529063
 20
0.1636716704077524
 11
1.470622779794084
 21
0.1648843628384107
 72
     1
 10
1.470622779794084
 20
0.1648843628384107
 11
1.471462336092232
 21
0.1661903393021964
 72
     1
 10
1.471462336092232
 20
0.1661903393021967
 11
1.472115324324125
 21
0.1674030317328546
 72
     1
 10
1.472115324324124
 20
0.1674030317328546
 11
1.472768312556016
 21
0.1686157241635125
 72
     1
 10
1.472768312556017
 20
0.1686157241635125
 11
1.473328016754783
 21
0.1699217006272986
 72
     1
 10
1.473328016754782
 20
0.1699217006272989
 11
1.47379443692042
 21
0.1711343930579568
 72
     1
 10
1.47379443692042
 20
0.1711343930579568
 11
1.474260857086057
 21
0.1724403695217425
 72
     1
 10
1.474260857086058
 20
0.1724403695217424
 11
1.474727277251697
 21
0.1736530619524008
 72
     1
 10
1.474727277251697
 20
0.173653061952401
 11
1.475380265483589
 21
0.1760784468137175
 72
     1
 10
1.475380265483588
 20
0.1760784468137173
 11
1.475846685649225
 21
0.1785038316750338
 72
     1
 10
1.475846685649226
 20
0.1785038316750335
 11
1.476219821781737
 21
0.1808359325032223
 72
     1
 10
1.476219821781738
 20
0.1808359325032223
 11
1.47649967388112
 21
0.1830747492982838
 72
     1
 10
1.47649967388112
 20
0.1830747492982838
 11
1.476592957914248
 21
0.1851269980270901
 72
     1
 10
1.476592957914248
 20
0.1851269980270902
 11
1.476686241947374
 21
0.1870859627227688
 72
     1
 10
1.476686241947375
 20
0.1870859627227687
 11
1.476592957914249
 21
0.1888583593521923
 72
     1
 10
1.476592957914248
 20
0.1888583593521922
 11
1.476499673881119
 21
0.1906307559816158
 72
     1
 10
1.47649967388112
 20
0.1906307559816159
 11
1.476406389847991
 21
0.1924031526110394
 72
     1
 10
1.476406389847991
 20
0.1924031526110394
 11
1.476126537748608
 21
0.1940822652073352
 72
     1
 10
1.476126537748608
 20
0.1940822652073352
 11
1.475846685649226
 21
0.195761377803631
 72
     1
 10
1.475846685649226
 20
0.1957613778036309
 11
1.475566833549843
 21
0.1974404903999272
 72
     1
 10
1.475566833549843
 20
0.1974404903999272
 11
1.475100413384206
 21
0.1990263189630953
 72
     1
 10
1.475100413384205
 20
0.1990263189630952
 11
1.474633993218568
 21
0.2006121475262637
 72
     1
 10
1.474633993218568
 20
0.2006121475262639
 11
1.47416757305293
 21
0.2021046920563051
 72
     1
 10
1.474167573052932
 20
0.2021046920563049
 11
1.473514584821038
 21
0.2035972365863457
 72
     1
 10
1.473514584821037
 20
0.2035972365863459
 11
1.472954880622271
 21
0.2050897811163867
 72
     1
 10
1.472954880622272
 20
0.2050897811163866
 11
1.472208608357252
 21
0.2064890416133
 72
     1
 10
1.472208608357252
 20
0.2064890416133001
 11
1.471462336092232
 21
0.2078883021102135
 72
     1
 10
1.471462336092232
 20
0.2078883021102136
 11
1.470622779794083
 21
0.2091942785739993
 72
     1
 10
1.470622779794084
 20
0.2091942785739991
 11
1.469783223495935
 21
0.2105002550377848
 72
     1
 10
1.469783223495934
 20
0.2105002550377851
 11
1.468850383164659
 21
0.2118062315015707
 72
     1
 10
1.468850383164661
 20
0.2118062315015709
 11
1.467917542833386
 21
0.2130189239322288
 72
     1
 10
1.467917542833385
 20
0.2130189239322289
 11
1.466891418468982
 21
0.2141383323297595
 72
     1
 10
1.466891418468982
 20
0.2141383323297595
 11
1.465772010071451
 21
0.2153510247604178
 72
     1
 10
1.46577201007145
 20
0.215351024760418
 11
1.464652601673919
 21
0.2163771491248209
 72
     1
 10
1.46465260167392
 20
0.2163771491248209
 11
1.463533193276389
 21
0.2174032734892238
 72
     1
 10
1.463533193276389
 20
0.2174032734892238
 11
1.462227216812603
 21
0.2184293978536266
 72
     1
 10
1.462227216812602
 20
0.2184293978536266
 11
1.461014524381945
 21
0.2193622381849024
 72
     1
 10
1.461014524381946
 20
0.2193622381849023
 11
1.459615263885032
 21
0.2202950785161781
 72
     1
 10
1.459615263885031
 20
0.2202950785161782
 11
1.458309287421245
 21
0.2211346348143262
 72
     1
 10
1.458309287421246
 20
0.221134634814326
 11
1.456816742891206
 21
0.221974191112474
 72
     1
 10
1.456816742891206
 20
0.2219741911124738
 11
1.455417482394292
 21
0.2227204633774945
 72
     1
 10
1.455417482394291
 20
0.2227204633774944
 11
1.453831653831122
 21
0.2233734516093874
 72
     1
 10
1.453831653831123
 20
0.2233734516093873
 11
1.452339109301082
 21
0.2240264398412803
 72
     1
 10
1.452339109301082
 20
0.2240264398412803
 11
1.450659996704785
 21
0.2245861440400459
 72
     1
 10
1.450659996704787
 20
0.2245861440400457
 11
1.44907416814162
 21
0.2251458482388108
 72
     1
 10
1.449074168141619
 20
0.2251458482388109
 11
1.447301771512194
 21
0.2256122684044489
 72
     1
 10
1.447301771512194
 20
0.2256122684044488
 11
1.445249522783388
 21
0.2261719726032139
 72
     1
 10
1.445249522783388
 20
0.226171972603214
 11
1.44329055808771
 21
0.2265451087357246
 72
     1
 10
1.443290558087712
 20
0.2265451087357244
 11
1.441145025325778
 21
0.2269182448682345
 72
     1
 10
1.441145025325776
 20
0.2269182448682345
 11
1.438906208530714
 21
0.2271980969676173
 72
     1
 10
1.438906208530714
 20
0.2271980969676173
 11
1.436387539636271
 21
0.2273846650338724
 72
     1
 10
1.436387539636271
 20
0.2273846650338724
 11
1.433495734609316
 21
0.2275712331001274
 72
     1
 10
1.433495734609317
 20
0.2275712331001274
 11
1.430044225383597
 21
0.2276645171332552
 72
     1
 10
1.430044225383597
 20
0.2276645171332549
 11
1.42612629599224
 21
0.2277578011663822
 72
     1
 10
1.42612629599224
 20
0.2277578011663825
 11
1.426033011959112
 21
0.2277578011663825
 72
     1
 10
1.426033011959111
 20
0.2277578011663825
 11
1.33489451159349
 21
0.2277578011663825
 72
     1
 10
1.334894511593491
 20
0.2277578011663825
 11
1.334894511593491
 21
0.0926825211976832
 72
     1
 10
1.334894511593491
 20
0.0926825211976832
 11
1.358588656007891
 21
0.0926825211976832
 72
     1
 10
1.358588656007891
 20
0.0926825211976832
 11
1.358588656007891
 21
0.0947347699264896
 72
     1
 10
1.358588656007891
 20
0.0947347699264896
 11
1.358588656007891
 21
0.1001452438478876
 72
     1
 10
1.358588656007891
 20
0.1001452438478875
 11
1.358588656007891
 21
0.1079811026306024
 72
     1
 10
1.358588656007891
 20
0.1079811026306024
 11
1.358588656007891
 21
0.1170296538439752
 72
     1
 10
1.358588656007891
 20
0.1170296538439753
 11
1.358588656007891
 21
0.1262647731236032
 72
     1
 10
1.358588656007891
 20
0.1262647731236031
 11
1.358588656007891
 21
0.1347536201382103
 72
     1
 10
1.358588656007891
 20
0.1347536201382104
 11
1.358588656007891
 21
0.1412835024571394
 72
     1
 10
1.358588656007891
 20
0.1412835024571393
 11
1.358588656007891
 21
0.1448282957159864
 72
     1
 10
1.358588656007891
 20
0.1448282957159865
 11
1.362320017332992
 21
0.1448282957159865
 72
     1
 10
1.362320017332992
 20
0.1448282957159865
 11
1.369409603850688
 21
0.1448282957159865
 72
     1
 10
1.369409603850688
 20
0.1448282957159865
 11
1.378738007163443
 21
0.1448282957159865
 72
     1
 10
1.378738007163443
 20
0.1448282957159865
 11
1.388999250807475
 21
0.1448282957159865
 72
     1
 10
1.388999250807473
 20
0.1448282957159865
 11
1.399260494451505
 21
0.1448282957159865
 72
     1
 10
1.399260494451506
 20
0.1448282957159865
 11
1.408215761631749
 21
0.1448282957159865
 72
     1
 10
1.408215761631748
 20
0.1448282957159865
 11
1.414745643950677
 21
0.1448282957159865
 72
     1
 10
1.414745643950678
 20
0.1448282957159865
 11
1.41773073301076
 21
0.1448282957159865
 72
     1
 10
1.417730733010761
 20
0.1448282957159865
 11
1.420062833838949
 21
0.1420297747221594
 72
     1
 10
1.420062833838949
 20
0.1420297747221597
 11
1.425193455660966
 21
0.1359663125688683
 72
     1
 10
1.425193455660965
 20
0.1359663125688683
 11
1.432283042178659
 21
0.1275707495873888
 72
     1
 10
1.432283042178659
 20
0.1275707495873886
 11
1.440305469027628
 21
0.1180557782083779
 72
     1
 10
1.440305469027629
 20
0.1180557782083781
 11
1.448234611843471
 21
0.1087273748956225
 72
     1
 10
1.448234611843471
 20
0.1087273748956225
 11
1.455044346261782
 21
0.1006116640135252
 72
     1
 10
1.455044346261782
 20
0.1006116640135252
 11
1.459895115984414
 21
0.0948280539596167
 72
     1
 10
1.459895115984414
 20
0.0948280539596169
 11
1.461760796646965
 21
0.0926825211976832
 72
     1
 10
1.461760796646967
 20
0.0926825211976832
 11
1.49254452757906
 21
0.0926825211976832
 72
     1
 10
1.492544527579059
 20
0.0926825211976832
 11
1.490678846916508
 21
0.0948280539596169
 72
     1
 10
1.490678846916508
 20
0.0948280539596169
 11
1.48564150912762
 21
0.100518379980398
 72
     1
 10
1.48564150912762
 20
0.1005183799803981
 11
1.478458638576797
 21
0.1088206589287502
 72
     1
 10
1.478458638576798
 20
0.1088206589287502
 11
1.470063075595318
 21
0.1183356303077609
 72
     1
 10
1.470063075595317
 20
0.118335630307761
 11
1.461480944547582
 21
0.1282237378192818
 72
     1
 10
1.461480944547582
 20
0.1282237378192818
 11
1.453551801731739
 21
0.1372722890326546
 72
     1
 10
1.45355180173174
 20
0.1372722890326546
 11
1.447395055545323
 21
0.1444551595834761
 72
     1
 10
1.447395055545323
 20
0.1444551595834759
 11
1.443756978253349
 21
0.1485596570410882
 97
        0
 75
     0
 76
     1
 98
        1
 10
-0.3743130907707726
 20
-0.2500502867693841
1001
ACAD
1010
0.0
1020
0.0
1030
0.0
  0
HATCH
  5
6E61
330
6E5C
100
AcDbEntity
  8
Kawneer Logo-English
100
AcDbHatch
 10
0.0
 20
0.0
 30
0.0
210
0.0
220
0.0
230
1.0
  2
SOLID
 70
     1
 71
     0
 91
        1
 92
        1
 93
       87
 72
     1
 10
1.205602841678699
 20
0.1525708704655737
 11
1.207468522341251
 21
0.1525708704655737
 72
     1
 10
1.207468522341252
 20
0.1525708704655737
 11
1.211199883666355
 21
0.1525708704655737
 72
     1
 10
1.211199883666355
 20
0.1525708704655737
 11
1.216517073554626
 21
0.1525708704655737
 72
     1
 10
1.216517073554626
 20
0.1525708704655737
 11
1.223046955873555
 21
0.1525708704655737
 72
     1
 10
1.223046955873553
 20
0.1525708704655737
 11
1.230602962556885
 21
0.1525708704655737
 72
     1
 10
1.230602962556885
 20
0.1525708704655737
 11
1.238998525538365
 21
0.1525708704655737
 72
     1
 10
1.238998525538365
 20
0.1525708704655737
 11
1.247767224652354
 21
0.1525708704655737
 72
     1
 10
1.247767224652355
 20
0.1525708704655737
 11
1.256815775865728
 21
0.1525708704655737
 72
     1
 10
1.256815775865729
 20
0.1525708704655737
 11
1.265771043045974
 21
0.1525708704655737
 72
     1
 10
1.265771043045973
 20
0.1525708704655737
 11
1.274446458126836
 21
0.1525708704655737
 72
     1
 10
1.274446458126837
 20
0.1525708704655737
 11
1.282562169008935
 21
0.1525708704655737
 72
     1
 10
1.282562169008935
 20
0.1525708704655737
 11
1.289745039559756
 21
0.1525708704655737
 72
     1
 10
1.289745039559755
 20
0.1525708704655737
 11
1.295808501713046
 21
0.1525708704655737
 72
     1
 10
1.295808501713046
 20
0.1525708704655737
 11
1.300472703369423
 21
0.1525708704655737
 72
     1
 10
1.300472703369423
 20
0.1525708704655737
 11
1.303457792429505
 21
0.1525708704655737
 72
     1
 10
1.303457792429505
 20
0.1525708704655737
 11
1.304483916793908
 21
0.1525708704655737
 72
     1
 10
1.304483916793908
 20
0.1525708704655737
 11
1.304483916793908
 21
0.1730000737205081
 72
     1
 10
1.304483916793908
 20
0.1730000737205078
 11
1.303457792429505
 21
0.1730000737205078
 72
     1
 10
1.303457792429505
 20
0.1730000737205078
 11
1.300472703369423
 21
0.1730000737205078
 72
     1
 10
1.300472703369423
 20
0.1730000737205078
 11
1.295808501713045
 21
0.1730000737205078
 72
     1
 10
1.295808501713046
 20
0.1730000737205078
 11
1.289745039559754
 21
0.1730000737205078
 72
     1
 10
1.289745039559755
 20
0.1730000737205078
 11
1.282562169008934
 21
0.1730000737205078
 72
     1
 10
1.282562169008935
 20
0.1730000737205078
 11
1.274446458126837
 21
0.1730000737205078
 72
     1
 10
1.274446458126837
 20
0.1730000737205078
 11
1.265771043045975
 21
0.1730000737205078
 72
     1
 10
1.265771043045973
 20
0.1730000737205078
 11
1.256815775865728
 21
0.1730000737205078
 72
     1
 10
1.256815775865729
 20
0.1730000737205078
 11
1.247767224652355
 21
0.1730000737205078
 72
     1
 10
1.247767224652355
 20
0.1730000737205078
 11
1.238998525538365
 21
0.1730000737205078
 72
     1
 10
1.238998525538365
 20
0.1730000737205078
 11
1.230602962556885
 21
0.1730000737205078
 72
     1
 10
1.230602962556885
 20
0.1730000737205078
 11
1.223046955873553
 21
0.1730000737205078
 72
     1
 10
1.223046955873553
 20
0.1730000737205078
 11
1.216517073554625
 21
0.1730000737205078
 72
     1
 10
1.216517073554626
 20
0.1730000737205078
 11
1.211199883666355
 21
0.1730000737205078
 72
     1
 10
1.211199883666355
 20
0.1730000737205078
 11
1.207468522341252
 21
0.1730000737205078
 72
     1
 10
1.207468522341252
 20
0.1730000737205078
 11
1.205602841678701
 21
0.1730000737205078
 72
     1
 10
1.205602841678699
 20
0.1730000737205078
 11
1.205602841678699
 21
0.1754254585818243
 72
     1
 10
1.205602841678699
 20
0.1754254585818245
 11
1.205602841678699
 21
0.1794366720063095
 72
     1
 10
1.205602841678699
 20
0.1794366720063094
 11
1.205602841678699
 21
0.1843807257620694
 72
     1
 10
1.205602841678699
 20
0.1843807257620694
 11
1.205602841678699
 21
0.1898844837165951
 72
     1
 10
1.205602841678699
 20
0.1898844837165951
 11
1.205602841678699
 21
0.1952949576379935
 72
     1
 10
1.205602841678699
 20
0.1952949576379937
 11
1.205602841678699
 21
0.2003322954268815
 72
     1
 10
1.205602841678699
 20
0.2003322954268814
 11
1.205602841678699
 21
0.2042502248182386
 72
     1
 10
1.205602841678699
 20
0.2042502248182386
 11
1.205602841678699
 21
0.206675609679555
 72
     1
 10
1.205602841678699
 20
0.206675609679555
 11
1.207468522341251
 21
0.206675609679555
 72
     1
 10
1.207468522341252
 20
0.206675609679555
 11
1.211293167699483
 21
0.206675609679555
 72
     1
 10
1.211293167699483
 20
0.206675609679555
 11
1.21670364162088
 21
0.206675609679555
 72
     1
 10
1.216703641620879
 20
0.206675609679555
 11
1.223420092006063
 21
0.206675609679555
 72
     1
 10
1.223420092006064
 20
0.206675609679555
 11
1.231255950788778
 21
0.206675609679555
 72
     1
 10
1.231255950788778
 20
0.206675609679555
 11
1.239744797803386
 21
0.206675609679555
 72
     1
 10
1.239744797803385
 20
0.206675609679555
 11
1.248886633049885
 21
0.206675609679555
 72
     1
 10
1.248886633049885
 20
0.206675609679555
 11
1.258121752329513
 21
0.206675609679555
 72
     1
 10
1.258121752329514
 20
0.206675609679555
 11
1.267356871609143
 21
0.206675609679555
 72
     1
 10
1.267356871609142
 20
0.206675609679555
 11
1.276218854756259
 21
0.206675609679555
 72
     1
 10
1.276218854756259
 20
0.206675609679555
 11
1.284521133704611
 21
0.206675609679555
 72
     1
 10
1.284521133704611
 20
0.206675609679555
 11
1.291890572321688
 21
0.206675609679555
 72
     1
 10
1.291890572321688
 20
0.206675609679555
 11
1.298140602541234
 21
0.206675609679555
 72
     1
 10
1.298140602541234
 20
0.206675609679555
 11
1.30289808823074
 21
0.206675609679555
 72
     1
 10
1.30289808823074
 20
0.206675609679555
 11
1.305976461323949
 21
0.206675609679555
 72
     1
 10
1.305976461323949
 20
0.206675609679555
 11
1.30709586972148
 21
0.206675609679555
 72
     1
 10
1.307095869721479
 20
0.206675609679555
 11
1.307095869721479
 21
0.2277578011663822
 72
     1
 10
1.307095869721479
 20
0.2277578011663825
 11
1.304577200827036
 21
0.2277578011663825
 72
     1
 10
1.304577200827037
 20
0.2277578011663825
 11
1.182188549363684
 21
0.2277578011663825
 72
     1
 10
1.182188549363684
 20
0.2277578011663825
 11
1.182188549363684
 21
0.0926825211976832
 72
     1
 10
1.182188549363684
 20
0.0926825211976832
 11
1.311853355410986
 21
0.0926825211976832
 72
     1
 10
1.311853355410985
 20
0.0926825211976832
 11
1.311853355410985
 21
0.113671428651383
 72
     1
 10
1.311853355410985
 20
0.1136714286513832
 11
1.310733947013454
 21
0.1136714286513832
 72
     1
 10
1.310733947013455
 20
0.1136714286513832
 11
1.307469005853991
 21
0.1136714286513832
 72
     1
 10
1.307469005853991
 20
0.1136714286513832
 11
1.302431668065102
 21
0.1136714286513832
 72
     1
 10
1.302431668065103
 20
0.1136714286513832
 11
1.295901785746174
 21
0.1136714286513832
 72
     1
 10
1.295901785746174
 20
0.1136714286513832
 11
1.288159210996586
 21
0.1136714286513832
 72
     1
 10
1.288159210996587
 20
0.1136714286513832
 11
1.279483795915724
 21
0.1136714286513832
 72
     1
 10
1.279483795915723
 20
0.1136714286513832
 11
1.270155392602968
 21
0.1136714286513832
 72
     1
 10
1.270155392602969
 20
0.1136714286513832
 11
1.260547137190832
 21
0.1136714286513832
 72
     1
 10
1.260547137190831
 20
0.1136714286513832
 11
1.250752313712437
 21
0.1136714286513832
 72
     1
 10
1.250752313712437
 20
0.1136714286513832
 11
1.241330626366554
 21
0.1136714286513832
 72
     1
 10
1.241330626366555
 20
0.1136714286513832
 11
1.23237535918631
 21
0.1136714286513832
 72
     1
 10
1.232375359186308
 20
0.1136714286513832
 11
1.224166364271082
 21
0.1136714286513832
 72
     1
 10
1.224166364271083
 20
0.1136714286513832
 11
1.217170061786517
 21
0.1136714286513832
 72
     1
 10
1.217170061786517
 20
0.1136714286513832
 11
1.211479735765737
 21
0.1136714286513832
 72
     1
 10
1.211479735765737
 20
0.1136714286513832
 11
1.20756180637438
 21
0.1136714286513832
 72
     1
 10
1.207561806374379
 20
0.1136714286513832
 11
1.2056028416787
 21
0.1136714286513832
 72
     1
 10
1.205602841678699
 20
0.1136714286513832
 11
1.205602841678699
 21
0.1163766656120825
 72
     1
 10
1.205602841678699
 20
0.1163766656120823
 11
1.205602841678699
 21
0.1209475832353323
 72
     1
 10
1.205602841678699
 20
0.1209475832353325
 11
1.205602841678699
 21
0.1267311932892411
 72
     1
 10
1.205602841678699
 20
0.1267311932892408
 11
1.205602841678699
 21
0.1330745075419143
 72
     1
 10
1.205602841678699
 20
0.1330745075419144
 11
1.205602841678699
 21
0.1395111058277156
 72
     1
 10
1.205602841678699
 20
0.1395111058277158
 11
1.205602841678699
 21
0.1452947158816239
 72
     1
 10
1.205602841678699
 20
0.145294715881624
 11
1.205602841678699
 21
0.1498656335048746
 72
     1
 10
1.205602841678699
 20
0.1498656335048745
 11
1.205602841678699
 21
0.1525708704655738
 97
        0
 75
     0
 76
     1
 98
        1
 10
-0.3743130907707726
 20
-0.2500502867693841
1001
ACAD
1010
0.0
1020
0.0
1030
0.0
  0
HATCH
  5
6E62
330
6E5C
100
AcDbEntity
  8
Kawneer Logo-English
100
AcDbHatch
 10
0.0
 20
0.0
 30
0.0
210
0.0
220
0.0
230
1.0
  2
SOLID
 70
     1
 71
     0
 91
        1
 92
        1
 93
       87
 72
     1
 10
1.049352086190046
 20
0.1525708704655737
 11
1.051217766852597
 21
0.1525708704655737
 72
     1
 10
1.051217766852596
 20
0.1525708704655737
 11
1.054949128177699
 21
0.1525708704655737
 72
     1
 10
1.0549491281777
 20
0.1525708704655737
 11
1.060173034032843
 21
0.1525708704655737
 72
     1
 10
1.060173034032843
 20
0.1525708704655737
 11
1.0667962003849
 21
0.1525708704655737
 72
     1
 10
1.0667962003849
 20
0.1525708704655737
 11
1.074352207068231
 21
0.1525708704655737
 72
     1
 10
1.074352207068232
 20
0.1525708704655737
 11
1.082747770049711
 21
0.1525708704655737
 72
     1
 10
1.082747770049711
 20
0.1525708704655737
 11
1.0915164691637
 21
0.1525708704655737
 72
     1
 10
1.091516469163701
 20
0.1525708704655737
 11
1.100565020377075
 21
0.1525708704655737
 72
     1
 10
1.100565020377073
 20
0.1525708704655737
 11
1.109520287557319
 21
0.1525708704655737
 72
     1
 10
1.10952028755732
 20
0.1525708704655737
 11
1.118195702638183
 21
0.1525708704655737
 72
     1
 10
1.118195702638182
 20
0.1525708704655737
 11
1.126218129487151
 21
0.1525708704655737
 72
     1
 10
1.126218129487152
 20
0.1525708704655737
 11
1.133401000037974
 21
0.1525708704655737
 72
     1
 10
1.133401000037974
 20
0.1525708704655737
 11
1.139557746224391
 21
0.1525708704655737
 72
     1
 10
1.139557746224392
 20
0.1525708704655737
 11
1.14422194788077
 21
0.1525708704655737
 72
     1
 10
1.144221947880769
 20
0.1525708704655737
 11
1.147207036940851
 21
0.1525708704655737
 72
     1
 10
1.147207036940852
 20
0.1525708704655737
 11
1.148233161305255
 21
0.1525708704655737
 72
     1
 10
1.148233161305255
 20
0.1525708704655737
 11
1.148233161305255
 21
0.1730000737205081
 72
     1
 10
1.148233161305255
 20
0.1730000737205078
 11
1.147207036940852
 21
0.1730000737205078
 72
     1
 10
1.147207036940852
 20
0.1730000737205078
 11
1.14422194788077
 21
0.1730000737205078
 72
     1
 10
1.144221947880769
 20
0.1730000737205078
 11
1.139557746224391
 21
0.1730000737205078
 72
     1
 10
1.139557746224392
 20
0.1730000737205078
 11
1.133494284071101
 21
0.1730000737205078
 72
     1
 10
1.133494284071101
 20
0.1730000737205078
 11
1.126218129487152
 21
0.1730000737205078
 72
     1
 10
1.126218129487152
 20
0.1730000737205078
 11
1.118195702638183
 21
0.1730000737205078
 72
     1
 10
1.118195702638182
 20
0.1730000737205078
 11
1.10952028755732
 21
0.1730000737205078
 72
     1
 10
1.10952028755732
 20
0.1730000737205078
 11
1.100565020377074
 21
0.1730000737205078
 72
     1
 10
1.100565020377073
 20
0.1730000737205078
 11
1.0915164691637
 21
0.1730000737205078
 72
     1
 10
1.091516469163701
 20
0.1730000737205078
 11
1.082747770049712
 21
0.1730000737205078
 72
     1
 10
1.082747770049711
 20
0.1730000737205078
 11
1.074352207068231
 21
0.1730000737205078
 72
     1
 10
1.074352207068232
 20
0.1730000737205078
 11
1.0667962003849
 21
0.1730000737205078
 72
     1
 10
1.0667962003849
 20
0.1730000737205078
 11
1.060173034032843
 21
0.1730000737205078
 72
     1
 10
1.060173034032843
 20
0.1730000737205078
 11
1.054949128177701
 21
0.1730000737205078
 72
     1
 10
1.0549491281777
 20
0.1730000737205078
 11
1.051217766852597
 21
0.1730000737205078
 72
     1
 10
1.051217766852596
 20
0.1730000737205078
 11
1.049352086190045
 21
0.1730000737205078
 72
     1
 10
1.049352086190046
 20
0.1730000737205078
 11
1.049352086190046
 21
0.1754254585818243
 72
     1
 10
1.049352086190046
 20
0.1754254585818245
 11
1.049352086190046
 21
0.1794366720063095
 72
     1
 10
1.049352086190046
 20
0.1794366720063094
 11
1.049352086190046
 21
0.1843807257620694
 72
     1
 10
1.049352086190046
 20
0.1843807257620694
 11
1.049352086190046
 21
0.1898844837165951
 72
     1
 10
1.049352086190046
 20
0.1898844837165951
 11
1.049352086190046
 21
0.1952949576379935
 72
     1
 10
1.049352086190046
 20
0.1952949576379937
 11
1.049352086190046
 21
0.2003322954268815
 72
     1
 10
1.049352086190046
 20
0.2003322954268814
 11
1.049352086190046
 21
0.2042502248182386
 72
     1
 10
1.049352086190046
 20
0.2042502248182386
 11
1.049352086190046
 21
0.206675609679555
 72
     1
 10
1.049352086190046
 20
0.206675609679555
 11
1.051217766852597
 21
0.206675609679555
 72
     1
 10
1.051217766852596
 20
0.206675609679555
 11
1.055042412210825
 21
0.206675609679555
 72
     1
 10
1.055042412210827
 20
0.206675609679555
 11
1.060452886132226
 21
0.206675609679555
 72
     1
 10
1.060452886132225
 20
0.206675609679555
 11
1.067169336517409
 21
0.206675609679555
 72
     1
 10
1.06716933651741
 20
0.206675609679555
 11
1.075005195300124
 21
0.206675609679555
 72
     1
 10
1.075005195300123
 20
0.206675609679555
 11
1.083494042314731
 21
0.206675609679555
 72
     1
 10
1.083494042314732
 20
0.206675609679555
 11
1.092542593528105
 21
0.206675609679555
 72
     1
 10
1.092542593528106
 20
0.206675609679555
 11
1.10187099684086
 21
0.206675609679555
 72
     1
 10
1.101870996840861
 20
0.206675609679555
 11
1.111106116120489
 21
0.206675609679555
 72
     1
 10
1.111106116120488
 20
0.206675609679555
 11
1.119968099267605
 21
0.206675609679555
 72
     1
 10
1.119968099267605
 20
0.206675609679555
 11
1.128270378215957
 21
0.206675609679555
 72
     1
 10
1.128270378215957
 20
0.206675609679555
 11
1.135639816833034
 21
0.206675609679555
 72
     1
 10
1.135639816833034
 20
0.206675609679555
 11
1.14188984705258
 21
0.206675609679555
 72
     1
 10
1.141889847052581
 20
0.206675609679555
 11
1.146647332742086
 21
0.206675609679555
 72
     1
 10
1.146647332742086
 20
0.206675609679555
 11
1.149725705835295
 21
0.206675609679555
 72
     1
 10
1.149725705835296
 20
0.206675609679555
 11
1.150845114232827
 21
0.206675609679555
 72
     1
 10
1.150845114232826
 20
0.206675609679555
 11
1.150845114232826
 21
0.2277578011663822
 72
     1
 10
1.150845114232826
 20
0.2277578011663825
 11
1.148326445338383
 21
0.2277578011663825
 72
     1
 10
1.148326445338383
 20
0.2277578011663825
 11
1.025937793875031
 21
0.2277578011663825
 72
     1
 10
1.025937793875032
 20
0.2277578011663825
 11
1.025937793875032
 21
0.0926825211976832
 72
     1
 10
1.025937793875032
 20
0.0926825211976832
 11
1.155602599922332
 21
0.0926825211976832
 72
     1
 10
1.155602599922332
 20
0.0926825211976832
 11
1.155602599922332
 21
0.113671428651383
 72
     1
 10
1.155602599922332
 20
0.1136714286513832
 11
1.154483191524801
 21
0.1136714286513832
 72
     1
 10
1.154483191524799
 20
0.1136714286513832
 11
1.151218250365336
 21
0.1136714286513832
 72
     1
 10
1.151218250365338
 20
0.1136714286513832
 11
1.146180912576449
 21
0.1136714286513832
 72
     1
 10
1.146180912576449
 20
0.1136714286513832
 11
1.13965103025752
 21
0.1136714286513832
 72
     1
 10
1.13965103025752
 20
0.1136714286513832
 11
1.131908455507932
 21
0.1136714286513832
 72
     1
 10
1.131908455507931
 20
0.1136714286513832
 11
1.12323304042707
 21
0.1136714286513832
 72
     1
 10
1.123233040427071
 20
0.1136714286513832
 11
1.113904637114314
 21
0.1136714286513832
 72
     1
 10
1.113904637114314
 20
0.1136714286513832
 11
1.104296381702177
 21
0.1136714286513832
 72
     1
 10
1.104296381702177
 20
0.1136714286513832
 11
1.094501558223783
 21
0.1136714286513832
 72
     1
 10
1.094501558223784
 20
0.1136714286513832
 11
1.085079870877901
 21
0.1136714286513832
 72
     1
 10
1.085079870877899
 20
0.1136714286513832
 11
1.076124603697654
 21
0.1136714286513832
 72
     1
 10
1.076124603697655
 20
0.1136714286513832
 11
1.067915608782429
 21
0.1136714286513832
 72
     1
 10
1.067915608782429
 20
0.1136714286513832
 11
1.060919306297863
 21
0.1136714286513832
 72
     1
 10
1.060919306297863
 20
0.1136714286513832
 11
1.055228980277083
 21
0.1136714286513832
 72
     1
 10
1.055228980277082
 20
0.1136714286513832
 11
1.051311050885725
 21
0.1136714286513832
 72
     1
 10
1.051311050885726
 20
0.1136714286513832
 11
1.049352086190046
 21
0.1136714286513832
 72
     1
 10
1.049352086190046
 20
0.1136714286513832
 11
1.049352086190046
 21
0.1163766656120825
 72
     1
 10
1.049352086190046
 20
0.1163766656120823
 11
1.049352086190046
 21
0.1209475832353323
 72
     1
 10
1.049352086190046
 20
0.1209475832353325
 11
1.049352086190046
 21
0.1267311932892411
 72
     1
 10
1.049352086190046
 20
0.1267311932892408
 11
1.049352086190046
 21
0.1330745075419143
 72
     1
 10
1.049352086190046
 20
0.1330745075419144
 11
1.049352086190046
 21
0.1395111058277156
 72
     1
 10
1.049352086190046
 20
0.1395111058277158
 11
1.049352086190046
 21
0.1452947158816239
 72
     1
 10
1.049352086190046
 20
0.145294715881624
 11
1.049352086190046
 21
0.1498656335048746
 72
     1
 10
1.049352086190046
 20
0.1498656335048745
 11
1.049352086190046
 21
0.1525708704655738
 97
        0
 75
     0
 76
     1
 98
        1
 10
-0.3743130907707726
 20
-0.2500502867693841
1001
ACAD
1010
0.0
1020
0.0
1030
0.0
  0
HATCH
  5
6E63
330
6E5C
100
AcDbEntity
  8
Kawneer Logo-English
100
AcDbHatch
 10
0.0
 20
0.0
 30
0.0
210
0.0
220
0.0
230
1.0
  2
SOLID
 70
     1
 71
     0
 91
        1
 92
        1
 93
       42
 72
     1
 10
0.9725793269260698
 20
0.2277578011663825
 11
0.9725793269260698
 21
0.1354998924032311
 72
     1
 10
0.9725793269260698
 20
0.1354998924032311
 11
0.9729524630585808
 21
0.1264513411898582
 72
     1
 10
0.9729524630585796
 20
0.1264513411898583
 11
0.9729524630585796
 21
0.1255185008585825
 72
     1
 10
0.9729524630585796
 20
0.1255185008585824
 11
0.9731390311248343
 21
0.1238393882622866
 72
     1
 10
0.9731390311248349
 20
0.1238393882622866
 11
0.9717397706279211
 21
0.1254252168254551
 72
     1
 10
0.97173977062792
 20
0.1254252168254551
 11
0.9710867823960281
 21
0.1262647731236031
 72
     1
 10
0.9710867823960294
 20
0.1262647731236031
 11
0.9641837639445897
 21
0.1339140638400625
 72
     1
 10
0.9641837639445899
 20
0.1339140638400624
 11
0.8755639324734129
 21
0.2277578011663823
 72
     1
 10
0.8755639324734115
 20
0.2277578011663825
 11
0.8529891964565429
 21
0.2277578011663825
 72
     1
 10
0.8529891964565434
 20
0.2277578011663825
 11
0.8529891964565434
 21
0.0926825211976832
 72
     1
 10
0.8529891964565434
 20
0.0926825211976832
 11
0.8756572165065401
 21
0.0926825211976832
 72
     1
 10
0.875657216506541
 20
0.0926825211976832
 11
0.875657216506541
 21
0.1927762887435495
 72
     1
 10
0.875657216506541
 20
0.1927762887435495
 11
0.875657216506541
 21
0.1931494248760597
 72
     1
 10
0.875657216506541
 20
0.1931494248760596
 11
0.8755639324734129
 21
0.193988981174208
 72
     1
 10
0.8755639324734115
 20
0.1939889811742079
 11
0.8754706484402849
 21
0.1952949576379935
 72
     1
 10
0.8754706484402859
 20
0.1952949576379937
 11
0.8753773644071577
 21
0.1967875021680344
 72
     1
 10
0.875377364407158
 20
0.1967875021680343
 11
0.8755639324734126
 21
0.1965076500686515
 72
     1
 10
0.8755639324734115
 20
0.1965076500686517
 11
0.8756572165065396
 21
0.1963210820023967
 72
     1
 10
0.875657216506541
 20
0.1963210820023967
 11
0.8764967728046894
 21
0.1954815257042487
 72
     1
 10
0.8764967728046887
 20
0.1954815257042488
 11
0.8781758854009835
 21
0.1936158450416976
 72
     1
 10
0.8781758854009842
 20
0.1936158450416973
 11
0.8797617139641527
 21
0.1917501643791464
 72
     1
 10
0.879761713964152
 20
0.1917501643791466
 11
0.8805079862291723
 21
0.1909106080809982
 72
     1
 10
0.8805079862291727
 20
0.190910608080998
 11
0.8816273946267036
 21
0.1897911996834678
 72
     1
 10
0.8816273946267028
 20
0.1897911996834681
 11
0.884519199653657
 21
0.1867128265902584
 72
     1
 10
0.8845191996536581
 20
0.1867128265902582
 11
0.8891834013100353
 21
0.1818620568676254
 72
     1
 10
0.889183401310035
 20
0.1818620568676252
 11
0.8951535794301982
 21
0.1756120266480794
 72
     1
 10
0.8951535794301985
 20
0.1756120266480794
 11
0.9021498819147662
 21
0.1681493039978751
 72
     1
 10
0.9021498819147669
 20
0.1681493039978752
 11
0.9099857406974814
 21
0.1598470250495227
 72
     1
 10
0.9099857406974813
 20
0.1598470250495225
 11
0.9183813036789613
 21
0.1509850419024051
 72
     1
 10
0.9183813036789612
 20
0.1509850419024052
 11
0.9271500027929521
 21
0.1418432066559046
 72
     1
 10
0.9271500027929509
 20
0.1418432066559046
 11
0.9358254178738118
 21
0.1326080873762767
 72
     1
 10
0.9358254178738132
 20
0.1326080873762767
 11
0.9442209808552931
 21
0.1237461042291589
 72
     1
 10
0.9442209808552931
 20
0.1237461042291589
 11
0.9520568396380092
 21
0.1154438252808068
 72
     1
 10
0.9520568396380092
 20
0.1154438252808068
 11
0.9590531421225751
 21
0.1079811026306025
 72
     1
 10
0.959053142122574
 20
0.1079811026306024
 11
0.9650233202427372
 21
0.101731072411056
 72
     1
 10
0.9650233202427376
 20
0.101731072411056
 11
0.9695942378659868
 21
0.0968803026884232
 72
     1
 10
0.9695942378659871
 20
0.096880302688423
 11
0.9725793269260696
 21
0.0938019295952138
 72
     1
 10
0.9725793269260698
 20
0.093801929595214
 11
0.9736054512904727
 21
0.0926825211976834
 72
     1
 10
0.9736054512904726
 20
0.0926825211976832
 11
0.9952473469760661
 21
0.0926825211976832
 72
     1
 10
0.9952473469760651
 20
0.0926825211976832
 11
0.9952473469760651
 21
0.2277578011663825
 72
     1
 10
0.9952473469760651
 20
0.2277578011663825
 11
0.9927286780816201
 21
0.2277578011663825
 72
     1
 10
0.9927286780816203
 20
0.2277578011663825
 11
0.9725793269260686
 21
0.2277578011663825
 97
        0
 75
     0
 76
     1
 98
        1
 10
-0.3743130907707726
 20
-0.2500502867693841
1001
ACAD
1010
0.0
1020
0.0
1030
0.0
  0
HATCH
  5
6E64
330
6E5C
100
AcDbEntity
  8
Kawneer Logo-English
100
AcDbHatch
 10
0.0
 20
0.0
 30
0.0
210
0.0
220
0.0
230
1.0
  2
SOLID
 70
     1
 71
     0
 91
        2
 92
       16
 93
       32
 72
     1
 10
0.5269615006757409
 20
0.144641727649731
 11
0.5290137494045469
 21
0.148652941074216
 72
     1
 10
0.5290137494045464
 20
0.1486529410742159
 11
0.5322786905640116
 21
0.1551828233931449
 72
     1
 10
0.532278690564012
 20
0.1551828233931452
 11
0.5364764720547521
 21
0.1633918183083696
 72
     1
 10
0.5364764720547526
 20
0.1633918183083696
 11
0.5409541056448736
 21
0.1722538014554874
 72
     1
 10
0.5409541056448726
 20
0.1722538014554873
 11
0.545338455201869
 21
0.1808359325032223
 72
     1
 10
0.5453384552018701
 20
0.1808359325032223
 11
0.5490698165269726
 21
0.1882053711202994
 72
     1
 10
0.549069816526973
 20
0.1882053711202996
 11
0.5515884854214162
 21
0.1932427089091875
 72
     1
 10
0.5515884854214148
 20
0.1932427089091872
 11
0.5526146097858177
 21
0.1952016736048658
 72
     1
 10
0.5526146097858194
 20
0.1952016736048658
 11
0.552801177852074
 21
0.195761377803631
 72
     1
 10
0.5528011778520723
 20
0.1957613778036309
 11
0.5533608820508379
 21
0.1970673542674166
 72
     1
 10
0.5533608820508378
 20
0.1970673542674169
 11
0.5542004383489863
 21
0.1990263189630955
 72
     1
 10
0.5542004383489872
 20
0.1990263189630952
 11
0.5550399946471356
 21
0.2012651357581567
 72
     1
 10
0.5550399946471352
 20
0.2012651357581567
 11
0.5555064148127727
 21
0.2001457273606265
 72
     1
 10
0.5555064148127729
 20
0.2001457273606264
 11
0.5560661190115385
 21
0.198933034929968
 72
     1
 10
0.5560661190115379
 20
0.198933034929968
 11
0.5567191072434298
 21
0.197533774433055
 72
     1
 10
0.5567191072434304
 20
0.197533774433055
 11
0.5574653795084506
 21
0.1959479458698865
 72
     1
 10
0.557465379508451
 20
0.1959479458698865
 11
0.5583049358065995
 21
0.1942688332735902
 72
     1
 10
0.5583049358065986
 20
0.1942688332735903
 11
0.5606370366347874
 21
0.1896046316172126
 72
     1
 10
0.5606370366347871
 20
0.1896046316172126
 11
0.5639952618273804
 21
0.1828881812320289
 72
     1
 10
0.5639952618273814
 20
0.1828881812320287
 11
0.5680064752518651
 21
0.1748657543830587
 72
     1
 10
0.5680064752518637
 20
0.1748657543830589
 11
0.57239082480886
 21
0.1661903393021966
 72
     1
 10
0.5723908248088612
 20
0.1661903393021967
 11
0.5765886062996012
 21
0.1577947763207168
 72
     1
 10
0.5765886062996
 20
0.1577947763207165
 11
0.5803199676247008
 21
0.1503320536705122
 72
     1
 10
0.5803199676247015
 20
0.1503320536705122
 11
0.5831184886185295
 21
0.144641727649731
 72
     1
 10
0.5831184886185295
 20
0.144641727649731
 11
0.5791072751940441
 21
0.144641727649731
 72
     1
 10
0.5791072751940436
 20
0.144641727649731
 11
0.5724841088419869
 21
0.144641727649731
 72
     1
 10
0.5724841088419872
 20
0.144641727649731
 11
0.5641818298936356
 21
0.144641727649731
 72
     1
 10
0.5641818298936352
 20
0.144641727649731
 11
0.5550399946471351
 21
0.144641727649731
 72
     1
 10
0.5550399946471352
 20
0.144641727649731
 11
0.5458981594006351
 21
0.144641727649731
 72
     1
 10
0.5458981594006352
 20
0.144641727649731
 11
0.5375958804522815
 21
0.144641727649731
 72
     1
 10
0.5375958804522814
 20
0.144641727649731
 11
0.5310659981333528
 21
0.144641727649731
 72
     1
 10
0.5310659981333524
 20
0.144641727649731
 11
0.5269615006757405
 21
0.144641727649731
 97
        0
 92
        1
 93
      141
 72
     1
 10
0.5656743744236757
 20
0.2277578011663825
 11
0.544405614870593
 21
0.2277578011663825
 72
     1
 10
0.544405614870593
 20
0.2277578011663825
 11
0.4748157261574382
 21
0.0934287934627039
 72
     1
 10
0.4748157261574378
 20
0.0934287934627039
 11
0.4729500454948865
 21
0.0955743262246376
 72
     1
 10
0.4729500454948874
 20
0.0955743262246376
 11
0.4699649564348049
 21
0.0991191194834847
 72
     1
 10
0.4699649564348043
 20
0.0991191194834847
 11
0.4661403110765752
 21
0.1036900371067346
 72
     1
 10
0.4661403110765754
 20
0.1036900371067347
 11
0.4615693934533244
 21
0.1091005110281331
 72
     1
 10
0.461569393453325
 20
0.109100511028133
 11
0.456345487598182
 21
0.1152572572145517
 72
     1
 10
0.4563454875981812
 20
0.1152572572145516
 11
0.4506551615774008
 21
0.1219737075997353
 72
     1
 10
0.4506551615774015
 20
0.1219737075997354
 11
0.4447782674903648
 21
0.1290632941174296
 72
     1
 10
0.4447782674903636
 20
0.1290632941174296
 11
0.4387148053370722
 21
0.1362461646682511
 72
     1
 10
0.4387148053370727
 20
0.1362461646682512
 11
0.4326513431837832
 21
0.1433357511859454
 72
     1
 10
0.4326513431837844
 20
0.1433357511859453
 11
0.4268677331298759
 21
0.1502387696373844
 72
     1
 10
0.4268677331298756
 20
0.1502387696373844
 11
0.4214572592084763
 21
0.1566753679231857
 72
     1
 10
0.4214572592084754
 20
0.1566753679231858
 11
0.4165132054527153
 21
0.1625522620102216
 72
     1
 10
0.4165132054527163
 20
0.1625522620102216
 11
0.4123154239619763
 21
0.1674963157659821
 72
     1
 10
0.4123154239619753
 20
0.1674963157659822
 11
0.4088639147362555
 21
0.1715075291904667
 72
     1
 10
0.4088639147362568
 20
0.1715075291904669
 11
0.4065318139080681
 21
0.1743993342174211
 72
     1
 10
0.4065318139080665
 20
0.1743993342174211
 11
0.405319121477409
 21
0.1757985947143345
 72
     1
 10
0.4053191214774104
 20
0.1757985947143345
 11
0.4067183819743243
 21
0.1769180031118651
 72
     1
 10
0.4067183819743235
 20
0.1769180031118651
 11
0.4094236189350213
 21
0.1788769678075437
 72
     1
 10
0.4094236189350218
 20
0.1788769678075437
 11
0.4132482642932526
 21
0.1816754888013702
 72
     1
 10
0.4132482642932525
 20
0.1816754888013703
 11
0.4179124659496298
 21
0.1852202820602174
 72
     1
 10
0.417912465949629
 20
0.1852202820602174
 11
0.4232296558379
 21
0.189138211451575
 72
     1
 10
0.4232296558379001
 20
0.1891382114515751
 11
0.4291065499249351
 21
0.1935225610085696
 72
     1
 10
0.4291065499249367
 20
0.1935225610085698
 11
0.4352632961113562
 21
0.1981867626649482
 72
     1
 10
0.4352632961113554
 20
0.1981867626649479
 11
0.4416066103640296
 21
0.2028509643213252
 72
     1
 10
0.4416066103640293
 20
0.2028509643213252
 11
0.4479499246167016
 21
0.2076084500108307
 72
     1
 10
0.4479499246167018
 20
0.2076084500108307
 11
0.4540133867699932
 21
0.2120860836009535
 72
     1
 10
0.4540133867699927
 20
0.2120860836009535
 11
0.4596104287576467
 21
0.2162838650916932
 72
     1
 10
0.4596104287576468
 20
0.216283865091693
 11
0.4646477665465351
 21
0.2200152264167952
 72
     1
 10
0.464647766546535
 20
0.2200152264167951
 11
0.4689388320704013
 21
0.223186883543132
 72
     1
 10
0.4689388320704016
 20
0.2231868835431323
 11
0.4721104891967386
 21
0.2256122684044488
 72
     1
 10
0.4721104891967376
 20
0.2256122684044488
 11
0.4742560219586717
 21
0.2271980969676172
 72
     1
 10
0.4742560219586727
 20
0.2271980969676173
 11
0.475002294223693
 21
0.2277578011663825
 72
     1
 10
0.4750022942236929
 20
0.2277578011663825
 11
0.4674462875403612
 21
0.2277578011663825
 72
     1
 10
0.4674462875403611
 20
0.2277578011663825
 11
0.4395543616352215
 21
0.2277578011663825
 72
     1
 10
0.439554361635222
 20
0.2277578011663825
 11
0.4386215213039473
 21
0.2270115289013622
 72
     1
 10
0.4386215213039466
 20
0.2270115289013622
 11
0.4359162843432469
 21
0.2250525642056836
 72
     1
 10
0.4359162843432465
 20
0.2250525642056836
 11
0.4318117868856346
 21
0.2220674751456017
 72
     1
 10
0.4318117868856351
 20
0.2220674751456017
 11
0.4264013129642376
 21
0.2180562617211167
 72
     1
 10
0.4264013129642379
 20
0.2180562617211168
 11
0.4200579987115638
 21
0.2132987760316117
 72
     1
 10
0.4200579987115641
 20
0.2132987760316114
 11
0.4128751281607416
 21
0.2079815861433408
 72
     1
 10
0.4128751281607408
 20
0.2079815861433408
 11
0.4051325534111546
 21
0.20229126012256
 72
     1
 10
0.4051325534111552
 20
0.20229126012256
 11
0.397016842529058
 21
0.1963210820023964
 72
     1
 10
0.3970168425290583
 20
0.1963210820023967
 11
0.3889011316469611
 21
0.1903509038822331
 72
     1
 10
0.3889011316469611
 20
0.190350903882233
 11
0.3808787047979902
 21
0.1844740097951972
 72
     1
 10
0.3808787047979898
 20
0.1844740097951974
 11
0.3733226981146581
 21
0.1787836837744166
 72
     1
 10
0.373322698114658
 20
0.1787836837744166
 11
0.3663263956300919
 21
0.173653061952401
 72
     1
 10
0.3663263956300931
 20
0.173653061952401
 11
0.3601696494436735
 21
0.169082144329151
 72
     1
 10
0.3601696494436726
 20
0.1690821443291508
 11
0.3550390276216579
 21
0.1653507830040483
 72
     1
 10
0.3550390276216584
 20
0.1653507830040482
 11
0.3513076662965558
 21
0.1625522620102218
 72
     1
 10
0.3513076662965551
 20
0.1625522620102216
 11
0.3490688495014928
 21
0.1609664334470531
 72
     1
 10
0.3490688495014926
 20
0.1609664334470531
 11
0.3490688495014926
 21
0.1631119662089868
 72
     1
 10
0.3490688495014926
 20
0.1631119662089868
 11
0.3490688495014926
 21
0.1662836233353237
 72
     1
 10
0.3490688495014926
 20
0.1662836233353238
 11
0.3490688495014926
 21
0.1702948367598088
 72
     1
 10
0.3490688495014926
 20
0.1702948367598088
 11
0.3490688495014926
 21
0.1749590384161865
 72
     1
 10
0.3490688495014926
 20
0.1749590384161865
 11
0.3490688495014926
 21
0.1801829442713294
 72
     1
 10
0.3490688495014926
 20
0.1801829442713296
 11
0.3490688495014926
 21
0.185779986258983
 72
     1
 10
0.3490688495014926
 20
0.1857799862589829
 11
0.3490688495014926
 21
0.1916568803460187
 72
     1
 10
0.3490688495014926
 20
0.1916568803460186
 11
0.3490688495014926
 21
0.1975337744330549
 72
     1
 10
0.3490688495014926
 20
0.197533774433055
 11
0.3490688495014926
 21
0.2033173844869632
 72
     1
 10
0.3490688495014926
 20
0.2033173844869631
 11
0.3490688495014926
 21
0.2088211424414888
 72
     1
 10
0.3490688495014926
 20
0.2088211424414888
 11
0.3490688495014926
 21
0.2139517642635044
 72
     1
 10
0.3490688495014926
 20
0.2139517642635044
 11
0.3490688495014926
 21
0.2185226818867544
 72
     1
 10
0.3490688495014926
 20
0.2185226818867545
 11
0.3490688495014926
 21
0.2222540432118567
 72
     1
 10
0.3490688495014926
 20
0.2222540432118567
 11
0.3490688495014926
 21
0.2252391322719387
 72
     1
 10
0.3490688495014926
 20
0.2252391322719387
 11
0.3490688495014926
 21
0.2271048129344895
 72
     1
 10
0.3490688495014926
 20
0.2271048129344895
 11
0.3490688495014926
 21
0.2277578011663825
 72
     1
 10
0.3490688495014926
 20
0.2277578011663825
 11
0.3258411252527322
 21
0.2277578011663825
 72
     1
 10
0.3258411252527336
 20
0.2277578011663825
 11
0.3258411252527336
 21
0.0926825211976832
 72
     1
 10
0.3258411252527336
 20
0.0926825211976832
 11
0.3486957133689848
 21
0.0926825211976832
 72
     1
 10
0.3486957133689845
 20
0.0926825211976832
 11
0.3486957133689845
 21
0.0943616337939795
 72
     1
 10
0.3486957133689845
 20
0.0943616337939795
 11
0.3486957133689845
 21
0.0988392673841017
 72
     1
 10
0.3486957133689845
 20
0.0988392673841017
 11
0.3486957133689845
 21
0.1051825816367752
 72
     1
 10
0.3486957133689845
 20
0.1051825816367753
 11
0.3486957133689845
 21
0.1125520202538523
 72
     1
 10
0.3486957133689845
 20
0.1125520202538524
 11
0.3486957133689845
 21
0.1200147429040567
 72
     1
 10
0.3486957133689845
 20
0.1200147429040567
 11
0.3486957133689845
 21
0.1267311932892408
 72
     1
 10
0.3486957133689845
 20
0.1267311932892408
 11
0.3486957133689845
 21
0.1317685310781287
 72
     1
 10
0.3486957133689845
 20
0.1317685310781289
 11
0.3486957133689845
 21
0.1342871999725727
 72
     1
 10
0.3486957133689845
 20
0.1342871999725725
 11
0.3507479620977905
 21
0.1356864604694859
 72
     1
 10
0.35074796209779
 20
0.1356864604694859
 11
0.3548524595554018
 21
0.1387648335626952
 72
     1
 10
0.3548524595554015
 20
0.1387648335626952
 11
0.3605427855761835
 21
0.1428693310203079
 72
     1
 10
0.3605427855761842
 20
0.1428693310203079
 11
0.3668860998288565
 21
0.1476268167098129
 72
     1
 10
0.3668860998288568
 20
0.1476268167098129
 11
0.373322698114659
 21
0.1522910183661906
 72
     1
 10
0.373322698114658
 20
0.1522910183661908
 11
0.3791995922016947
 21
0.1565820838900582
 72
     1
 10
0.3791995922016946
 20
0.1565820838900582
 11
0.3836772257918156
 21
0.1599403090826502
 72
     1
 10
0.3836772257918159
 20
0.1599403090826503
 11
0.386195894686261
 21
0.1618059897452011
 72
     1
 10
0.3861958946862609
 20
0.1618059897452011
 11
0.3873153030837921
 21
0.1604067292482882
 72
     1
 10
0.3873153030837915
 20
0.1604067292482878
 11
0.3894608358457238
 21
0.1577947763207163
 72
     1
 10
0.3894608358457248
 20
0.1577947763207165
 11
0.3925392089389353
 21
0.1541566990287417
 72
     1
 10
0.3925392089389348
 20
0.1541566990287417
 11
0.396457138330292
 21
0.149492497372364
 72
     1
 10
0.3964571383302933
 20
0.149492497372364
 11
0.4009347719204161
 21
0.1442685915172211
 72
     1
 10
0.4009347719204146
 20
0.1442685915172209
 11
0.4057855416430466
 21
0.138391697430185
 72
     1
 10
0.4057855416430463
 20
0.1383916974301853
 11
0.4109161634650628
 21
0.1322349512437666
 72
     1
 10
0.410916163465064
 20
0.1322349512437666
 11
0.4162333533533335
 21
0.1259849210242201
 72
     1
 10
0.4162333533533334
 20
0.1259849210242201
 11
0.4215505432416044
 21
0.1196416067715466
 72
     1
 10
0.4215505432416045
 20
0.1196416067715466
 11
0.4265878810304927
 21
0.113671428651383
 72
     1
 10
0.4265878810304931
 20
0.1136714286513832
 11
0.4312520826868704
 21
0.1079811026306024
 72
     1
 10
0.4312520826868696
 20
0.1079811026306024
 11
0.4355431482107378
 21
0.1029437648417141
 72
     1
 10
0.435543148210738
 20
0.1029437648417139
 11
0.4390879414695842
 21
0.0987459833509739
 72
     1
 10
0.4390879414695843
 20
0.0987459833509741
 11
0.4417931784302841
 21
0.0954810421915098
 72
     1
 10
0.4417931784302845
 20
0.0954810421915096
 11
0.4435655750597076
 21
0.0934287934627037
 72
     1
 10
0.4435655750597074
 20
0.0934287934627039
 11
0.4442185632915993
 21
0.0926825211976832
 72
     1
 10
0.4442185632915985
 20
0.0926825211976832
 11
0.4743493059918004
 21
0.0926825211976832
 72
     1
 10
0.4743493059918001
 20
0.0926825211976832
 11
0.4753754303562029
 21
0.0926825211976832
 72
     1
 10
0.4753754303562033
 20
0.0926825211976832
 11
0.5008419714000258
 21
0.0926825211976832
 72
     1
 10
0.5008419714000265
 20
0.0926825211976832
 11
0.5014949596319184
 21
0.0939884976614689
 72
     1
 10
0.501494959631919
 20
0.0939884976614688
 11
0.5031740722282155
 21
0.0973467228540609
 72
     1
 10
0.503174072228215
 20
0.0973467228540612
 11
0.5055061730564038
 21
0.1021042085435666
 72
     1
 10
0.505506173056403
 20
0.1021042085435665
 11
0.5083046940502291
 21
0.1077012505312196
 72
     1
 10
0.5083046940502292
 20
0.1077012505312194
 11
0.5111032150440553
 21
0.1134848605851279
 72
     1
 10
0.5111032150440549
 20
0.1134848605851281
 11
0.5137151679716264
 21
0.1186154824071433
 72
     1
 10
0.5137151679716277
 20
0.1186154824071433
 11
0.5156741326673071
 21
0.1226266958316283
 72
     1
 10
0.5156741326673076
 20
0.122626695831628
 11
0.5167002570317104
 21
0.1247722285935621
 72
     1
 10
0.5167002570317103
 20
0.1247722285935622
 11
0.5180062334954961
 21
0.1247722285935622
 72
     1
 10
0.5180062334954961
 20
0.1247722285935622
 11
0.5207114704561957
 21
0.1247722285935622
 72
     1
 10
0.5207114704561944
 20
0.1247722285935622
 11
0.5246293998475517
 21
0.1247722285935622
 72
     1
 10
0.5246293998475525
 20
0.1247722285935622
 11
0.5295734536033125
 21
0.1247722285935622
 72
     1
 10
0.5295734536033115
 20
0.1247722285935622
 11
0.5352637796240919
 21
0.1247722285935622
 72
     1
 10
0.5352637796240929
 20
0.1247722285935622
 11
0.5415138098436386
 21
0.1247722285935622
 72
     1
 10
0.5415138098436394
 20
0.1247722285935622
 11
0.5482302602288245
 21
0.1247722285935622
 72
     1
 10
0.5482302602288236
 20
0.1247722285935622
 11
0.5551332786802616
 21
0.1247722285935622
 72
     1
 10
0.5551332786802608
 20
0.1247722285935622
 11
0.5620362971317004
 21
0.1247722285935622
 72
     1
 10
0.5620362971317015
 20
0.1247722285935622
 11
0.5687527475168847
 21
0.1247722285935622
 72
     1
 10
0.5687527475168839
 20
0.1247722285935622
 11
0.5750027777364317
 21
0.1247722285935622
 72
     1
 10
0.5750027777364322
 20
0.1247722285935622
 11
0.5806931037572126
 21
0.1247722285935622
 72
     1
 10
0.5806931037572119
 20
0.1247722285935622
 11
0.585637157512972
 21
0.1247722285935622
 72
     1
 10
0.5856371575129727
 20
0.1247722285935622
 11
0.5895550869043299
 21
0.1247722285935622
 72
     1
 10
0.5895550869043289
 20
0.1247722285935622
 11
0.5922603238650286
 21
0.1247722285935622
 72
     1
 10
0.5922603238650291
 20
0.1247722285935622
 11
0.5935663003288148
 21
0.1247722285935622
 72
     1
 10
0.5935663003288148
 20
0.1247722285935622
 11
0.5945924246932176
 21
0.1226266958316281
 72
     1
 10
0.5945924246932175
 20
0.122626695831628
 11
0.5965513893888953
 21
0.1186154824071431
 72
     1
 10
0.5965513893888957
 20
0.1186154824071433
 11
0.5991633423164672
 21
0.1134848605851281
 72
     1
 10
0.5991633423164667
 20
0.1134848605851281
 11
0.6019618633102946
 21
0.1077012505312196
 72
     1
 10
0.6019618633102959
 20
0.1077012505312194
 11
0.604760384304122
 21
0.1021042085435664
 72
     1
 10
0.6047603843041221
 20
0.1021042085435665
 11
0.6070924851323109
 21
0.0973467228540611
 72
     1
 10
0.6070924851323101
 20
0.0973467228540612
 11
0.6087715977286067
 21
0.0939884976614691
 72
     1
 10
0.6087715977286062
 20
0.0939884976614688
 11
0.609424585960498
 21
0.0926825211976832
 72
     1
 10
0.6094245859604986
 20
0.0926825211976832
 11
0.6363836715343633
 21
0.0926825211976832
 72
     1
 10
0.6363836715343641
 20
0.0926825211976832
 11
0.5671669189537184
 21
0.2277578011663825
 72
     1
 10
0.5671669189537179
 20
0.2277578011663825
 11
0.5656743744236758
 21
0.2277578011663825
 97
        0
 75
     0
 76
     1
 98
        1
 10
-0.3743130907707726
 20
-0.2500502867693841
1001
ACAD
1010
0.0
1020
0.0
1030
0.0
  0
HATCH
  5
6E65
330
6E5C
100
AcDbEntity
  8
Kawneer Logo-English
100
AcDbHatch
 10
0.0
 20
0.0
 30
0.0
210
0.0
220
0.0
230
1.0
  2
SOLID
 70
     1
 71
     0
 91
        1
 92
        1
 93
       69
 72
     1
 10
0.8092389849197205
 20
0.2277578011663825
 11
0.778921674153266
 21
0.1309289747799811
 72
     1
 10
0.778921674153267
 20
0.1309289747799809
 11
0.7781754018882468
 21
0.1287834420180468
 72
     1
 10
0.7781754018882468
 20
0.1287834420180467
 11
0.7776156976894812
 21
0.1270110453886236
 72
     1
 10
0.7776156976894813
 20
0.1270110453886237
 11
0.7771492775238438
 21
0.1253319327923275
 72
     1
 10
0.7771492775238436
 20
0.1253319327923274
 11
0.7766828573582045
 21
0.1238393882622867
 72
     1
 10
0.7766828573582046
 20
0.1238393882622866
 11
0.7764030052588217
 21
0.1248655126266895
 72
     1
 10
0.776403005258822
 20
0.1248655126266896
 11
0.7761231531594392
 21
0.1259849210242202
 72
     1
 10
0.7761231531594391
 20
0.1259849210242201
 11
0.7759365850931844
 21
0.1268244773223681
 72
     1
 10
0.7759365850931843
 20
0.1268244773223682
 11
0.7758433010600562
 21
0.1271976134548783
 72
     1
 10
0.7758433010600552
 20
0.1271976134548783
 11
0.7755634489606744
 21
0.1280371697530267
 72
     1
 10
0.775563448960674
 20
0.1280371697530267
 11
0.7750970287950349
 21
0.1291565781505569
 72
     1
 10
0.7750970287950363
 20
0.1291565781505568
 11
0.773977620397507
 21
0.1323282352768938
 72
     1
 10
0.7739776203975062
 20
0.1323282352768939
 11
0.7721119397349549
 21
0.1372722890326544
 72
     1
 10
0.7721119397349554
 20
0.1372722890326546
 11
0.7697798389067666
 21
0.1436156032853281
 72
     1
 10
0.769779838906767
 20
0.1436156032853281
 11
0.7670746019460673
 21
0.1511716099686602
 72
     1
 10
0.7670746019460668
 20
0.15117160996866
 11
0.7639962288528581
 21
0.1595671729501399
 72
     1
 10
0.7639962288528582
 20
0.15956717295014
 11
0.7606380036602665
 21
0.1686157241635125
 72
     1
 10
0.7606380036602652
 20
0.1686157241635125
 11
0.7572797784676718
 21
0.1778508434431408
 72
     1
 10
0.7572797784676726
 20
0.1778508434431408
 11
0.753921553275081
 21
0.187179246755896
 72
     1
 10
0.7539215532750814
 20
0.1871792467558961
 11
0.7505633280824898
 21
0.1962277979692689
 72
     1
 10
0.7505633280824902
 20
0.1962277979692689
 11
0.7474849549892814
 21
0.2046233609507488
 72
     1
 10
0.7474849549892797
 20
0.2046233609507488
 11
0.74477971802858
 21
0.2121793676340809
 72
     1
 10
0.7447797180285814
 20
0.2121793676340809
 11
0.7424476172003926
 21
0.2185226818867544
 72
     1
 10
0.7424476172003929
 20
0.2185226818867545
 11
0.7405819365378416
 21
0.2234667356425151
 72
     1
 10
0.7405819365378408
 20
0.2234667356425151
 11
0.7394625281403098
 21
0.2266383927688516
 72
     1
 10
0.7394625281403103
 20
0.2266383927688516
 11
0.7390893920078009
 21
0.2277578011663822
 72
     1
 10
0.7390893920078004
 20
0.2277578011663825
 11
0.7191266089185034
 21
0.2277578011663825
 72
     1
 10
0.7191266089185029
 20
0.2277578011663825
 11
0.6843316645619254
 21
0.1336342117406798
 72
     1
 10
0.6843316645619267
 20
0.1336342117406795
 11
0.6832122561643957
 21
0.130649122680598
 72
     1
 10
0.6832122561643961
 20
0.1306491226805981
 11
0.6823726998662476
 21
0.1282237378192816
 72
     1
 10
0.6823726998662468
 20
0.1282237378192818
 11
0.6817197116343549
 21
0.1260782050573481
 72
     1
 10
0.6817197116343552
 20
0.1260782050573481
 11
0.6811600074355896
 21
0.1241192403616695
 72
     1
 10
0.6811600074355884
 20
0.1241192403616695
 11
0.6808801553362055
 21
0.1250520806929446
 72
     1
 10
0.6808801553362059
 20
0.1250520806929445
 11
0.6805070192036949
 21
0.1261714890904751
 72
     1
 10
0.680507019203696
 20
0.1261714890904752
 11
0.6802271671043131
 21
0.1272908974880058
 72
     1
 10
0.680227167104313
 20
0.1272908974880061
 11
0.6798540309718037
 21
0.1286901579849195
 72
     1
 10
0.6798540309718031
 20
0.1286901579849194
 11
0.6794808948392922
 21
0.12980956638245
 72
     1
 10
0.6794808948392932
 20
0.1298095663824503
 11
0.6784547704748904
 21
0.1328879394756595
 72
     1
 10
0.67845477047489
 20
0.1328879394756595
 11
0.6769622259448497
 21
0.1378319932314196
 72
     1
 10
0.6769622259448496
 20
0.1378319932314196
 11
0.6750032612491701
 21
0.1441753074840938
 72
     1
 10
0.6750032612491697
 20
0.1441753074840937
 11
0.6725778763878547
 21
0.1516380301342981
 72
     1
 10
0.6725778763878556
 20
0.1516380301342981
 11
0.6699659234602841
 21
0.160033593115778
 72
     1
 10
0.6699659234602829
 20
0.160033593115778
 11
0.6671674024664549
 21
0.168988860296023
 72
     1
 10
0.6671674024664554
 20
0.168988860296023
 11
0.6642755974395012
 21
0.1782239795756509
 72
     1
 10
0.6642755974395019
 20
0.178223979575651
 11
0.6613837924125477
 21
0.1874590988552789
 72
     1
 10
0.6613837924125466
 20
0.1874590988552789
 11
0.6585852714187205
 21
0.1964143660355239
 72
     1
 10
0.6585852714187204
 20
0.1964143660355237
 11
0.6559733184911489
 21
0.2047166449838762
 72
     1
 10
0.6559733184911494
 20
0.2047166449838765
 11
0.6536412176629606
 21
0.2122726516672082
 72
     1
 10
0.6536412176629614
 20
0.2122726516672082
 11
0.6515889689341538
 21
0.2186159659198823
 72
     1
 10
0.6515889689341537
 20
0.2186159659198821
 11
0.6500964244041133
 21
0.2234667356425149
 72
     1
 10
0.6500964244041132
 20
0.2234667356425151
 11
0.6490703000397104
 21
0.2266383927688516
 72
     1
 10
0.6490703000397105
 20
0.2266383927688516
 11
0.6487904479403276
 21
0.2277578011663822
 72
     1
 10
0.648790447940328
 20
0.2277578011663825
 11
0.6237903270621445
 21
0.2277578011663825
 72
     1
 10
0.6237903270621437
 20
0.2277578011663825
 11
0.6676338226320932
 21
0.0926825211976832
 72
     1
 10
0.6676338226320926
 20
0.0926825211976832
 11
0.6922608073777669
 21
0.0926825211976832
 72
     1
 10
0.6922608073777666
 20
0.0926825211976832
 11
0.726029627369941
 21
0.1855001341596003
 72
     1
 10
0.7260296273699423
 20
0.1855001341596003
 11
0.7269624677012189
 21
0.1882986551534267
 72
     1
 10
0.7269624677012177
 20
0.1882986551534266
 11
0.7278020239993661
 21
0.1906307559816158
 72
     1
 10
0.727802023999367
 20
0.1906307559816159
 11
0.7284550122312589
 21
0.1927762887435496
 72
     1
 10
0.7284550122312581
 20
0.1927762887435495
 11
0.7290147164300237
 21
0.1947352534392281
 72
     1
 10
0.7290147164300232
 20
0.1947352534392282
 11
0.7298542727281716
 21
0.192216584544784
 72
     1
 10
0.729854272728173
 20
0.1922165845447839
 11
0.7306938290263214
 21
0.1894180635509575
 72
     1
 10
0.7306938290263206
 20
0.1894180635509575
 11
0.7318132374238499
 21
0.1863396904577483
 72
     1
 10
0.7318132374238511
 20
0.1863396904577481
 11
0.7331192138876387
 21
0.1827016131657736
 72
     1
 10
0.7331192138876382
 20
0.1827016131657737
 11
0.7654887733828987
 21
0.0926825211976834
 72
     1
 10
0.7654887733828986
 20
0.0926825211976832
 11
0.7895560539298075
 21
0.0926825211976832
 72
     1
 10
0.7895560539298075
 20
0.0926825211976832
 11
0.8341458217647785
 21
0.2277578011663825
 72
     1
 10
0.8341458217647783
 20
0.2277578011663825
 11
0.830601028505932
 21
0.2277578011663825
 72
     1
 10
0.8306010285059324
 20
0.2277578011663825
 11
0.8092389849197216
 21
0.2277578011663825
 97
        0
 75
     0
 76
     1
 98
        1
 10
-0.3743130907707726
 20
-0.2500502867693841
1001
ACAD
1010
0.0
1020
0.0
1030
0.0
  0
ENDBLK
  5
6E69
330
6E5C
100
AcDbEntity
  8
0
100
AcDbBlockEnd
  0
ENDSEC
  0
SECTION
  2
ENTITIES
  0
MTEXT
  5
2082
330
17
100
AcDbEntity
  8
0
 62
     2
100
AcDbMText
 10
29.74621957809438
 20
2.402443647182423
 30
0.0
 40
0.375
 41
11.91800541288839
 71
     2
 72
     5
  1
DETAIL SCALE: 1" = 1"
 73
     1
 44
1.0
1001
ACAD
1000
MTEXTBEGIN
1070
    73
1070
     1
1070
    44
1040
1.0
1070
    74
1070
     0
1000
MTEXTEND
  0
LINE
  5
2085
330
17
100
AcDbEntity
  8
0
100
AcDbLine
 10
0.0
 20
0.0
 30
0.0
 11
0.0
 21
36.19195733340607
 31
0.0
  0
LINE
  5
2088
330
17
100
AcDbEntity
  8
0
100
AcDbLine
 10
0.0
 20
0.0
 30
0.0
 11
58.43059373869616
 21
0.0
 31
0.0
  0
MTEXT
  5
2099
330
17
100
AcDbEntity
  8
0
 62
     2
100
AcDbMText
 10
29.74621957809438
 20
5.969432409632731
 30
0.0
 40
0.5
 41
28.11740090645016
 71
     2
 72
     5
  1
TRIFAB™ VG 450 FRAMING SYSTEM 1-3/4" SIGHTLINE \PMULTI PLANE - SCREW SPLINE/SHEAR BLOCK ASSEMBLY TRANSITION MULLIONS\P(1/4" INFILL)
 73
     1
 44
1.0
1001
ACAD
1000
MTEXTBEGIN
1070
    73
1070
     1
1070
    44
1040
1.0
1070
    74
1070
     0
1000
MTEXTEND
1000
ACAD_MTEXT_DEFINED_HEIGHT_BEGIN
1070
    46
1040
4.023647112323783
1000
ACAD_MTEXT_DEFINED_HEIGHT_END
  0
TEXT
  5
5AF5
330
17
100
AcDbEntity
  8
0
  6
Continuous
 62
     7
100
AcDbText
 10
15.59109249341414
 20
22.97836929100084
 30
0.0
 40
0.375
  1
FRONT TO BACK VERTICAL
 72
     1
 11
19.06943492179067
 21
22.97836929100084
 31
0.0
100
AcDbText
  0
TEXT
  5
5B0B
330
17
100
AcDbEntity
  8
0
  6
Continuous
 62
     7
100
AcDbText
 10
26.26556142614892
 20
22.97836929100084
 30
0.0
 40
0.375
  1
BACK TO FRONT VERTICAL
 72
     1
 11
29.74390385452546
 21
22.97836929100084
 31
0.0
100
AcDbText
  0
TEXT
  5
5D45
330
17
100
AcDbEntity
  8
0
  6
Continuous
 62
     7
100
AcDbText
 10
15.17276333348235
 20
9.910488854889131
 30
0.0
 40
0.375
  1
CENTER TO FRONT VERTICAL
 72
     1
 11
19.01472274685207
 21
9.910488854889131
 31
0.0
100
AcDbText
  0
TEXT
  5
5D46
330
17
100
AcDbEntity
  8
0
  6
Continuous
 62
     7
100
AcDbText
 10
36.50916414254389
 20
22.97836929100084
 30
0.0
 40
0.375
  1
FRONT TO CENTER VERTICAL
 72
     1
 11
40.3511235559136
 21
22.97836929100084
 31
0.0
100
AcDbText
  0
TEXT
  5
5D4C
330
17
100
AcDbEntity
  8
0
  6
Continuous
 62
     7
100
AcDbText
 10
25.89610980696763
 20
9.910488854889131
 30
0.0
 40
0.375
  1
CENTER TO BACK VERTICAL
 72
     1
 11
29.54929022988713
 21
9.910488854889131
 31
0.0
100
AcDbText
  0
TEXT
  5
614B
330
17
100
AcDbEntity
  8
0
  6
Continuous
 62
     7
100
AcDbText
 10
36.21272079564205
 20
9.910488854889131
 30
0.0
 40
0.375
  1
BACK TO CENTER VERTICAL
 72
     1
 11
39.86590121856156
 21
9.910488854889131
 31
0.0
100
AcDbText
  0
LWPOLYLINE
  5
6428
330
17
100
AcDbEntity
  8
R-SWTS-DET1
100
AcDbPolyline
 90
        6
 70
     0
 43
0.0
 10
32.34990757927555
 20
26.0416362451143
 10
32.34990757927555
 20
28.4853606180498
 10
32.54988757927555
 20
28.53538061804981
 10
32.14990757927554
 20
28.63536061804981
 10
32.34990757927555
 20
28.68536061804981
 10
32.34990757927555
 20
31.09955111275159
  0
LWPOLYLINE
  5
6429
330
17
100
AcDbEntity
  8
R-SWTS-DET1
100
AcDbPolyline
 90
        6
 70
     0
 43
0.0
 10
26.59990757927557
 20
31.0722110454142
 10
26.59990757927557
 20
28.68511827286049
 10
26.39992757927557
 20
28.63509827286048
 10
26.79990757927557
 20
28.53511827286048
 10
26.59990757927557
 20
28.48511827286048
 10
26.59990757927557
 20
26.0416362451143
  0
LINE
  5
642A
330
17
100
AcDbEntity
  8
R-SWTS-DET1
100
AcDbLine
 10
28.59990757927556
 20
26.3130994014598
 30
0.0
 11
26.59990757927556
 21
26.3130994014598
 31
0.0
  0
LINE
  5
642B
330
17
100
AcDbEntity
  8
R-SWTS-DET1
100
AcDbLine
 10
30.34989757927555
 20
26.31137061804981
 30
0.0
 11
32.34990757927555
 21
26.31137061804981
 31
0.0
  0
LINE
  5
642C
330
17
100
AcDbEntity
  8
R-SWTS-DET1
100
AcDbLine
 10
28.59991757927558
 20
30.81110827286049
 30
0.0
 11
26.59990757927557
 21
30.81110827286049
 31
0.0
  0
LINE
  5
642D
330
17
100
AcDbEntity
  8
R-SWTS-DET1
100
AcDbLine
 10
30.34989757927555
 20
30.81137061804981
 30
0.0
 11
32.34990757927555
 21
30.81137061804981
 31
0.0
  0
TEXT
  5
642E
330
17
100
AcDbEntity
  8
PART_NUMBERS
100
AcDbText
 10
26.77450704910249
 20
31.35035066864145
 30
0.0
 40
0.25
  1
450VG069 TRANSITION MULLION
100
AcDbText
  0
LINE
  5
642F
330
17
100
AcDbEntity
  8
R-SWTS-DET2
100
AcDbLine
 10
28.59990757927556
 20
30.79217246061893
 30
0.0
 11
26.59992770991215
 21
30.79217246061893
 31
0.0
  0
LINE
  5
6430
330
17
100
AcDbEntity
  8
R-SWTS-DET3
100
AcDbLine
 10
28.97490757927557
 20
30.27481874616409
 30
0.0
 11
28.97490757927556
 21
30.02481874616409
 31
0.0
  0
LINE
  5
6431
330
17
100
AcDbEntity
  8
R-SWTS-DET3
100
AcDbLine
 10
28.97490757927557
 20
30.27481874616409
 30
0.0
 11
26.59990757927557
 21
30.27481874616409
 31
0.0
  0
LINE
  5
6432
330
17
100
AcDbEntity
  8
R-SWTS-DET3
100
AcDbLine
 10
28.97490757927556
 20
30.02481874616409
 30
0.0
 11
26.59990757927557
 21
30.02481874616409
 31
0.0
  0
LINE
  5
6433
330
17
100
AcDbEntity
  8
R-SWTS-DET2
100
AcDbLine
 10
28.59990757927556
 20
29.50746503170925
 30
0.0
 11
26.59992770991215
 21
29.50746503170925
 31
0.0
  0
LINE
  5
6434
330
17
100
AcDbEntity
  8
R-SWTS-DET2
100
AcDbLine
 10
30.34990757927555
 20
27.61829640608056
 30
0.0
 11
32.34988744863896
 21
27.61829640608056
 31
0.0
  0
LINE
  5
6435
330
17
100
AcDbEntity
  8
R-SWTS-DET3
100
AcDbLine
 10
29.97490757927554
 20
27.10094269162572
 30
0.0
 11
29.97490757927554
 21
26.85094269162572
 31
0.0
  0
LINE
  5
6436
330
17
100
AcDbEntity
  8
R-SWTS-DET3
100
AcDbLine
 10
29.97490757927554
 20
27.10094269162572
 30
0.0
 11
32.34990757927555
 21
27.10094269162572
 31
0.0
  0
LINE
  5
6437
330
17
100
AcDbEntity
  8
R-SWTS-DET3
100
AcDbLine
 10
29.97490757927554
 20
26.85094269162572
 30
0.0
 11
32.34990757927555
 21
26.85094269162572
 31
0.0
  0
LINE
  5
6438
330
17
100
AcDbEntity
  8
R-SWTS-DET2
100
AcDbLine
 10
30.34990757927555
 20
26.33358897717088
 30
0.0
 11
32.34988744863896
 21
26.33358897717088
 31
0.0
  0
LWPOLYLINE
  5
6439
330
17
100
AcDbEntity
  8
R-SWTS-DET1
100
AcDbPolyline
 90
       92
 70
     1
 43
0.0
 10
28.70240757927556
 20
30.50309940145981
 10
28.74040757927557
 20
30.50309940145981
 10
28.84256581309192
 20
30.52553644944513
 42
0.3541185725306839
 10
28.85840757927556
 20
30.54509940145981
 10
28.85840757927557
 20
30.58704940145981
 10
28.79178524880522
 20
30.65372707098948
 42
0.1989123673796788
 10
28.77410757927556
 20
30.66104940145982
 10
28.70240757927556
 20
30.66104940145982
 10
28.70240757927556
 20
30.63204940145981
 10
28.59990757927556
 20
30.66807970449012
 10
28.59990757927556
 20
30.81309940145982
 10
30.34990757927556
 20
30.81309940145981
 10
30.34990757927556
 20
30.72309940145981
 10
30.02090757927556
 20
30.72309940145981
 10
30.02090757927556
 20
30.66108163450684
 42
-0.6681786379192439
 10
30.0038365114637
 20
30.65401056669497
 10
29.93474767669886
 20
30.72309940145981
 10
29.80377797164221
 20
30.72309940145981
 42
0.4142135623730743
 10
29.77877797164221
 20
30.69809940145981
 10
29.77877797164221
 20
30.4357828597817
 42
0.4142135623730898
 10
29.87877797164221
 20
30.3357828597817
 10
30.12364131103943
 20
30.3357828597817
 10
30.13948546212373
 20
30.36322573446251
 42
-0.4142135623731251
 10
30.1599758431805
 20
30.36871611551927
 10
30.20950648558051
 20
30.34011958579649
 42
-0.267949192431105
 10
30.21700648558051
 20
30.32712920473972
 10
30.21700648558051
 20
30.30054709658916
 42
-0.4142135623730951
 10
30.20200648558051
 20
30.28554709658916
 10
29.87877797164221
 20
30.28554709658916
 42
-0.4142135623730951
 10
29.72877797164221
 20
30.43554709658916
 10
29.72877797164221
 20
30.69809940145981
 42
0.4142135623730847
 10
29.70377797164221
 20
30.72309940145981
 10
29.62490757927557
 20
30.72309940145981
 42
0.4142135623730951
 10
29.56490757927557
 20
30.66309940145981
 10
29.56490757927556
 20
29.83709440145984
 42
-0.4142135623730951
 10
29.37490757927557
 20
29.64709440145983
 10
28.92999523476769
 20
29.64709440145981
 42
0.1990202627215743
 10
28.91231022793528
 20
29.63976473064004
 10
28.85252917263226
 20
29.57993401890288
 42
-0.1990202627215685
 10
28.77825214393612
 20
29.54914940145981
 10
28.76990757927556
 20
29.54914940145981
 42
0.4142135623730886
 10
28.68990757927556
 20
29.46914940145982
 10
28.68990757927556
 20
26.56684940145981
 42
0.4142135623730951
 10
28.75990757927556
 20
26.49684940145981
 10
28.78905328594191
 20
26.49684940145981
 42
0.4142135623730951
 10
28.85905328594191
 20
26.56684940145981
 10
28.85905328594191
 20
26.57751985600526
 42
0.081971439864274
 10
28.80613836421328
 20
26.73677456951763
 42
-0.257464228989668
 10
28.80649357511713
 20
26.75488047082978
 10
28.81881649921195
 20
26.77622440145982
 42
-0.5825402726417969
 10
28.85143612743349
 20
26.77597102308143
 42
-0.1277034272886842
 10
28.92390757927556
 20
26.49684940145981
 10
28.92390757927556
 20
26.40309940145981
 10
28.59990757927556
 20
26.40309940145981
 10
28.59990757927556
 20
29.63211909842951
 10
28.70240757927557
 20
29.66814940145981
 10
28.70240757927557
 20
29.63914940145981
 10
28.77410757927556
 20
29.63914940145981
 42
0.1989123673796722
 10
28.79178524880522
 20
29.64647173193015
 10
28.85840757927557
 20
29.71314940145981
 10
28.85840757927557
 20
29.75509940145981
 42
0.3541185725307012
 10
28.84256581309192
 20
29.77466235347449
 10
28.74040757927557
 20
29.79709940145981
 10
28.70240757927557
 20
29.79709940145981
 10
28.70240757927557
 20
29.76809940145982
 10
28.69040757927557
 20
29.76809940145982
 42
-0.4142135623730951
 10
28.67040757927556
 20
29.78809940145981
 10
28.67040757927556
 20
29.81709940145981
 42
-0.4142135623730951
 10
28.69040757927556
 20
29.83709940145981
 10
28.89240257927557
 20
29.83709940145981
 42
-0.4142135623730951
 10
28.93040757927557
 20
29.79909440145981
 10
28.90840757927557
 20
29.79909440145981
 10
28.90840757927557
 20
29.76209440145981
 42
0.4142135623731159
 10
28.93340757927557
 20
29.73709440145981
 10
29.37490757927557
 20
29.73709440145984
 42
0.4142135623730925
 10
29.47490757927556
 20
29.83709440145983
 10
29.47490757927556
 20
30.66309940145981
 42
0.4142135623730906
 10
29.41490757927556
 20
30.72309940145981
 10
28.88383255329068
 20
30.72309940145981
 42
0.6681640521692409
 10
28.86968984725228
 20
30.68895783627375
 10
28.92308596182357
 20
30.63555741404048
 42
-0.1989018846181243
 10
28.93040757927557
 20
30.61788045755792
 10
28.93040757927557
 20
30.56310440145981
 10
28.90840757927557
 20
30.56310440145981
 10
28.90840757927557
 20
30.50110440145981
 10
28.93040757927557
 20
30.50110440145981
 42
-0.4142135623730815
 10
28.89240257927557
 20
30.46309940145981
 10
28.69040757927556
 20
30.46309940145981
 42
-0.4142135623730951
 10
28.67040757927556
 20
30.48309940145981
 10
28.67040757927556
 20
30.51209940145982
 42
-0.4142135623730951
 10
28.69040757927556
 20
30.53209940145981
 10
28.70240757927556
 20
30.53209940145981
  0
LWPOLYLINE
  5
643A
330
17
100
AcDbEntity
  8
R-SWTS-DET1
100
AcDbPolyline
 90
       92
 70
     1
 43
0.0
 10
30.24740757927556
 20
26.6230994014598
 10
30.20940757927555
 20
26.6230994014598
 10
30.1072493454592
 20
26.60066235347448
 42
0.3541185725306839
 10
30.09140757927556
 20
26.5810994014598
 10
30.09140757927556
 20
26.5391494014598
 10
30.15802990974589
 20
26.47247173193014
 42
0.1989123673796788
 10
30.17570757927555
 20
26.4651494014598
 10
30.24740757927556
 20
26.4651494014598
 10
30.24740757927556
 20
26.4941494014598
 10
30.34990757927556
 20
26.4581190984295
 10
30.34990757927556
 20
26.3130994014598
 10
28.59990757927556
 20
26.3130994014598
 10
28.59990757927556
 20
26.40309940145981
 10
28.92890757927556
 20
26.40309940145981
 10
28.92890757927556
 20
26.46511716841277
 42
-0.6681786379192439
 10
28.94597864708742
 20
26.47218823622463
 10
29.01506748185227
 20
26.40309940145981
 10
29.14603718690891
 20
26.40309940145981
 42
0.4142135623730743
 10
29.17103718690891
 20
26.4280994014598
 10
29.17103718690891
 20
26.69041594313791
 42
0.4142135623730898
 10
29.07103718690891
 20
26.79041594313791
 10
28.82617384751169
 20
26.79041594313791
 10
28.81032969642739
 20
26.76297306845711
 42
-0.4142135623731251
 10
28.78983931537062
 20
26.75748268740034
 10
28.74030867297062
 20
26.78607921712313
 42
-0.267949192431105
 10
28.73280867297062
 20
26.79906959817989
 10
28.73280867297061
 20
26.82565170633045
 42
-0.4142135623730951
 10
28.74780867297061
 20
26.84065170633045
 10
29.07103718690891
 20
26.84065170633045
 42
-0.4142135623730951
 10
29.22103718690891
 20
26.69065170633045
 10
29.22103718690891
 20
26.4280994014598
 42
0.4142135623730847
 10
29.24603718690891
 20
26.40309940145981
 10
29.32490757927555
 20
26.40309940145981
 42
0.4142135623730951
 10
29.38490757927555
 20
26.46309940145981
 10
29.38490757927556
 20
27.28910440145977
 42
-0.4142135623730951
 10
29.57490757927555
 20
27.47910440145978
 10
30.01981992378343
 20
27.4791044014598
 42
0.1990202627215743
 10
30.03750493061585
 20
27.48643407227957
 10
30.09728598591886
 20
27.54626478401674
 42
-0.1990202627215685
 10
30.171563014615
 20
27.5770494014598
 10
30.17990757927556
 20
27.5770494014598
 42
0.4142135623730886
 10
30.25990757927556
 20
27.6570494014598
 10
30.25990757927556
 20
30.5593494014598
 42
0.4142135623730951
 10
30.18990757927556
 20
30.6293494014598
 10
30.16076187260921
 20
30.6293494014598
 42
0.4142135623730951
 10
30.09076187260922
 20
30.5593494014598
 10
30.09076187260922
 20
30.54867894691435
 42
0.081971439864274
 10
30.14367679433784
 20
30.38942423340198
 42
-0.257464228989668
 10
30.143321583434
 20
30.37131833208984
 10
30.13099865933917
 20
30.34997440145979
 42
-0.5825402726417969
 10
30.09837903111763
 20
30.35022777983818
 42
-0.1277034272886842
 10
30.02590757927556
 20
30.6293494014598
 10
30.02590757927556
 20
30.7230994014598
 10
30.34990757927556
 20
30.7230994014598
 10
30.34990757927556
 20
27.4940797044901
 10
30.24740757927555
 20
27.4580494014598
 10
30.24740757927555
 20
27.4870494014598
 10
30.17570757927555
 20
27.4870494014598
 42
0.1989123673796722
 10
30.15802990974589
 20
27.47972707098946
 10
30.09140757927556
 20
27.4130494014598
 10
30.09140757927556
 20
27.3710994014598
 42
0.3541185725307012
 10
30.1072493454592
 20
27.35153644944512
 10
30.20940757927555
 20
27.3290994014598
 10
30.24740757927555
 20
27.3290994014598
 10
30.24740757927555
 20
27.3580994014598
 10
30.25940757927556
 20
27.3580994014598
 42
-0.4142135623730951
 10
30.27940757927555
 20
27.3380994014598
 10
30.27940757927556
 20
27.3090994014598
 42
-0.4142135623730951
 10
30.25940757927556
 20
27.2890994014598
 10
30.05741257927555
 20
27.2890994014598
 42
-0.4142135623730951
 10
30.01940757927555
 20
27.3271044014598
 10
30.04140757927555
 20
27.3271044014598
 10
30.04140757927555
 20
27.3641044014598
 42
0.4142135623731159
 10
30.01640757927555
 20
27.3891044014598
 10
29.57490757927555
 20
27.38910440145978
 42
0.4142135623730925
 10
29.47490757927555
 20
27.28910440145977
 10
29.47490757927556
 20
26.46309940145981
 42
0.4142135623730906
 10
29.53490757927556
 20
26.40309940145981
 10
30.06598260526044
 20
26.40309940145981
 42
0.6681640521692409
 10
30.08012531129884
 20
26.43724096664586
 10
30.02672919672755
 20
26.49064138887913
 42
-0.1989018846181243
 10
30.01940757927555
 20
26.5083183453617
 10
30.01940757927555
 20
26.5630944014598
 10
30.04140757927555
 20
26.5630944014598
 10
30.04140757927555
 20
26.62509440145981
 10
30.01940757927555
 20
26.62509440145981
 42
-0.4142135623730815
 10
30.05741257927555
 20
26.6630994014598
 10
30.25940757927556
 20
26.6630994014598
 42
-0.4142135623730951
 10
30.27940757927556
 20
26.6430994014598
 10
30.27940757927556
 20
26.6140994014598
 42
-0.4142135623730951
 10
30.25940757927556
 20
26.5940994014598
 10
30.24740757927556
 20
26.5940994014598
  0
LWPOLYLINE
  5
643B
330
17
100
AcDbEntity
  8
R-SWTS-DET2
100
AcDbPolyline
 90
       31
 70
     1
 43
0.0
 10
30.23590555111109
 20
26.47740409577192
 10
30.24077985170906
 20
26.50422062231086
 10
30.34801444939081
 20
26.47009049818973
 10
30.3528887482695
 20
26.40914384752966
 10
30.34990757927555
 20
26.33358897717088
 10
30.38091712189678
 20
26.3436795187292
 42
0.1257100272134179
 10
30.43265944949044
 20
26.57567092075125
 42
-0.2260837189018228
 10
30.48237730813454
 20
26.72925648118286
 10
30.59331792629489
 20
26.82481179084255
 42
0.6449762263124317
 10
30.58157658382123
 20
26.85074608286074
 10
30.45233964819185
 20
26.84916634583268
 42
0.1518691569180708
 10
30.40790449384259
 20
26.83281356923635
 10
30.34797871457411
 20
26.7943103809411
 42
-0.0293454671788447
 10
30.29609607138149
 20
26.7769154917382
 10
30.17430206154445
 20
26.75968520215468
 42
-0.6538117075652882
 10
30.16731532457908
 20
26.77992601305753
 10
30.332564242069
 20
26.82401776027986
 42
0.8886355728344963
 10
30.33050281116962
 20
26.84916634583268
 10
30.19625719077696
 20
26.84916634583268
 42
0.0642046489364144
 10
30.00764093406968
 20
26.80673388392326
 42
0.6896355001773956
 10
30.00764093406968
 20
26.70412515353515
 42
0.0703560868358924
 10
30.19625719077696
 20
26.66289269162572
 10
30.29196000111059
 20
26.66289269162572
 10
30.29196000111059
 20
26.58954593364914
 10
30.23834270141008
 20
26.56760513883166
 10
30.23346840253139
 20
26.60661099674514
 10
30.19691115320448
 20
26.57248087055313
 10
30.17497680395219
 20
26.60417313088441
 10
30.12135950597095
 20
26.54322647815346
 10
30.18716255372782
 20
26.48715555921486
 10
30.19691115320448
 20
26.51153421989306
  0
LWPOLYLINE
  5
643C
330
17
100
AcDbEntity
  8
R-SWTS-DET2
100
AcDbPolyline
 90
       31
 70
     1
 43
0.0
 10
30.23590555111109
 20
27.47448128747951
 10
30.24077985170906
 20
27.44766476094058
 10
30.34801444939081
 20
27.48179488506171
 10
30.3528887482695
 20
27.54274153572178
 10
30.34990757927555
 20
27.61829640608056
 10
30.38091712189679
 20
27.60820586452224
 42
-0.1257100272134179
 10
30.43265944949044
 20
27.37621446250019
 42
0.2260837189018228
 10
30.48237730813454
 20
27.22262890206858
 10
30.59331792629489
 20
27.12707359240889
 42
-0.6449762263124317
 10
30.58157658382123
 20
27.1011393003907
 10
30.45233964819185
 20
27.10271903741876
 42
-0.1518691569180708
 10
30.40790449384259
 20
27.11907181401509
 10
30.34797871457411
 20
27.15757500231034
 42
0.0293454671788447
 10
30.29609607138149
 20
27.17496989151324
 10
30.17430206154445
 20
27.19220018109676
 42
0.6538117075652882
 10
30.16731532457908
 20
27.1719593701939
 10
30.332564242069
 20
27.12786762297158
 42
-0.8886355728344963
 10
30.33050281116962
 20
27.10271903741876
 10
30.19625719077696
 20
27.10271903741876
 42
-0.0642046489364144
 10
30.00764093406968
 20
27.14515149932818
 42
-0.6896355001773956
 10
30.00764093406968
 20
27.24776022971629
 42
-0.0703560868358924
 10
30.19625719077696
 20
27.28899269162571
 10
30.29196000111059
 20
27.28899269162571
 10
30.29196000111059
 20
27.3623394496023
 10
30.23834270141008
 20
27.38428024441978
 10
30.23346840253139
 20
27.3452743865063
 10
30.19691115320448
 20
27.37940451269831
 10
30.17497680395219
 20
27.34771225236703
 10
30.12135950597095
 20
27.40865890509798
 10
30.18716255372782
 20
27.46472982403658
 10
30.19691115320448
 20
27.44035116335838
  0
LWPOLYLINE
  5
643D
330
17
100
AcDbEntity
  8
R-SWTS-DET2
100
AcDbPolyline
 90
       31
 70
     1
 43
0.0
 10
28.71390960744001
 20
29.65128015031029
 10
28.70903530684205
 20
29.67809667684923
 10
28.6018007091603
 20
29.6439665527281
 10
28.59692641028161
 20
29.58301990206802
 10
28.59990757927556
 20
29.50746503170925
 10
28.56889803665433
 20
29.51755557326757
 42
-0.1257100272134179
 10
28.51715570906068
 20
29.74954697528962
 42
0.2260837189018228
 10
28.46743785041658
 20
29.90313253572123
 10
28.35649723225622
 20
29.99868784538092
 42
-0.6449762263124317
 10
28.36823857472988
 20
30.02462213739911
 10
28.49747551035927
 20
30.02304240037105
 42
-0.1518691569180708
 10
28.54191066470852
 20
30.00668962377472
 10
28.601836443977
 20
29.96818643547947
 42
0.0293454671788447
 10
28.65371908716963
 20
29.95079154627657
 10
28.77551309700667
 20
29.93356125669305
 42
0.6538117075652882
 10
28.78249983397203
 20
29.9538020675959
 10
28.61725091648211
 20
29.99789381481823
 42
-0.8886355728344963
 10
28.6193123473815
 20
30.02304240037105
 10
28.75355796777416
 20
30.02304240037105
 42
-0.0642046489364144
 10
28.94217422448144
 20
29.98060993846163
 42
-0.6896355001773956
 10
28.94217422448144
 20
29.87800120807352
 42
-0.0703560868358924
 10
28.75355796777416
 20
29.83676874616409
 10
28.65785515744052
 20
29.83676874616409
 10
28.65785515744052
 20
29.7634219881875
 10
28.71147245714103
 20
29.74148119337003
 10
28.71634675601972
 20
29.78048705128351
 10
28.75290400534663
 20
29.7463569250915
 10
28.77483835459893
 20
29.77804918542278
 10
28.82845565258016
 20
29.71710253269183
 10
28.76265260482329
 20
29.66103161375322
 10
28.75290400534663
 20
29.68541027443143
  0
LWPOLYLINE
  5
643E
330
17
100
AcDbEntity
  8
R-SWTS-DET2
100
AcDbPolyline
 90
       31
 70
     1
 43
0.0
 10
28.71390960744001
 20
30.64835734201788
 10
28.70903530684205
 20
30.62154081547895
 10
28.6018007091603
 20
30.65567093960008
 10
28.59692641028161
 20
30.71661759026015
 10
28.59990757927556
 20
30.79217246061893
 10
28.56889803665433
 20
30.78208191906061
 42
0.1257100272134179
 10
28.51715570906068
 20
30.55009051703855
 42
-0.2260837189018228
 10
28.46743785041658
 20
30.39650495660695
 10
28.35649723225622
 20
30.30094964694725
 42
0.6449762263124317
 10
28.36823857472988
 20
30.27501535492907
 10
28.49747551035927
 20
30.27659509195713
 42
0.1518691569180708
 10
28.54191066470852
 20
30.29294786855345
 10
28.601836443977
 20
30.33145105684871
 42
-0.0293454671788447
 10
28.65371908716963
 20
30.34884594605161
 10
28.77551309700667
 20
30.36607623563513
 42
-0.6538117075652882
 10
28.78249983397203
 20
30.34583542473227
 10
28.61725091648211
 20
30.30174367750995
 42
0.8886355728344963
 10
28.6193123473815
 20
30.27659509195713
 10
28.75355796777416
 20
30.27659509195713
 42
0.0642046489364144
 10
28.94217422448144
 20
30.31902755386655
 42
0.6896355001773956
 10
28.94217422448144
 20
30.42163628425466
 42
0.0703560868358924
 10
28.75355796777416
 20
30.46286874616408
 10
28.65785515744052
 20
30.46286874616408
 10
28.65785515744052
 20
30.53621550414067
 10
28.71147245714103
 20
30.55815629895815
 10
28.71634675601972
 20
30.51915044104467
 10
28.75290400534663
 20
30.55328056723668
 10
28.77483835459893
 20
30.5215883069054
 10
28.82845565258016
 20
30.58253495963635
 10
28.76265260482329
 20
30.63860587857495
 10
28.75290400534663
 20
30.61422721789675
  0
LINE
  5
643F
330
17
100
AcDbEntity
  8
R-ANNO-DIMS
  6
Continuous
100
AcDbLine
 10
30.59989757927555
 20
24.5870994014598
 30
0.0
 11
32.09990757927555
 21
24.5870994014598
 31
0.0
  0
SOLID
  5
6440
330
17
100
AcDbEntity
  8
R-ANNO-DIMS
  6
Continuous
100
AcDbTrace
 10
30.59989757927555
 20
24.62876606812647
 30
0.0
 11
30.59989757927555
 21
24.54543273479314
 31
0.0
 12
30.34989757927555
 22
24.5870994014598
 32
0.0
 13
30.34989757927555
 23
24.5870994014598
 33
0.0
  0
SOLID
  5
6441
330
17
100
AcDbEntity
  8
R-ANNO-DIMS
  6
Continuous
100
AcDbTrace
 10
32.09990757927555
 20
24.62876606812647
 30
0.0
 11
32.09990757927555
 21
24.54543273479314
 31
0.0
 12
32.34990757927555
 22
24.5870994014598
 32
0.0
 13
32.34990757927555
 23
24.5870994014598
 33
0.0
  0
MTEXT
  5
6442
330
17
100
AcDbEntity
  8
R-ANNO-DIMS
  6
Continuous
100
AcDbMText
 10
31.34990257927555
 20
24.8164479689905
 30
0.0
 40
0.25
 41
0.0
 71
     5
 72
     1
  1
\A1;DLO
 73
     1
 44
1.0
1001
ACAD
1000
MTEXTBEGIN
1070
    73
1070
     1
1070
    44
1040
1.0
1070
    74
1070
     0
1000
MTEXTEND
  0
LINE
  5
6443
330
17
100
AcDbEntity
  8
R-ANNO-DIMS
  6
Continuous
100
AcDbLine
 10
28.34990757927556
 20
24.5870994014598
 30
0.0
 11
26.84990757927557
 21
24.5870994014598
 31
0.0
  0
SOLID
  5
6444
330
17
100
AcDbEntity
  8
R-ANNO-DIMS
  6
Continuous
100
AcDbTrace
 10
28.34990757927556
 20
24.62876606812647
 30
0.0
 11
28.34990757927556
 21
24.54543273479314
 31
0.0
 12
28.59990757927556
 22
24.5870994014598
 32
0.0
 13
28.59990757927556
 23
24.5870994014598
 33
0.0
  0
SOLID
  5
6445
330
17
100
AcDbEntity
  8
R-ANNO-DIMS
  6
Continuous
100
AcDbTrace
 10
26.84990757927557
 20
24.62876606812647
 30
0.0
 11
26.84990757927557
 21
24.54543273479314
 31
0.0
 12
26.59990757927557
 22
24.5870994014598
 32
0.0
 13
26.59990757927557
 23
24.5870994014598
 33
0.0
  0
MTEXT
  5
6446
330
17
100
AcDbEntity
  8
R-ANNO-DIMS
  6
Continuous
100
AcDbMText
 10
27.59990757927556
 20
24.8164479689905
 30
0.0
 40
0.25
 41
0.0
 71
     5
 72
     1
  1
\A1;DLO
 73
     1
 44
1.0
1001
ACAD
1000
MTEXTBEGIN
1070
    73
1070
     1
1070
    44
1040
1.0
1070
    74
1070
     0
1000
MTEXTEND
  0
LINE
  5
6447
330
17
100
AcDbEntity
  8
R-ANNO-DIMS
  6
Continuous
100
AcDbLine
 10
28.59990757927556
 20
25.9380994014598
 30
0.0
 11
28.59990757927556
 21
24.40709940145981
 31
0.0
  0
LINE
  5
6448
330
17
100
AcDbEntity
  8
R-ANNO-DIMS
  6
Continuous
100
AcDbLine
 10
30.34989757927555
 20
25.93637061804981
 30
0.0
 11
30.34989757927555
 21
24.40709940145981
 31
0.0
  0
LINE
  5
6449
330
17
100
AcDbEntity
  8
R-ANNO-DIMS
  6
Continuous
100
AcDbLine
 10
28.84990757927556
 20
24.5870994014598
 30
0.0
 11
30.09989757927555
 21
24.5870994014598
 31
0.0
  0
SOLID
  5
644A
330
17
100
AcDbEntity
  8
R-ANNO-DIMS
  6
Continuous
100
AcDbTrace
 10
28.84990757927556
 20
24.62876606812647
 30
0.0
 11
28.84990757927556
 21
24.54543273479314
 31
0.0
 12
28.59990757927556
 22
24.5870994014598
 32
0.0
 13
28.59990757927556
 23
24.5870994014598
 33
0.0
  0
SOLID
  5
644B
330
17
100
AcDbEntity
  8
R-ANNO-DIMS
  6
Continuous
100
AcDbTrace
 10
30.09989757927555
 20
24.62876606812647
 30
0.0
 11
30.09989757927555
 21
24.54543273479314
 31
0.0
 12
30.34989757927555
 22
24.5870994014598
 32
0.0
 13
30.34989757927555
 23
24.5870994014598
 33
0.0
  0
MTEXT
  5
644C
330
17
100
AcDbEntity
  8
R-ANNO-DIMS
  6
Continuous
100
AcDbMText
 10
29.47490257927555
 20
24.8164479689905
 30
0.0
 40
0.25
 41
0.0
 71
     5
 72
     1
  1
\A1;1 3/4"
 73
     1
 44
1.0
1001
ACAD
1000
MTEXTBEGIN
1070
    73
1070
     1
1070
    44
1040
1.0
1070
    74
1070
     0
1000
MTEXTEND
  0
TEXT
  5
644D
330
17
100
AcDbEntity
  8
PART_NUMBERS
100
AcDbText
 10
26.77450704910249
 20
31.85730634326768
 30
0.0
 40
0.25
  1
450VG069 TRANSITION MULLION
100
AcDbText
  0
LINE
  5
644E
330
17
100
AcDbEntity
  8
R-SWTS-DET1
100
AcDbLine
 10
19.82979722993085
 20
26.31242951872919
 30
0.0
 11
21.82979722993083
 21
26.31242951872919
 31
0.0
  0
LINE
  5
644F
330
17
100
AcDbEntity
  8
R-SWTS-DET1
100
AcDbLine
 10
19.82979722993084
 20
30.8124295187292
 30
0.0
 11
21.82979722993083
 21
30.8124295187292
 31
0.0
  0
LWPOLYLINE
  5
6450
330
17
100
AcDbEntity
  8
R-SWTS-DET1
100
AcDbPolyline
 90
        6
 70
     0
 43
0.0
 10
16.07979722993086
 20
31.02670017435122
 10
16.07979722993086
 20
28.6831279770136
 10
15.87981722993085
 20
28.6331079770136
 10
16.27979722993086
 20
28.5331279770136
 10
16.07979722993086
 20
28.4831279770136
 10
16.07979722993086
 20
26.07872581030388
  0
LINE
  5
6451
330
17
100
AcDbEntity
  8
R-SWTS-DET1
100
AcDbLine
 10
18.07979722993085
 20
26.31242951872919
 30
0.0
 11
16.07979722993086
 21
26.31242951872919
 31
0.0
  0
LINE
  5
6452
330
17
100
AcDbEntity
  8
R-SWTS-DET1
100
AcDbLine
 10
18.07979722993084
 20
30.8124295187292
 30
0.0
 11
16.07979722993086
 21
30.81242951872919
 31
0.0
  0
LWPOLYLINE
  5
6453
330
17
100
AcDbEntity
  8
R-SWTS-DET1
100
AcDbPolyline
 90
        6
 70
     0
 43
0.0
 10
21.82979722993083
 20
26.07872581030388
 10
21.82979722993083
 20
28.48005870286901
 10
22.02977722993083
 20
28.53007870286901
 10
21.62979722993083
 20
28.63005870286901
 10
21.82979722993083
 20
28.68005870286901
 10
21.82979722993083
 20
31.02670017435122
  0
TEXT
  5
6454
330
17
100
AcDbEntity
  8
PART_NUMBERS
100
AcDbText
 10
16.25263310153284
 20
31.27761933880598
 30
0.0
 40
0.25
  1
450VG069 TRANSITION MULLION
100
AcDbText
  0
LINE
  5
6455
330
17
100
AcDbEntity
  8
R-SWTS-DET2
100
AcDbLine
 10
18.07979722993085
 20
27.61762652334996
 30
0.0
 11
16.07981736056744
 21
27.61762652334996
 31
0.0
  0
LINE
  5
6456
330
17
100
AcDbEntity
  8
R-SWTS-DET3
100
AcDbLine
 10
18.45479722993086
 20
27.10027280889511
 30
0.0
 11
18.45479722993086
 21
26.85027280889511
 31
0.0
  0
LINE
  5
6457
330
17
100
AcDbEntity
  8
R-SWTS-DET3
100
AcDbLine
 10
18.45479722993086
 20
27.10027280889511
 30
0.0
 11
16.07979722993086
 21
27.10027280889511
 31
0.0
  0
LINE
  5
6458
330
17
100
AcDbEntity
  8
R-SWTS-DET3
100
AcDbLine
 10
18.45479722993086
 20
26.85027280889511
 30
0.0
 11
16.07979722993086
 21
26.85027280889511
 31
0.0
  0
LINE
  5
6459
330
17
100
AcDbEntity
  8
R-SWTS-DET2
100
AcDbLine
 10
18.07979722993085
 20
26.33291909444027
 30
0.0
 11
16.07981736056744
 21
26.33291909444027
 31
0.0
  0
LWPOLYLINE
  5
645A
330
17
100
AcDbEntity
  8
R-SWTS-DET1
100
AcDbPolyline
 90
       92
 70
     1
 43
0.0
 10
18.18229722993085
 20
26.62242951872919
 10
18.22029722993085
 20
26.62242951872919
 10
18.32245546374721
 20
26.59999247074387
 42
-0.3541185725306839
 10
18.33829722993085
 20
26.58042951872919
 10
18.33829722993085
 20
26.53847951872919
 10
18.27167489946051
 20
26.47180184919952
 42
-0.1989123673796788
 10
18.25399722993085
 20
26.46447951872918
 10
18.18229722993085
 20
26.46447951872918
 10
18.18229722993085
 20
26.49347951872919
 10
18.07979722993085
 20
26.45744921569888
 10
18.07979722993085
 20
26.31242951872919
 10
19.82979722993085
 20
26.31242951872919
 10
19.82979722993085
 20
26.40242951872919
 10
19.50079722993085
 20
26.40242951872919
 10
19.50079722993085
 20
26.46444728568216
 42
0.6681786379192439
 10
19.48372616211898
 20
26.47151835349403
 10
19.41463732735414
 20
26.40242951872919
 10
19.2836676222975
 20
26.40242951872919
 42
-0.4142135623730743
 10
19.2586676222975
 20
26.42742951872919
 10
19.2586676222975
 20
26.6897460604073
 42
-0.4142135623730898
 10
19.35866762229749
 20
26.7897460604073
 10
19.60353096169472
 20
26.7897460604073
 10
19.61937511277902
 20
26.76230318572649
 42
0.4142135623731251
 10
19.63986549383578
 20
26.75681280466973
 10
19.68939613623579
 20
26.78540933439251
 42
0.267949192431105
 10
19.69689613623579
 20
26.79839971544928
 10
19.6968961362358
 20
26.82498182359984
 42
0.4142135623730951
 10
19.68189613623579
 20
26.83998182359984
 10
19.3586676222975
 20
26.83998182359984
 42
0.4142135623730951
 10
19.2086676222975
 20
26.68998182359984
 10
19.2086676222975
 20
26.42742951872919
 42
-0.4142135623730847
 10
19.1836676222975
 20
26.40242951872919
 10
19.10479722993085
 20
26.40242951872919
 42
-0.4142135623730951
 10
19.04479722993085
 20
26.46242951872919
 10
19.04479722993085
 20
27.28843451872916
 42
0.4142135623730951
 10
18.85479722993086
 20
27.47843451872917
 10
18.40988488542297
 20
27.47843451872919
 42
-0.1990202627215743
 10
18.39219987859056
 20
27.48576418954896
 10
18.33241882328755
 20
27.54559490128612
 42
0.1990202627215685
 10
18.25814179459141
 20
27.57637951872919
 10
18.24979722993085
 20
27.57637951872919
 42
-0.4142135623730886
 10
18.16979722993085
 20
27.65637951872919
 10
18.16979722993085
 20
30.55867951872919
 42
-0.4142135623730951
 10
18.23979722993085
 20
30.62867951872919
 10
18.26894293659719
 20
30.62867951872919
 42
-0.4142135623730951
 10
18.33894293659719
 20
30.55867951872919
 10
18.33894293659719
 20
30.54800906418374
 42
-0.081971439864274
 10
18.28602801486857
 20
30.38875435067137
 42
0.257464228989668
 10
18.28638322577241
 20
30.37064844935923
 10
18.29870614986724
 20
30.34930451872918
 42
0.5825402726417969
 10
18.33132577808878
 20
30.34955789710756
 42
0.1277034272886842
 10
18.40379722993085
 20
30.62867951872919
 10
18.40379722993085
 20
30.72242951872919
 10
18.07979722993085
 20
30.72242951872919
 10
18.07979722993085
 20
27.49340982175949
 10
18.18229722993085
 20
27.45737951872919
 10
18.18229722993085
 20
27.48637951872919
 10
18.25399722993085
 20
27.48637951872919
 42
-0.1989123673796722
 10
18.27167489946051
 20
27.47905718825885
 10
18.33829722993085
 20
27.41237951872919
 10
18.33829722993085
 20
27.37042951872919
 42
-0.3541185725307012
 10
18.32245546374721
 20
27.35086656671451
 10
18.22029722993085
 20
27.32842951872919
 10
18.18229722993085
 20
27.32842951872919
 10
18.18229722993085
 20
27.35742951872918
 10
18.17029722993085
 20
27.35742951872918
 42
0.4142135623730951
 10
18.15029722993085
 20
27.33742951872919
 10
18.15029722993085
 20
27.30842951872919
 42
0.4142135623730951
 10
18.17029722993085
 20
27.28842951872919
 10
18.37229222993085
 20
27.28842951872918
 42
0.4142135623730951
 10
18.41029722993085
 20
27.32643451872919
 10
18.38829722993085
 20
27.32643451872919
 10
18.38829722993085
 20
27.36343451872918
 42
-0.4142135623731159
 10
18.41329722993085
 20
27.38843451872919
 10
18.85479722993085
 20
27.38843451872917
 42
-0.4142135623730925
 10
18.95479722993085
 20
27.28843451872917
 10
18.95479722993085
 20
26.46242951872919
 42
-0.4142135623730906
 10
18.89479722993085
 20
26.40242951872919
 10
18.36372220394596
 20
26.40242951872919
 42
-0.6681640521692409
 10
18.34957949790756
 20
26.43657108391525
 10
18.40297561247885
 20
26.48997150614852
 42
0.1989018846181243
 10
18.41029722993085
 20
26.50764846263108
 10
18.41029722993085
 20
26.56242451872919
 10
18.38829722993085
 20
26.56242451872919
 10
18.38829722993085
 20
26.62442451872919
 10
18.41029722993085
 20
26.62442451872919
 42
0.4142135623730815
 10
18.37229222993085
 20
26.66242951872919
 10
18.17029722993085
 20
26.66242951872919
 42
0.4142135623730951
 10
18.15029722993085
 20
26.64242951872919
 10
18.15029722993085
 20
26.61342951872919
 42
0.4142135623730951
 10
18.17029722993085
 20
26.59342951872919
 10
18.18229722993085
 20
26.59342951872919
  0
LWPOLYLINE
  5
645B
330
17
100
AcDbEntity
  8
R-SWTS-DET1
100
AcDbPolyline
 90
       92
 70
     1
 43
0.0
 10
19.72729722993084
 20
30.50242951872919
 10
19.68929722993083
 20
30.50242951872919
 10
19.58713899611448
 20
30.52486656671451
 42
-0.3541185725306839
 10
19.57129722993084
 20
30.54442951872919
 10
19.57129722993083
 20
30.58637951872919
 10
19.63791956040117
 20
30.65305718825886
 42
-0.1989123673796788
 10
19.65559722993083
 20
30.6603795187292
 10
19.72729722993084
 20
30.6603795187292
 10
19.72729722993084
 20
30.63137951872919
 10
19.82979722993084
 20
30.6674098217595
 10
19.82979722993084
 20
30.8124295187292
 10
18.07979722993084
 20
30.8124295187292
 10
18.07979722993084
 20
30.72242951872919
 10
18.40879722993084
 20
30.72242951872919
 10
18.40879722993084
 20
30.66041175177622
 42
0.6681786379192439
 10
18.4258682977427
 20
30.65334068396436
 10
18.49495713250754
 20
30.72242951872919
 10
18.62592683756419
 20
30.72242951872919
 42
-0.4142135623730743
 10
18.65092683756419
 20
30.69742951872919
 10
18.65092683756419
 20
30.43511297705108
 42
-0.4142135623730898
 10
18.55092683756419
 20
30.33511297705108
 10
18.30606349816697
 20
30.33511297705108
 10
18.29021934708267
 20
30.36255585173189
 42
0.4142135623731251
 10
18.2697289660259
 20
30.36804623278865
 10
18.22019832362589
 20
30.33944970306587
 42
0.267949192431105
 10
18.21269832362589
 20
30.3264593220091
 10
18.21269832362589
 20
30.29987721385854
 42
0.4142135623730951
 10
18.22769832362589
 20
30.28487721385854
 10
18.55092683756419
 20
30.28487721385854
 42
0.4142135623730951
 10
18.70092683756418
 20
30.43487721385854
 10
18.70092683756418
 20
30.69742951872919
 42
-0.4142135623730847
 10
18.72592683756419
 20
30.72242951872919
 10
18.80479722993083
 20
30.72242951872919
 42
-0.4142135623730951
 10
18.86479722993083
 20
30.66242951872919
 10
18.86479722993083
 20
29.83642451872922
 42
0.4142135623730951
 10
19.05479722993083
 20
29.64642451872921
 10
19.49970957443871
 20
29.64642451872919
 42
-0.1990202627215743
 10
19.51739458127112
 20
29.63909484790942
 10
19.57717563657413
 20
29.57926413617226
 42
0.1990202627215685
 10
19.65145266527027
 20
29.5484795187292
 10
19.65979722993084
 20
29.5484795187292
 42
-0.4142135623730886
 10
19.73979722993084
 20
29.4684795187292
 10
19.73979722993084
 20
26.56617951872919
 42
-0.4142135623730951
 10
19.66979722993083
 20
26.49617951872919
 10
19.64065152326449
 20
26.49617951872919
 42
-0.4142135623730951
 10
19.57065152326449
 20
26.56617951872919
 10
19.57065152326449
 20
26.57684997327464
 42
-0.081971439864274
 10
19.62356644499312
 20
26.73610468678701
 42
0.257464228989668
 10
19.62321123408927
 20
26.75421058809915
 10
19.61088830999445
 20
26.7755545187292
 42
0.5825402726417969
 10
19.5782686817729
 20
26.77530114035082
 42
0.1277034272886842
 10
19.50579722993084
 20
26.49617951872919
 10
19.50579722993084
 20
26.40242951872919
 10
19.82979722993083
 20
26.40242951872919
 10
19.82979722993083
 20
29.63144921569889
 10
19.72729722993083
 20
29.66747951872919
 10
19.72729722993083
 20
29.63847951872919
 10
19.65559722993083
 20
29.63847951872919
 42
-0.1989123673796722
 10
19.63791956040117
 20
29.64580184919953
 10
19.57129722993083
 20
29.7124795187292
 10
19.57129722993083
 20
29.75442951872919
 42
-0.3541185725307012
 10
19.58713899611448
 20
29.77399247074387
 10
19.68929722993083
 20
29.79642951872919
 10
19.72729722993083
 20
29.79642951872919
 10
19.72729722993083
 20
29.7674295187292
 10
19.73929722993083
 20
29.7674295187292
 42
0.4142135623730951
 10
19.75929722993083
 20
29.78742951872919
 10
19.75929722993084
 20
29.81642951872919
 42
0.4142135623730951
 10
19.73929722993084
 20
29.83642951872919
 10
19.53730222993083
 20
29.8364295187292
 42
0.4142135623730951
 10
19.49929722993083
 20
29.7984245187292
 10
19.52129722993083
 20
29.7984245187292
 10
19.52129722993083
 20
29.7614245187292
 42
-0.4142135623731159
 10
19.49629722993083
 20
29.73642451872919
 10
19.05479722993083
 20
29.73642451872921
 42
-0.4142135623730925
 10
18.95479722993083
 20
29.83642451872921
 10
18.95479722993084
 20
30.66242951872919
 42
-0.4142135623730906
 10
19.01479722993084
 20
30.72242951872919
 10
19.54587225591572
 20
30.72242951872919
 42
-0.6681640521692409
 10
19.56001496195412
 20
30.68828795354313
 10
19.50661884738283
 20
30.63488753130986
 42
0.1989018846181243
 10
19.49929722993083
 20
30.6172105748273
 10
19.49929722993083
 20
30.56243451872919
 10
19.52129722993083
 20
30.56243451872919
 10
19.52129722993083
 20
30.50043451872919
 10
19.49929722993083
 20
30.50043451872919
 42
0.4142135623730815
 10
19.53730222993083
 20
30.46242951872919
 10
19.73929722993084
 20
30.46242951872919
 42
0.4142135623730951
 10
19.75929722993084
 20
30.48242951872919
 10
19.75929722993084
 20
30.51142951872919
 42
0.4142135623730951
 10
19.73929722993084
 20
30.53142951872919
 10
19.72729722993084
 20
30.53142951872919
  0
LINE
  5
645C
330
17
100
AcDbEntity
  8
R-SWTS-DET2
100
AcDbLine
 10
19.82979722993083
 20
30.79150257788832
 30
0.0
 11
21.82977709929424
 21
30.79150257788832
 31
0.0
  0
LINE
  5
645D
330
17
100
AcDbEntity
  8
R-SWTS-DET3
100
AcDbLine
 10
19.45479722993083
 20
30.27414886343348
 30
0.0
 11
19.45479722993083
 21
30.02414886343348
 31
0.0
  0
LINE
  5
645E
330
17
100
AcDbEntity
  8
R-SWTS-DET3
100
AcDbLine
 10
19.45479722993083
 20
30.27414886343348
 30
0.0
 11
21.82979722993083
 21
30.27414886343348
 31
0.0
  0
LINE
  5
645F
330
17
100
AcDbEntity
  8
R-SWTS-DET3
100
AcDbLine
 10
19.45479722993083
 20
30.02414886343348
 30
0.0
 11
21.82979722993083
 21
30.02414886343348
 31
0.0
  0
LINE
  5
6460
330
17
100
AcDbEntity
  8
R-SWTS-DET2
100
AcDbLine
 10
19.82979722993083
 20
29.50679514897864
 30
0.0
 11
21.82977709929424
 21
29.50679514897864
 31
0.0
  0
LWPOLYLINE
  5
6461
330
17
100
AcDbEntity
  8
R-SWTS-DET2
100
AcDbPolyline
 90
       31
 70
     1
 43
0.0
 10
19.71579520176638
 20
29.65061026757969
 10
19.72066950236435
 20
29.67742679411863
 10
19.8279041000461
 20
29.64329666999749
 10
19.83277839892479
 20
29.58235001933742
 10
19.82979722993083
 20
29.50679514897864
 10
19.86080677255207
 20
29.51688569053696
 42
0.1257100272134179
 10
19.91254910014572
 20
29.74887709255901
 42
-0.2260837189018228
 10
19.96226695878982
 20
29.90246265299062
 10
20.07320757695018
 20
29.99801796265031
 42
0.6449762263124317
 10
20.06146623447652
 20
30.0239522546685
 10
19.93222929884713
 20
30.02237251764044
 42
0.1518691569180708
 10
19.88779414449787
 20
30.00601974104411
 10
19.8278683652294
 20
29.96751655274886
 42
-0.0293454671788447
 10
19.77598572203677
 20
29.95012166354597
 10
19.65419171219973
 20
29.93289137396244
 42
-0.6538117075652882
 10
19.64720497523437
 20
29.9531321848653
 10
19.81245389272429
 20
29.99722393208762
 42
0.8886355728344963
 10
19.8103924618249
 20
30.02237251764044
 10
19.67614684143224
 20
30.02237251764044
 42
0.0642046489364144
 10
19.48753058472496
 20
29.97994005573102
 42
0.6896355001773956
 10
19.48753058472496
 20
29.87733132534291
 42
0.0703560868358924
 10
19.67614684143224
 20
29.83609886343348
 10
19.77184965176588
 20
29.83609886343348
 10
19.77184965176588
 20
29.7627521054569
 10
19.71823235206537
 20
29.74081131063942
 10
19.71335805318668
 20
29.7798171685529
 10
19.67680080385976
 20
29.74568704236089
 10
19.65486645460747
 20
29.77737930269217
 10
19.60124915662624
 20
29.71643264996122
 10
19.66705220438311
 20
29.66036173102262
 10
19.67680080385976
 20
29.68474039170082
  0
LWPOLYLINE
  5
6462
330
17
100
AcDbEntity
  8
R-SWTS-DET2
100
AcDbPolyline
 90
       31
 70
     1
 43
0.0
 10
19.71579520176638
 20
30.64768745928728
 10
19.72066950236435
 20
30.62087093274834
 10
19.8279041000461
 20
30.65500105686947
 10
19.83277839892479
 20
30.71594770752954
 10
19.82979722993083
 20
30.79150257788832
 10
19.86080677255207
 20
30.78141203633001
 42
-0.1257100272134179
 10
19.91254910014572
 20
30.54942063430795
 42
0.2260837189018228
 10
19.96226695878982
 20
30.39583507387634
 10
20.07320757695018
 20
30.30027976421665
 42
-0.6449762263124317
 10
20.06146623447652
 20
30.27434547219847
 10
19.93222929884713
 20
30.27592520922652
 42
-0.1518691569180708
 10
19.88779414449787
 20
30.29227798582285
 10
19.8278683652294
 20
30.3307811741181
 42
0.0293454671788447
 10
19.77598572203677
 20
30.348176063321
 10
19.65419171219973
 20
30.36540635290453
 42
0.6538117075652882
 10
19.64720497523437
 20
30.34516554200167
 10
19.81245389272429
 20
30.30107379477934
 42
-0.8886355728344963
 10
19.8103924618249
 20
30.27592520922652
 10
19.67614684143224
 20
30.27592520922652
 42
-0.0642046489364144
 10
19.48753058472496
 20
30.31835767113595
 42
-0.6896355001773956
 10
19.48753058472496
 20
30.42096640152406
 42
-0.0703560868358924
 10
19.67614684143224
 20
30.46219886343348
 10
19.77184965176588
 20
30.46219886343348
 10
19.77184965176588
 20
30.53554562141007
 10
19.71823235206537
 20
30.55748641622754
 10
19.71335805318668
 20
30.51848055831406
 10
19.67680080385976
 20
30.55261068450608
 10
19.65486645460747
 20
30.5209184241748
 10
19.60124915662624
 20
30.58186507690574
 10
19.66705220438311
 20
30.63793599584434
 10
19.67680080385976
 20
30.61355733516614
  0
LWPOLYLINE
  5
6463
330
17
100
AcDbEntity
  8
R-SWTS-DET2
100
AcDbPolyline
 90
       31
 70
     1
 43
0.0
 10
18.1937992580953
 20
26.47673421304132
 10
18.18892495749734
 20
26.50355073958026
 10
18.08169035981559
 20
26.46942061545912
 10
18.0768160609369
 20
26.40847396479906
 10
18.07979722993085
 20
26.33291909444027
 10
18.04878768730961
 20
26.34300963599859
 42
-0.1257100272134179
 10
17.99704535971596
 20
26.57500103802064
 42
0.2260837189018228
 10
17.94732750107186
 20
26.72858659845225
 10
17.83638688291151
 20
26.82414190811194
 42
-0.6449762263124317
 10
17.84812822538517
 20
26.85007620013013
 10
17.97736516101455
 20
26.84849646310207
 42
-0.1518691569180708
 10
18.02180031536381
 20
26.83214368650574
 10
18.08172609463229
 20
26.7936404982105
 42
0.0293454671788447
 10
18.13360873782491
 20
26.7762456090076
 10
18.25540274766195
 20
26.75901531942407
 42
0.6538117075652882
 10
18.26238948462732
 20
26.77925613032693
 10
18.09714056713739
 20
26.82334787754925
 42
-0.8886355728344963
 10
18.09920199803678
 20
26.84849646310207
 10
18.23344761842944
 20
26.84849646310207
 42
-0.0642046489364144
 10
18.42206387513672
 20
26.80606400119265
 42
-0.6896355001773956
 10
18.42206387513672
 20
26.70345527080454
 42
-0.0703560868358924
 10
18.23344761842944
 20
26.66222280889512
 10
18.13774480809581
 20
26.66222280889512
 10
18.13774480809581
 20
26.58887605091853
 10
18.19136210779632
 20
26.56693525610106
 10
18.19623640667501
 20
26.60594111401453
 10
18.23279365600192
 20
26.57181098782252
 10
18.25472800525421
 20
26.6035032481538
 10
18.30834530323545
 20
26.54255659542285
 10
18.24254225547857
 20
26.48648567648425
 10
18.23279365600192
 20
26.51086433716245
  0
LWPOLYLINE
  5
6464
330
17
100
AcDbEntity
  8
R-SWTS-DET2
100
AcDbPolyline
 90
       31
 70
     1
 43
0.0
 10
18.1937992580953
 20
27.47381140474891
 10
18.18892495749734
 20
27.44699487820997
 10
18.08169035981559
 20
27.48112500233111
 10
18.0768160609369
 20
27.54207165299118
 10
18.07979722993085
 20
27.61762652334996
 10
18.04878768730961
 20
27.60753598179164
 42
0.1257100272134179
 10
17.99704535971596
 20
27.37554457976958
 42
-0.2260837189018228
 10
17.94732750107186
 20
27.22195901933798
 10
17.83638688291151
 20
27.12640370967828
 42
0.6449762263124317
 10
17.84812822538517
 20
27.1004694176601
 10
17.97736516101455
 20
27.10204915468815
 42
0.1518691569180708
 10
18.02180031536381
 20
27.11840193128449
 10
18.08172609463229
 20
27.15690511957973
 42
-0.0293454671788447
 10
18.13360873782491
 20
27.17430000878263
 10
18.25540274766195
 20
27.19153029836616
 42
-0.6538117075652882
 10
18.26238948462732
 20
27.1712894874633
 10
18.09714056713739
 20
27.12719774024098
 42
0.8886355728344963
 10
18.09920199803678
 20
27.10204915468815
 10
18.23344761842944
 20
27.10204915468815
 42
0.0642046489364144
 10
18.42206387513672
 20
27.14448161659758
 42
0.6896355001773956
 10
18.42206387513672
 20
27.24709034698569
 42
0.0703560868358924
 10
18.23344761842944
 20
27.28832280889511
 10
18.13774480809581
 20
27.28832280889511
 10
18.13774480809581
 20
27.3616695668717
 10
18.19136210779632
 20
27.38361036168917
 10
18.19623640667501
 20
27.34460450377569
 10
18.23279365600192
 20
27.37873462996771
 10
18.25472800525421
 20
27.34704236963643
 10
18.30834530323545
 20
27.40798902236738
 10
18.24254225547857
 20
27.46405994130598
 10
18.23279365600192
 20
27.43968128062777
  0
LINE
  5
6465
330
17
100
AcDbEntity
  8
R-ANNO-DIMS
  6
Continuous
100
AcDbLine
 10
18.32979722993085
 20
24.58642951872919
 30
0.0
 11
19.57979722993085
 21
24.58642951872919
 31
0.0
  0
SOLID
  5
6466
330
17
100
AcDbEntity
  8
R-ANNO-DIMS
  6
Continuous
100
AcDbTrace
 10
18.32979722993085
 20
24.62809618539586
 30
0.0
 11
18.32979722993085
 21
24.54476285206252
 31
0.0
 12
18.07979722993085
 22
24.58642951872919
 32
0.0
 13
18.07979722993085
 23
24.58642951872919
 33
0.0
  0
SOLID
  5
6467
330
17
100
AcDbEntity
  8
R-ANNO-DIMS
  6
Continuous
100
AcDbTrace
 10
19.57979722993085
 20
24.62809618539586
 30
0.0
 11
19.57979722993085
 21
24.54476285206252
 31
0.0
 12
19.82979722993085
 22
24.58642951872919
 32
0.0
 13
19.82979722993085
 23
24.58642951872919
 33
0.0
  0
MTEXT
  5
6468
330
17
100
AcDbEntity
  8
R-ANNO-DIMS
  6
Continuous
100
AcDbMText
 10
18.95479722993085
 20
24.81577808625989
 30
0.0
 40
0.25
 41
0.0
 71
     5
 72
     1
  1
\A1;1 3/4"
 73
     1
 44
1.0
1001
ACAD
1000
MTEXTBEGIN
1070
    73
1070
     1
1070
    44
1040
1.0
1070
    74
1070
     0
1000
MTEXTEND
  0
LINE
  5
6469
330
17
100
AcDbEntity
  8
R-ANNO-DIMS
100
AcDbLine
 10
18.07979722993085
 20
25.93742951872919
 30
0.0
 11
18.07979722993085
 21
24.40642951872919
 31
0.0
  0
LINE
  5
646A
330
17
100
AcDbEntity
  8
R-ANNO-DIMS
100
AcDbLine
 10
17.82979722993085
 20
24.58642951872919
 30
0.0
 11
16.32979722993086
 21
24.58642951872919
 31
0.0
  0
SOLID
  5
646B
330
17
100
AcDbEntity
  8
R-ANNO-DIMS
100
AcDbTrace
 10
17.82979722993085
 20
24.62809618539586
 30
0.0
 11
17.82979722993085
 21
24.54476285206252
 31
0.0
 12
18.07979722993085
 22
24.58642951872919
 32
0.0
 13
18.07979722993085
 23
24.58642951872919
 33
0.0
  0
SOLID
  5
646C
330
17
100
AcDbEntity
  8
R-ANNO-DIMS
100
AcDbTrace
 10
16.32979722993086
 20
24.62809618539586
 30
0.0
 11
16.32979722993086
 21
24.54476285206252
 31
0.0
 12
16.07979722993086
 22
24.58642951872919
 32
0.0
 13
16.07979722993086
 23
24.58642951872919
 33
0.0
  0
MTEXT
  5
646D
330
17
100
AcDbEntity
  8
R-ANNO-DIMS
100
AcDbMText
 10
17.07979722993085
 20
24.81577808625989
 30
0.0
 40
0.25
 41
0.0
 71
     5
 72
     1
  1
\A1;DLO
 73
     1
 44
1.0
1001
ACAD
1000
MTEXTBEGIN
1070
    73
1070
     1
1070
    44
1040
1.0
1070
    74
1070
     0
1000
MTEXTEND
  0
LINE
  5
646E
330
17
100
AcDbEntity
  8
R-ANNO-DIMS
  6
Continuous
100
AcDbLine
 10
19.82979722993085
 20
25.93742951872919
 30
0.0
 11
19.82979722993085
 21
24.40642951872919
 31
0.0
  0
LINE
  5
646F
330
17
100
AcDbEntity
  8
R-ANNO-DIMS
  6
Continuous
100
AcDbLine
 10
20.07979722993085
 20
24.58642951872919
 30
0.0
 11
21.57979722993083
 21
24.58642951872919
 31
0.0
  0
SOLID
  5
6470
330
17
100
AcDbEntity
  8
R-ANNO-DIMS
  6
Continuous
100
AcDbTrace
 10
20.07979722993085
 20
24.62809618539586
 30
0.0
 11
20.07979722993085
 21
24.54476285206252
 31
0.0
 12
19.82979722993085
 22
24.58642951872919
 32
0.0
 13
19.82979722993085
 23
24.58642951872919
 33
0.0
  0
SOLID
  5
6471
330
17
100
AcDbEntity
  8
R-ANNO-DIMS
  6
Continuous
100
AcDbTrace
 10
21.57979722993083
 20
24.62809618539586
 30
0.0
 11
21.57979722993083
 21
24.54476285206252
 31
0.0
 12
21.82979722993083
 22
24.58642951872919
 32
0.0
 13
21.82979722993083
 23
24.58642951872919
 33
0.0
  0
MTEXT
  5
6472
330
17
100
AcDbEntity
  8
R-ANNO-DIMS
  6
Continuous
100
AcDbMText
 10
20.82979722993084
 20
24.81577808625989
 30
0.0
 40
0.25
 41
0.0
 71
     5
 72
     1
  1
\A1;DLO
 73
     1
 44
1.0
1001
ACAD
1000
MTEXTBEGIN
1070
    73
1070
     1
1070
    44
1040
1.0
1070
    74
1070
     0
1000
MTEXTEND
  0
TEXT
  5
6473
330
17
100
AcDbEntity
  8
PART_NUMBERS
100
AcDbText
 10
16.25263310153284
 20
31.79020618310434
 30
0.0
 40
0.25
  1
450VG069 TRANSITION MULLION
100
AcDbText
  0
LWPOLYLINE
  5
6474
330
17
100
AcDbEntity
  8
R-SWTS-DET1
100
AcDbPolyline
 90
        6
 70
     0
 43
0.0
 10
42.81372781968164
 20
26.01488990295647
 10
42.81372781968164
 20
28.44690935942361
 10
43.01370781968163
 20
28.49692935942361
 10
42.61372781968163
 20
28.59690935942362
 10
42.81372781968164
 20
28.64690935942361
 10
42.81372781968164
 20
31.05028797242416
  0
LWPOLYLINE
  5
6475
330
17
100
AcDbEntity
  8
R-SWTS-DET1
100
AcDbPolyline
 90
        6
 70
     0
 43
0.0
 10
37.06373795031824
 20
31.07237313164918
 10
37.06373795031824
 20
28.64903932174969
 10
36.86375795031822
 20
28.59901932174969
 10
37.26373795031824
 20
28.49903932174968
 10
37.06373795031823
 20
28.44903932174969
 10
37.06373795031823
 20
26.01488990295647
  0
LINE
  5
6476
330
17
100
AcDbEntity
  8
R-SWTS-DET1
100
AcDbLine
 10
40.81371781968163
 20
26.3113146682016
 30
0.0
 11
42.81372781968164
 21
26.3113146682016
 31
0.0
  0
LINE
  5
6477
330
17
100
AcDbEntity
  8
R-SWTS-DET1
100
AcDbLine
 10
39.06371781968163
 20
26.3113146682016
 30
0.0
 11
37.06370781968163
 21
26.3113146682016
 31
0.0
  0
LINE
  5
6478
330
17
100
AcDbEntity
  8
R-SWTS-DET1
100
AcDbLine
 10
40.81371781968163
 20
30.81258622856326
 30
0.0
 11
42.81372781968164
 21
30.81131466820159
 31
0.0
  0
LINE
  5
6479
330
17
100
AcDbEntity
  8
R-SWTS-DET1
100
AcDbLine
 10
39.06371781968163
 20
30.81258622856326
 30
0.0
 11
37.06373795031824
 21
30.81131466820159
 31
0.0
  0
TEXT
  5
647A
330
17
100
AcDbEntity
  8
PART_NUMBERS
100
AcDbText
 10
37.23841158926337
 20
31.32423261407333
 30
0.0
 40
0.25
  1
450CG002 POCKET FILLER
100
AcDbText
  0
TEXT
  5
647B
330
17
100
AcDbEntity
  8
PART_NUMBERS
100
AcDbText
 10
37.23841158926337
 20
31.82423261407333
 30
0.0
 40
0.25
  1
450VG001 MULLION
100
AcDbText
  0
LINE
  5
647C
330
17
100
AcDbEntity
  8
R-SWTS-DET2
100
AcDbLine
 10
39.06371781968164
 20
27.61778323318403
 30
0.0
 11
37.06373795031823
 21
27.61778323318403
 31
0.0
  0
LINE
  5
647D
330
17
100
AcDbEntity
  8
R-SWTS-DET3
100
AcDbLine
 10
39.43871781968164
 20
27.10042951872919
 30
0.0
 11
39.43871781968164
 21
26.85042951872919
 31
0.0
  0
LINE
  5
647E
330
17
100
AcDbEntity
  8
R-SWTS-DET3
100
AcDbLine
 10
39.43871781968164
 20
27.10042951872919
 30
0.0
 11
37.06371781968164
 21
27.10042951872919
 31
0.0
  0
LINE
  5
647F
330
17
100
AcDbEntity
  8
R-SWTS-DET3
100
AcDbLine
 10
39.43871781968164
 20
26.85042951872919
 30
0.0
 11
37.06371781968164
 21
26.85042951872919
 31
0.0
  0
LINE
  5
6480
330
17
100
AcDbEntity
  8
R-SWTS-DET2
100
AcDbLine
 10
39.06371781968164
 20
26.33307580427434
 30
0.0
 11
37.06373795031823
 21
26.33307580427434
 31
0.0
  0
LINE
  5
6481
330
17
100
AcDbEntity
  8
R-SWTS-DET2
100
AcDbLine
 10
40.81371781968164
 20
29.20408044497308
 30
0.0
 11
42.81369768904505
 21
29.20408044497308
 31
0.0
  0
LINE
  5
6482
330
17
100
AcDbEntity
  8
R-SWTS-DET3
100
AcDbLine
 10
40.43871781968163
 20
28.68672673051824
 30
0.0
 11
40.43871781968163
 21
28.43672673051824
 31
0.0
  0
LINE
  5
6483
330
17
100
AcDbEntity
  8
R-SWTS-DET3
100
AcDbLine
 10
40.43871781968163
 20
28.68672673051824
 30
0.0
 11
42.81371781968164
 21
28.68672673051824
 31
0.0
  0
LINE
  5
6484
330
17
100
AcDbEntity
  8
R-SWTS-DET3
100
AcDbLine
 10
40.43871781968163
 20
28.43672673051824
 30
0.0
 11
42.81371781968164
 21
28.43672673051824
 31
0.0
  0
LINE
  5
6485
330
17
100
AcDbEntity
  8
R-SWTS-DET2
100
AcDbLine
 10
40.81371781968164
 20
27.91937301606339
 30
0.0
 11
42.81369768904505
 21
27.91937301606339
 31
0.0
  0
LWPOLYLINE
  5
6486
330
17
100
AcDbEntity
  8
R-SWTS-DET1
100
AcDbPolyline
 90
      108
 70
     1
 43
0.0
 10
39.36929605044286
 20
27.47445496521909
 42
0.199020262721565
 10
39.3834440559088
 20
27.46859122856327
 10
39.83871781968164
 20
27.46859122856327
 42
-0.4142135623730966
 10
40.01871781968164
 20
27.28859122856326
 10
40.01871781968163
 20
26.45258622856327
 42
0.4142135623730951
 10
40.07871781968163
 20
26.39258622856326
 10
40.67371781968163
 20
26.39258622856326
 42
0.4142135623730993
 10
40.73371781968163
 20
26.45258622856327
 10
40.73371781968163
 20
26.68658531619985
 10
40.71571781968163
 20
26.68658531619984
 42
-0.4142135623730951
 10
40.65371781968163
 20
26.74858531619984
 10
40.65371781968162
 20
26.93658531619983
 10
40.67171781968164
 20
26.93658531619983
 42
-0.4142135623730951
 10
40.73371781968162
 20
26.87458531619983
 10
40.73371781968162
 20
26.76658531619983
 10
40.81371781968163
 20
26.76658531619983
 10
40.81371781968163
 20
26.31258622856326
 10
39.06371781968163
 20
26.31258622856326
 10
39.06371781968163
 20
26.45760592553296
 10
39.16621781968164
 20
26.49363622856327
 10
39.16621781968164
 20
26.46463622856326
 10
39.23791781968164
 20
26.46463622856326
 42
0.1989123673796471
 10
39.2555954892113
 20
26.4719585590336
 10
39.32221781968163
 20
26.53863622856327
 10
39.32221781968163
 20
26.58058622856327
 42
0.3541185725306985
 10
39.30637605349799
 20
26.60014918057794
 10
39.20421781968163
 20
26.62258622856326
 10
39.16621781968164
 20
26.62258622856326
 10
39.16621781968164
 20
26.59358622856327
 10
39.15421781968163
 20
26.59358622856327
 42
-0.4142135623730951
 10
39.13421781968163
 20
26.61358622856326
 10
39.13421781968163
 20
26.64258622856327
 42
-0.4142135623730951
 10
39.15421781968163
 20
26.66258622856326
 10
39.35621281968164
 20
26.66258622856326
 42
-0.4142135623730882
 10
39.39421781968164
 20
26.62458122856327
 10
39.37221781968163
 20
26.62458122856327
 10
39.37221781968163
 20
26.56258122856327
 10
39.39421781968164
 20
26.56258122856327
 10
39.39421781968164
 20
26.50780517246516
 42
-0.1989018846181244
 10
39.38689620222964
 20
26.49012821598259
 10
39.32350089433024
 20
26.42672779374932
 42
0.668164052169275
 10
39.33764360036864
 20
26.39258622856326
 10
39.87871781968163
 20
26.39258622856326
 42
0.4142135623730951
 10
39.93871781968163
 20
26.45258622856327
 10
39.93871781968164
 20
27.28859122856326
 42
0.4142135623730951
 10
39.83871781968164
 20
27.38859122856326
 10
39.39721781968163
 20
27.38859122856326
 42
0.4142135623731054
 10
39.37221781968163
 20
27.36359122856326
 10
39.37221781968163
 20
27.32659122856326
 10
39.39421781968164
 20
27.32659122856326
 42
-0.4142135623730951
 10
39.35621281968164
 20
27.28858622856327
 10
39.15421781968163
 20
27.28858622856327
 42
-0.4142135623730951
 10
39.13421781968163
 20
27.30858622856326
 10
39.13421781968163
 20
27.33758622856326
 42
-0.4142135623730951
 10
39.15421781968163
 20
27.35758622856326
 10
39.16621781968164
 20
27.35758622856326
 10
39.16621781968164
 20
27.32858622856327
 10
39.20421781968163
 20
27.32858622856327
 10
39.30637605349799
 20
27.35102327654859
 42
0.3541185725306892
 10
39.32221781968163
 20
27.37058622856327
 10
39.32221781968163
 20
27.41253622856327
 10
39.2555954892113
 20
27.47921389809293
 42
0.1989123673796472
 10
39.23791781968164
 20
27.48653622856326
 10
39.16621781968164
 20
27.48653622856326
 10
39.16621781968164
 20
27.45753622856327
 10
39.06371781968163
 20
27.49356653159356
 10
39.06371781968163
 20
30.81258622856326
 10
40.81371781968163
 20
30.81258622856326
 10
40.81371781968163
 20
30.35858531619983
 10
40.73371781968163
 20
30.35858531619983
 10
40.73371781968162
 20
30.25058531619983
 42
-0.4142135623730951
 10
40.67171781968164
 20
30.18858531619982
 10
40.65371781968163
 20
30.18858531619983
 10
40.65371781968162
 20
30.37658531619983
 42
-0.4142135623730951
 10
40.71571781968163
 20
30.43858531619984
 10
40.73371781968163
 20
30.43858531619982
 10
40.73371781968163
 20
30.67258622856326
 42
0.4142135623730863
 10
40.67371781968164
 20
30.73258622856326
 10
39.20371781968163
 20
30.73258622856326
 42
0.4142135623730951
 10
39.14371781968164
 20
30.67258622856326
 10
39.14371781968165
 20
29.194816066024
 42
0.5680984128595333
 10
39.17323133319516
 20
29.17722365116338
 42
-0.3397540095738105
 10
39.37171781968164
 20
29.14533374509235
 10
39.37171781968164
 20
29.10136826086604
 10
39.34223715463282
 20
29.08434759096421
 42
-0.3865446749097457
 10
39.32909245606603
 20
29.08720578629358
 42
3.127286275187406
 10
39.32909245606604
 20
28.97696667083296
 42
-0.3865446749096832
 10
39.34223715463282
 20
28.97982486616236
 10
39.37171781968164
 20
28.96280419626052
 10
39.37171781968164
 20
28.91883871203421
 42
-0.3397540095738022
 10
39.17323133319515
 20
28.88694880596315
 42
0.5680984128595333
 10
39.14371781968165
 20
28.86935639110255
 10
39.14371781968164
 20
28.263816066024
 42
0.5680984128595452
 10
39.17323133319515
 20
28.24622365116338
 42
-0.3397540095738164
 10
39.37171781968164
 20
28.21433374509235
 10
39.37171781968164
 20
28.17036826086603
 10
39.34223715463282
 20
28.1533475909642
 42
-0.3865446749097794
 10
39.32909245606603
 20
28.15620578629359
 42
3.127286275187346
 10
39.32909245606604
 20
28.04596667083296
 42
-0.386544674909639
 10
39.34223715463281
 20
28.04882486616235
 10
39.37171781968164
 20
28.03180419626052
 10
39.37171781968164
 20
27.98783871203421
 42
-0.3397540095737971
 10
39.17323133319515
 20
27.95594880596316
 42
0.5680984128594781
 10
39.14371781968165
 20
27.93835639110256
 10
39.14371781968164
 20
27.64653622856327
 42
0.4142135623731046
 10
39.22371781968163
 20
27.56653622856326
 10
39.23377324893022
 20
27.56653622856326
 42
-0.1990202627215688
 10
39.30805027762636
 20
27.5357516111202
  0
LWPOLYLINE
  5
6487
330
17
100
AcDbEntity
  8
R-SWTS-DET1
100
AcDbPolyline
 90
       98
 70
     1
 43
0.0
 10
40.81371781968164
 20
30.35742361614625
 10
40.73371781968163
 20
30.35742361614625
 10
40.73371781968163
 20
30.18742361614625
 10
40.64771781968164
 20
30.18742361614626
 10
40.64771781968164
 20
30.24942361614626
 10
40.43071781968164
 20
30.17042361614626
 42
1.003724381894564
 10
40.45471781968164
 20
30.10492361614625
 10
40.55779942294875
 20
30.14249113378138
 42
-0.4152632777059977
 10
40.58952579577726
 20
30.1252486645499
 42
0.3398956733201357
 10
40.61271781968167
 20
30.10742361614626
 10
40.71371781968163
 20
30.10742361614625
 42
-0.414213562373069
 10
40.73371781968163
 20
30.08742361614626
 10
40.73371781968164
 20
29.96342361614626
 42
-0.4142135623731211
 10
40.72371781968164
 20
29.95342361614626
 10
40.72371781968164
 20
29.79142361614626
 10
40.73371781968164
 20
29.78142361614626
 10
40.72371781968164
 20
29.77142361614626
 10
40.72371781968164
 20
29.60942361614626
 42
-0.4142135623730431
 10
40.73371781968163
 20
29.59942361614626
 10
40.73371781968163
 20
29.23292361614625
 42
-0.4142135623730821
 10
40.65371781968164
 20
29.15292361614625
 10
40.64366239043304
 20
29.15292361614625
 42
0.1990202627215654
 10
40.5693853617369
 20
29.12213899870319
 10
40.5080846345676
 20
29.06078735280209
 42
-0.1990202627215551
 10
40.49393662910167
 20
29.05492361614626
 10
40.41371781968162
 20
29.05492361614626
 42
0.4142135623730605
 10
40.23371781968164
 20
28.87492361614626
 10
40.23371781968163
 20
28.24992361614626
 42
0.4142135623730749
 10
40.41371781968162
 20
28.06992361614625
 10
40.49393662910167
 20
28.06992361614625
 42
-0.1990202627215551
 10
40.5080846345676
 20
28.06405987949043
 10
40.56938536173691
 20
28.00270823358932
 42
0.1990202627215655
 10
40.64366239043304
 20
27.97192361614626
 10
40.65371781968164
 20
27.97192361614626
 42
-0.4142135623730964
 10
40.73371781968164
 20
27.89192361614626
 10
40.73371781968164
 20
27.52542361614625
 42
-0.4142135623730951
 10
40.72371781968164
 20
27.51542361614625
 10
40.72371781968164
 20
27.35342361614625
 10
40.73371781968164
 20
27.34342361614625
 10
40.72371781968164
 20
27.33342361614625
 10
40.72371781968164
 20
27.17142361614625
 42
-0.4142135623731471
 10
40.73371781968164
 20
27.16142361614625
 10
40.73371781968164
 20
27.03742361614625
 42
-0.4142135623730951
 10
40.71371781968164
 20
27.01742361614626
 10
40.61271781968167
 20
27.01742361614626
 42
0.3398956733201879
 10
40.58952579577726
 20
26.99959856774261
 42
-0.4152632777060245
 10
40.55779942294878
 20
26.98235609851112
 10
40.45471781968164
 20
27.01992361614625
 42
1.00372438189457
 10
40.43071781968164
 20
26.95442361614626
 10
40.64771781968164
 20
26.87542361614625
 10
40.64771781968164
 20
26.93742361614625
 10
40.73371781968163
 20
26.93742361614625
 10
40.73371781968163
 20
26.76742361614625
 10
40.81371781968164
 20
26.76742361614625
 10
40.81371781968164
 20
28.04489331311595
 10
40.71121781968163
 20
28.08092361614626
 10
40.71121781968163
 20
28.05192361614626
 10
40.63951781968163
 20
28.05192361614626
 42
-0.1989123673796549
 10
40.62184015015197
 20
28.05924594661659
 10
40.55521781968163
 20
28.12592361614626
 10
40.55521781968163
 20
28.16787361614626
 42
-0.3541185725306985
 10
40.57105958586528
 20
28.18743656816093
 10
40.67321781968163
 20
28.20987361614626
 10
40.71121781968163
 20
28.20987361614626
 10
40.71121781968163
 20
28.18087361614626
 10
40.72321781968163
 20
28.18087361614626
 42
0.4142135623730951
 10
40.74321781968163
 20
28.20087361614626
 10
40.74321781968163
 20
28.22987361614626
 42
0.4142135623730951
 10
40.72321781968163
 20
28.24987361614626
 10
40.52122281968163
 20
28.24987361614626
 42
0.4142135623730951
 10
40.48321781968163
 20
28.21186861614626
 10
40.50521781968163
 20
28.21186861614626
 10
40.50521781968163
 20
28.16992361614625
 42
-0.4142135623730951
 10
40.48521781968164
 20
28.14992361614625
 10
40.41371781968162
 20
28.14992361614626
 42
-0.4142135623730743
 10
40.31371781968163
 20
28.24992361614626
 10
40.31371781968164
 20
28.87492361614626
 42
-0.4142135623730587
 10
40.41371781968162
 20
28.97492361614626
 10
40.48521781968164
 20
28.97492361614626
 42
-0.4142135623730951
 10
40.50521781968163
 20
28.95492361614627
 10
40.50521781968163
 20
28.91297861614625
 10
40.48321781968163
 20
28.91297861614625
 42
0.4142135623730951
 10
40.52122281968163
 20
28.87497361614626
 10
40.72321781968163
 20
28.87497361614626
 42
0.4142135623730951
 10
40.74321781968163
 20
28.89497361614625
 10
40.74321781968163
 20
28.92397361614625
 42
0.4142135623730951
 10
40.72321781968163
 20
28.94397361614625
 10
40.71121781968163
 20
28.94397361614625
 10
40.71121781968163
 20
28.91497361614625
 10
40.67321781968163
 20
28.91497361614625
 10
40.57105958586528
 20
28.93741066413157
 42
-0.3541185725306761
 10
40.55521781968163
 20
28.95697361614626
 10
40.55521781968163
 20
28.99892361614626
 10
40.62184015015197
 20
29.06560128567591
 42
-0.1989123673796627
 10
40.63951781968163
 20
29.07292361614625
 10
40.71121781968163
 20
29.07292361614625
 10
40.71121781968163
 20
29.04392361614626
 10
40.81371781968164
 20
29.07995391917655
  0
LWPOLYLINE
  5
6488
330
17
100
AcDbEntity
  8
R-SWTS-DET2
100
AcDbPolyline
 90
       31
 70
     1
 43
0.0
 10
40.69971579151718
 20
28.06318813466444
 10
40.70459009211515
 20
28.09000466120338
 10
40.8118246897969
 20
28.05587453708224
 10
40.81669898867558
 20
27.99492788642218
 10
40.81371781968164
 20
27.91937301606339
 10
40.84472736230288
 20
27.92946355762171
 42
0.1257100272134179
 10
40.89646968989653
 20
28.16145495964377
 42
-0.2260837189018228
 10
40.94618754854063
 20
28.31504052007538
 10
41.05712816670098
 20
28.41059582973507
 42
0.6449762263124317
 10
41.04538682422732
 20
28.43653012175325
 10
40.91614988859794
 20
28.4349503847252
 42
0.1518691569180708
 10
40.87171473424867
 20
28.41859760812887
 10
40.8117889549802
 20
28.38009441983361
 42
-0.0293454671788447
 10
40.75990631178758
 20
28.36269953063072
 10
40.63811230195054
 20
28.34546924104719
 42
-0.6538117075652882
 10
40.63112556498517
 20
28.36571005195005
 10
40.7963744824751
 20
28.40980179917238
 42
0.8886355728344963
 10
40.7943130515757
 20
28.4349503847252
 10
40.66006743118305
 20
28.4349503847252
 42
0.0642046489364144
 10
40.47145117447576
 20
28.39251792281577
 42
0.6896355001773956
 10
40.47145117447576
 20
28.28990919242766
 42
0.0703560868358924
 10
40.66006743118305
 20
28.24867673051824
 10
40.75577024151669
 20
28.24867673051824
 10
40.75577024151669
 20
28.17532997254165
 10
40.70215294181616
 20
28.15338917772418
 10
40.69727864293748
 20
28.19239503563766
 10
40.66072139361057
 20
28.15826490944564
 10
40.63878704435828
 20
28.18995716977692
 10
40.58516974637703
 20
28.12901051704598
 10
40.65097279413392
 20
28.07293959810737
 10
40.66072139361057
 20
28.09731825878558
  0
LWPOLYLINE
  5
6489
330
17
100
AcDbEntity
  8
R-SWTS-DET2
100
AcDbPolyline
 90
       31
 70
     1
 43
0.0
 10
40.69971579151718
 20
29.06026532637202
 10
40.70459009211515
 20
29.03344879983309
 10
40.8118246897969
 20
29.06757892395423
 10
40.81669898867558
 20
29.12852557461429
 10
40.81371781968164
 20
29.20408044497308
 10
40.84472736230288
 20
29.19398990341476
 42
-0.1257100272134179
 10
40.89646968989653
 20
28.9619985013927
 42
0.2260837189018228
 10
40.94618754854063
 20
28.80841294096109
 10
41.05712816670098
 20
28.71285763130141
 42
-0.6449762263124317
 10
41.04538682422732
 20
28.68692333928322
 10
40.91614988859794
 20
28.68850307631127
 42
-0.1518691569180708
 10
40.87171473424867
 20
28.7048558529076
 10
40.8117889549802
 20
28.74335904120286
 42
0.0293454671788447
 10
40.75990631178758
 20
28.76075393040575
 10
40.63811230195054
 20
28.77798421998928
 42
0.6538117075652882
 10
40.63112556498517
 20
28.75774340908642
 10
40.7963744824751
 20
28.71365166186409
 42
-0.8886355728344963
 10
40.7943130515757
 20
28.68850307631127
 10
40.66006743118305
 20
28.68850307631127
 42
-0.0642046489364144
 10
40.47145117447576
 20
28.7309355382207
 42
-0.6896355001773956
 10
40.47145117447576
 20
28.83354426860881
 42
-0.0703560868358924
 10
40.66006743118305
 20
28.87477673051823
 10
40.75577024151669
 20
28.87477673051823
 10
40.75577024151669
 20
28.94812348849482
 10
40.70215294181616
 20
28.97006428331229
 10
40.69727864293748
 20
28.93105842539882
 10
40.66072139361057
 20
28.96518855159083
 10
40.63878704435828
 20
28.93349629125955
 10
40.58516974637703
 20
28.99444294399049
 10
40.65097279413392
 20
29.0505138629291
 10
40.66072139361057
 20
29.0261352022509
  0
LWPOLYLINE
  5
648A
330
17
100
AcDbEntity
  8
R-SWTS-DET2
100
AcDbPolyline
 90
       31
 70
     1
 43
0.0
 10
39.17771984784609
 20
26.47689092287539
 10
39.17284554724812
 20
26.50370744941433
 10
39.06561094956637
 20
26.46957732529319
 10
39.06073665068769
 20
26.40863067463313
 10
39.06371781968164
 20
26.33307580427434
 10
39.0327082770604
 20
26.34316634583266
 42
-0.1257100272134179
 10
38.98096594946674
 20
26.57515774785472
 42
0.2260837189018228
 10
38.93124809082265
 20
26.72874330828633
 10
38.8203074726623
 20
26.82429861794602
 42
-0.6449762263124317
 10
38.83204881513595
 20
26.8502329099642
 10
38.96128575076533
 20
26.84865317293615
 42
-0.1518691569180708
 10
39.0057209051146
 20
26.83230039633982
 10
39.06564668438308
 20
26.79379720804457
 42
0.0293454671788447
 10
39.1175293275757
 20
26.77640231884167
 10
39.23932333741273
 20
26.75917202925814
 42
0.6538117075652882
 10
39.2463100743781
 20
26.779412840161
 10
39.08106115688818
 20
26.82350458738333
 42
-0.8886355728344963
 10
39.08312258778757
 20
26.84865317293615
 10
39.21736820818022
 20
26.84865317293615
 42
-0.0642046489364144
 10
39.40598446488751
 20
26.80622071102672
 42
-0.6896355001773956
 10
39.40598446488751
 20
26.70361198063862
 42
-0.0703560868358924
 10
39.21736820818022
 20
26.66237951872919
 10
39.12166539784659
 20
26.66237951872919
 10
39.12166539784659
 20
26.5890327607526
 10
39.1752826975471
 20
26.56709196593513
 10
39.18015699642579
 20
26.60609782384861
 10
39.21671424575271
 20
26.5719676976566
 10
39.238648595005
 20
26.60365995798788
 10
39.29226589298624
 20
26.54271330525693
 10
39.22646284522936
 20
26.48664238631833
 10
39.21671424575271
 20
26.51102104699653
  0
LWPOLYLINE
  5
648B
330
17
100
AcDbEntity
  8
R-SWTS-DET2
100
AcDbPolyline
 90
       31
 70
     1
 43
0.0
 10
39.17771984784609
 20
27.47396811458298
 10
39.17284554724812
 20
27.44715158804404
 10
39.06561094956637
 20
27.48128171216518
 10
39.06073665068769
 20
27.54222836282524
 10
39.06371781968164
 20
27.61778323318403
 10
39.0327082770604
 20
27.60769269162571
 42
0.1257100272134179
 10
38.98096594946674
 20
27.37570128960365
 42
-0.2260837189018228
 10
38.93124809082265
 20
27.22211572917205
 10
38.8203074726623
 20
27.12656041951236
 42
0.6449762263124317
 10
38.83204881513595
 20
27.10062612749417
 10
38.96128575076533
 20
27.10220586452222
 42
0.1518691569180708
 10
39.0057209051146
 20
27.11855864111856
 10
39.06564668438308
 20
27.15706182941381
 42
-0.0293454671788447
 10
39.1175293275757
 20
27.1744567186167
 10
39.23932333741273
 20
27.19168700820023
 42
-0.6538117075652882
 10
39.2463100743781
 20
27.17144619729737
 10
39.08106115688818
 20
27.12735445007505
 42
0.8886355728344963
 10
39.08312258778757
 20
27.10220586452222
 10
39.21736820818022
 20
27.10220586452222
 42
0.0642046489364144
 10
39.40598446488751
 20
27.14463832643165
 42
0.6896355001773956
 10
39.40598446488751
 20
27.24724705681976
 42
0.0703560868358924
 10
39.21736820818022
 20
27.28847951872918
 10
39.12166539784659
 20
27.28847951872918
 10
39.12166539784659
 20
27.36182627670577
 10
39.1752826975471
 20
27.38376707152324
 10
39.18015699642579
 20
27.34476121360977
 10
39.21671424575271
 20
27.37889133980178
 10
39.238648595005
 20
27.3471990794705
 10
39.29226589298624
 20
27.40814573220144
 10
39.22646284522936
 20
27.46421665114005
 10
39.21671424575271
 20
27.43983799046185
  0
LINE
  5
648C
330
17
100
AcDbEntity
  8
R-ANNO-DIMS
  6
Continuous
100
AcDbLine
 10
39.31371781968163
 20
24.56988608023559
 30
0.0
 11
40.56371781968163
 21
24.56988608023559
 31
0.0
  0
SOLID
  5
648D
330
17
100
AcDbEntity
  8
R-ANNO-DIMS
  6
Continuous
100
AcDbTrace
 10
39.31371781968163
 20
24.61155274690226
 30
0.0
 11
39.31371781968163
 21
24.52821941356892
 31
0.0
 12
39.06371781968163
 22
24.56988608023559
 32
0.0
 13
39.06371781968163
 23
24.56988608023559
 33
0.0
  0
SOLID
  5
648E
330
17
100
AcDbEntity
  8
R-ANNO-DIMS
  6
Continuous
100
AcDbTrace
 10
40.56371781968163
 20
24.61155274690226
 30
0.0
 11
40.56371781968163
 21
24.52821941356892
 31
0.0
 12
40.81371781968163
 22
24.56988608023559
 32
0.0
 13
40.81371781968163
 23
24.56988608023559
 33
0.0
  0
MTEXT
  5
648F
330
17
100
AcDbEntity
  8
R-ANNO-DIMS
  6
Continuous
100
AcDbMText
 10
39.93871781968163
 20
24.79923464776629
 30
0.0
 40
0.25
 41
0.0
 71
     5
 72
     1
  1
\A1;1 3/4"
 73
     1
 44
1.0
1001
ACAD
1000
MTEXTBEGIN
1070
    73
1070
     1
1070
    44
1040
1.0
1070
    74
1070
     0
1000
MTEXTEND
  0
LINE
  5
6490
330
17
100
AcDbEntity
  8
R-ANNO-DIMS
100
AcDbLine
 10
39.06371781968163
 20
25.9363146682016
 30
0.0
 11
39.06371781968163
 21
24.38988608023559
 31
0.0
  0
LINE
  5
6491
330
17
100
AcDbEntity
  8
R-ANNO-DIMS
100
AcDbLine
 10
38.81371781968163
 20
24.56988608023559
 30
0.0
 11
37.31373795031823
 21
24.56988608023559
 31
0.0
  0
SOLID
  5
6492
330
17
100
AcDbEntity
  8
R-ANNO-DIMS
100
AcDbTrace
 10
38.81371781968163
 20
24.61155274690226
 30
0.0
 11
38.81371781968163
 21
24.52821941356892
 31
0.0
 12
39.06371781968163
 22
24.56988608023559
 32
0.0
 13
39.06371781968163
 23
24.56988608023559
 33
0.0
  0
SOLID
  5
6493
330
17
100
AcDbEntity
  8
R-ANNO-DIMS
100
AcDbTrace
 10
37.31373795031823
 20
24.61155274690226
 30
0.0
 11
37.31373795031823
 21
24.52821941356892
 31
0.0
 12
37.06373795031823
 22
24.56988608023559
 32
0.0
 13
37.06373795031823
 23
24.56988608023559
 33
0.0
  0
MTEXT
  5
6494
330
17
100
AcDbEntity
  8
R-ANNO-DIMS
100
AcDbMText
 10
38.06372788499993
 20
24.79923464776629
 30
0.0
 40
0.25
 41
0.0
 71
     5
 72
     1
  1
\A1;DLO
 73
     1
 44
1.0
1001
ACAD
1000
MTEXTBEGIN
1070
    73
1070
     1
1070
    44
1040
1.0
1070
    74
1070
     0
1000
MTEXTEND
  0
LINE
  5
6495
330
17
100
AcDbEntity
  8
R-ANNO-DIMS
  6
Continuous
100
AcDbLine
 10
40.81371781968163
 20
25.9363146682016
 30
0.0
 11
40.81371781968163
 21
24.38988608023559
 31
0.0
  0
LINE
  5
6496
330
17
100
AcDbEntity
  8
R-ANNO-DIMS
  6
Continuous
100
AcDbLine
 10
41.06371781968163
 20
24.56988608023559
 30
0.0
 11
42.56372781968163
 21
24.56988608023559
 31
0.0
  0
SOLID
  5
6497
330
17
100
AcDbEntity
  8
R-ANNO-DIMS
  6
Continuous
100
AcDbTrace
 10
41.06371781968163
 20
24.61155274690226
 30
0.0
 11
41.06371781968163
 21
24.52821941356892
 31
0.0
 12
40.81371781968163
 22
24.56988608023559
 32
0.0
 13
40.81371781968163
 23
24.56988608023559
 33
0.0
  0
SOLID
  5
6498
330
17
100
AcDbEntity
  8
R-ANNO-DIMS
  6
Continuous
100
AcDbTrace
 10
42.56372781968163
 20
24.61155274690226
 30
0.0
 11
42.56372781968163
 21
24.52821941356892
 31
0.0
 12
42.81372781968164
 22
24.56988608023559
 32
0.0
 13
42.81372781968164
 23
24.56988608023559
 33
0.0
  0
MTEXT
  5
6499
330
17
100
AcDbEntity
  8
R-ANNO-DIMS
  6
Continuous
100
AcDbMText
 10
41.81372281968164
 20
24.79923464776629
 30
0.0
 40
0.25
 41
0.0
 71
     5
 72
     1
  1
\A1;DLO
 73
     1
 44
1.0
1001
ACAD
1000
MTEXTBEGIN
1070
    73
1070
     1
1070
    44
1040
1.0
1070
    74
1070
     0
1000
MTEXTEND
  0
LINE
  5
649A
330
17
100
AcDbEntity
  8
R-SWTS-DET1
100
AcDbLine
 10
30.219643228207
 20
13.22794478070244
 30
0.0
 11
32.21965322820701
 21
13.22794478070244
 31
0.0
  0
LINE
  5
649B
330
17
100
AcDbEntity
  8
R-SWTS-DET1
100
AcDbLine
 10
30.219643228207
 20
17.72794478070244
 30
0.0
 11
32.219653228207
 21
17.72794478070244
 31
0.0
  0
LWPOLYLINE
  5
649C
330
17
100
AcDbEntity
  8
R-SWTS-DET1
100
AcDbPolyline
 90
        6
 70
     0
 43
0.0
 10
26.46963322820699
 20
17.93826861664761
 10
26.46963322820699
 20
15.57832634106409
 10
26.26965322820698
 20
15.52830634106409
 10
26.66963322820699
 20
15.42832634106408
 10
26.46963322820699
 20
15.37832634106409
 10
26.46963322820699
 20
12.97462991916117
  0
LINE
  5
649D
330
17
100
AcDbEntity
  8
R-SWTS-DET1
100
AcDbLine
 10
28.469643228207
 20
13.22831634106409
 30
0.0
 11
26.46963322820699
 21
13.22831634106409
 31
0.0
  0
LINE
  5
649E
330
17
100
AcDbEntity
  8
R-SWTS-DET1
100
AcDbLine
 10
28.46964322820699
 20
17.72831634106409
 30
0.0
 11
26.46963322820699
 21
17.72831634106409
 31
0.0
  0
LWPOLYLINE
  5
649F
330
17
100
AcDbEntity
  8
R-SWTS-DET1
100
AcDbPolyline
 90
        6
 70
     0
 43
0.0
 10
32.21965240805448
 20
12.94399044014082
 10
32.21964322820701
 20
15.36215795359894
 10
32.41962322820702
 20
15.41217795359894
 10
32.01964322820701
 20
15.51215795359894
 10
32.21964322820701
 20
15.56215795359894
 10
32.21965225649928
 20
17.96890821409597
  0
TEXT
  5
64A0
330
17
100
AcDbEntity
  8
PART_NUMBERS
100
AcDbText
 10
26.64387189834893
 20
18.21972511048629
 30
0.0
 40
0.25
  1
450VG052 SHALLOW POCKET MULLION
100
AcDbText
  0
TEXT
  5
64A1
330
17
100
AcDbEntity
  8
PART_NUMBERS
100
AcDbText
 10
26.64387189834893
 20
18.71972511048629
 30
0.0
 40
0.25
  1
450CG028 DEEP POCKET FILLER
100
AcDbText
  0
LINE
  5
64A2
330
17
100
AcDbEntity
  8
R-SWTS-DET2
100
AcDbLine
 10
28.469643228207
 20
16.12181775531692
 30
0.0
 11
26.46966335884359
 21
16.12181775531692
 31
0.0
  0
LINE
  5
64A3
330
17
100
AcDbEntity
  8
R-SWTS-DET3
100
AcDbLine
 10
28.84464322820701
 20
15.60446404086208
 30
0.0
 11
28.84464322820701
 21
15.35446404086208
 31
0.0
  0
LINE
  5
64A4
330
17
100
AcDbEntity
  8
R-SWTS-DET3
100
AcDbLine
 10
28.84464322820701
 20
15.60446404086208
 30
0.0
 11
26.469643228207
 21
15.60446404086208
 31
0.0
  0
LINE
  5
64A5
330
17
100
AcDbEntity
  8
R-SWTS-DET3
100
AcDbLine
 10
28.84464322820701
 20
15.35446404086208
 30
0.0
 11
26.469643228207
 21
15.35446404086208
 31
0.0
  0
LINE
  5
64A6
330
17
100
AcDbEntity
  8
R-SWTS-DET2
100
AcDbLine
 10
28.469643228207
 20
14.83711032640724
 30
0.0
 11
26.46966335884359
 21
14.83711032640724
 31
0.0
  0
LWPOLYLINE
  5
64A7
330
17
100
AcDbEntity
  8
R-SWTS-DET1
100
AcDbPolyline
 90
       92
 70
     1
 43
0.0
 10
30.045443228207
 20
17.57626634106408
 42
0.1989123673796591
 10
30.02776555867734
 20
17.56894401059374
 10
29.961143228207
 20
17.50226634106408
 10
29.961143228207
 20
17.46031634106408
 42
0.3541185725306985
 10
29.97698499439065
 20
17.4407533890494
 10
30.079143228207
 20
17.41831634106408
 10
30.117143228207
 20
17.41831634106408
 10
30.117143228207
 20
17.44731634106408
 10
30.129143228207
 20
17.44731634106408
 42
-0.4142135623730951
 10
30.149143228207
 20
17.42731634106408
 10
30.149143228207
 20
17.39831634106408
 42
-0.4142135623730951
 10
30.129143228207
 20
17.37831634106408
 10
29.927148228207
 20
17.37831634106408
 42
-0.4142135623730951
 10
29.889143228207
 20
17.41632134106408
 10
29.911143228207
 20
17.41632134106408
 10
29.911143228207
 20
17.47832134106408
 10
29.889143228207
 20
17.47832134106408
 10
29.889143228207
 20
17.53309739716218
 42
-0.1989018846181181
 10
29.896464845659
 20
17.55077435364475
 10
29.95986015355839
 20
17.61417477587803
 42
0.668164052169291
 10
29.94571744752
 20
17.64831634106408
 10
29.77964322820702
 20
17.64831634106408
 42
0.4142135623730866
 10
29.71964322820702
 20
17.58831634106408
 10
29.71964322820701
 20
16.75231134106408
 42
0.4142135623731107
 10
29.81964322820701
 20
16.65231134106408
 10
29.886143228207
 20
16.65231134106408
 42
0.4142135623731159
 10
29.911143228207
 20
16.67731134106408
 10
29.911143228207
 20
16.71431134106408
 10
29.889143228207
 20
16.71431134106408
 42
-0.4142135623730951
 10
29.927148228207
 20
16.75231634106408
 10
30.129143228207
 20
16.75231634106408
 42
-0.4142135623730951
 10
30.149143228207
 20
16.73231634106408
 10
30.149143228207
 20
16.70331634106408
 42
-0.4142135623730951
 10
30.129143228207
 20
16.68331634106408
 10
30.117143228207
 20
16.68331634106408
 10
30.117143228207
 20
16.71231634106408
 10
30.079143228207
 20
16.71231634106408
 10
29.97698499439065
 20
16.68987929307876
 42
0.3541185725306792
 10
29.961143228207
 20
16.67031634106408
 10
29.961143228207
 20
16.62836634106408
 10
30.02776555867734
 20
16.56168867153442
 42
0.1989123673796511
 10
30.045443228207
 20
16.55436634106408
 10
30.117143228207
 20
16.55436634106408
 10
30.117143228207
 20
16.58336634106408
 10
30.219643228207
 20
16.54733603803378
 10
30.219643228207
 20
13.22831634106409
 10
28.469643228207
 20
13.22831634106409
 10
28.469643228207
 20
13.68231725342752
 10
28.549643228207
 20
13.68231725342752
 10
28.54964322820701
 20
13.79031725342751
 42
-0.4142135623730951
 10
28.611643228207
 20
13.85231725342752
 10
28.629643228207
 20
13.85231725342751
 10
28.629643228207
 20
13.66431725342751
 42
-0.4142135623730951
 10
28.567643228207
 20
13.60231725342751
 10
28.549643228207
 20
13.60231725342752
 10
28.549643228207
 20
13.36831634106409
 42
0.4142135623730929
 10
28.609643228207
 20
13.30831634106409
 10
30.07964322820701
 20
13.30831634106409
 42
0.4142135623730929
 10
30.13964322820701
 20
13.36831634106409
 10
30.139643228207
 20
14.81681634106408
 42
0.2574846159169048
 10
30.129643228207
 20
14.83681634106408
 10
30.129643228207
 20
15.18081634106408
 42
0.2574846159169045
 10
30.139643228207
 20
15.20081634106408
 10
30.139643228207
 20
15.74781634106408
 42
0.2574846159169059
 10
30.129643228207
 20
15.76781634106408
 10
30.129643228207
 20
16.11181634106408
 42
0.2574846159168986
 10
30.13964322820701
 20
16.13181634106408
 10
30.139643228207
 20
16.40436634106408
 42
0.4142135623731045
 10
30.069643228207
 20
16.47436634106408
 10
30.04958779895841
 20
16.47436634106408
 42
-0.1990202627215685
 10
29.97531077026227
 20
16.50515095850714
 10
29.91406499744577
 20
16.56644760440826
 42
0.1990202627215798
 10
29.89991699197984
 20
16.57231134106408
 10
29.81964322820701
 20
16.57231134106408
 42
-0.4142135623731107
 10
29.63964322820701
 20
16.75231134106408
 10
29.63964322820702
 20
17.58831634106407
 42
0.4142135623730951
 10
29.57964322820701
 20
17.64831634106407
 10
28.609643228207
 20
17.64831634106408
 42
0.4142135623730928
 10
28.549643228207
 20
17.58831634106408
 10
28.549643228207
 20
17.35431725342749
 10
28.567643228207
 20
17.3543172534275
 42
-0.4142135623730951
 10
28.629643228207
 20
17.2923172534275
 10
28.629643228207
 20
17.10431725342751
 10
28.611643228207
 20
17.10431725342751
 42
-0.4142135623730951
 10
28.54964322820701
 20
17.16631725342751
 10
28.54964322820701
 20
17.27431725342751
 10
28.469643228207
 20
17.27431725342751
 10
28.469643228207
 20
17.72831634106408
 10
30.219643228207
 20
17.72831634106408
 10
30.219643228207
 20
17.58329664409439
 10
30.117143228207
 20
17.54726634106408
 10
30.117143228207
 20
17.57626634106408
  0
LWPOLYLINE
  5
64A8
330
17
100
AcDbEntity
  8
R-SWTS-DET1
100
AcDbPolyline
 90
       98
 70
     1
 43
0.0
 10
28.46964322820701
 20
17.27321625087599
 10
28.54964322820702
 20
17.27321625087599
 10
28.54964322820702
 20
17.10321625087599
 10
28.63564322820702
 20
17.10321625087599
 10
28.63564322820702
 20
17.16521625087599
 10
28.85264322820701
 20
17.08621625087599
 42
-1.003724381894564
 10
28.82864322820701
 20
17.02071625087599
 10
28.7255616249399
 20
17.05828376851111
 42
0.4152632777059977
 10
28.69383525211139
 20
17.04104129927963
 42
-0.3398956733201357
 10
28.67064322820699
 20
17.02321625087599
 10
28.56964322820702
 20
17.02321625087599
 42
0.414213562373069
 10
28.54964322820702
 20
17.00321625087599
 10
28.54964322820702
 20
16.87921625087599
 42
0.4142135623731211
 10
28.55964322820702
 20
16.86921625087599
 10
28.55964322820701
 20
16.70721625087599
 10
28.54964322820702
 20
16.69721625087599
 10
28.55964322820701
 20
16.687216250876
 10
28.55964322820702
 20
16.52521625087599
 42
0.4142135623730431
 10
28.54964322820702
 20
16.51521625087599
 10
28.54964322820702
 20
16.14871625087598
 42
0.4142135623730821
 10
28.62964322820701
 20
16.06871625087598
 10
28.63969865745561
 20
16.06871625087598
 42
-0.1990202627215654
 10
28.71397568615174
 20
16.03793163343292
 10
28.77527641332104
 20
15.97657998753182
 42
0.1990202627215551
 10
28.78942441878698
 20
15.970716250876
 10
29.24464322820703
 20
15.97071625087599
 42
-0.4142135623730605
 10
29.42464322820701
 20
15.79071625087599
 10
29.42464322820701
 20
15.16571625087599
 42
-0.4142135623730749
 10
29.24464322820703
 20
14.98571625087599
 10
28.78942441878698
 20
14.98571625087598
 42
0.1990202627215551
 10
28.77527641332104
 20
14.97985251422016
 10
28.71397568615174
 20
14.91850086831906
 42
-0.1990202627215655
 10
28.63969865745561
 20
14.887716250876
 10
28.62964322820701
 20
14.887716250876
 42
0.4142135623730964
 10
28.54964322820702
 20
14.80771625087599
 10
28.54964322820702
 20
14.44121625087599
 42
0.4142135623730951
 10
28.55964322820701
 20
14.43121625087599
 10
28.55964322820701
 20
14.26921625087598
 10
28.54964322820702
 20
14.25921625087599
 10
28.55964322820701
 20
14.24921625087599
 10
28.55964322820702
 20
14.08721625087598
 42
0.4142135623731471
 10
28.54964322820702
 20
14.07721625087599
 10
28.54964322820702
 20
13.95321625087599
 42
0.4142135623730951
 10
28.56964322820701
 20
13.93321625087599
 10
28.67064322820699
 20
13.93321625087599
 42
-0.3398956733201879
 10
28.69383525211139
 20
13.91539120247235
 42
0.4152632777060245
 10
28.72556162493987
 20
13.89814873324085
 10
28.82864322820701
 20
13.93571625087599
 42
-1.00372438189457
 10
28.85264322820701
 20
13.87021625087599
 10
28.63564322820702
 20
13.79121625087599
 10
28.63564322820702
 20
13.85321625087599
 10
28.54964322820702
 20
13.85321625087599
 10
28.54964322820702
 20
13.68321625087599
 10
28.46964322820701
 20
13.68321625087599
 10
28.46964322820701
 20
14.96068594784569
 10
28.57214322820702
 20
14.99671625087599
 10
28.57214322820702
 20
14.96771625087599
 10
28.64384322820702
 20
14.96771625087599
 42
0.1989123673796549
 10
28.66152089773668
 20
14.97503858134633
 10
28.72814322820702
 20
15.04171625087599
 10
28.72814322820702
 20
15.08366625087599
 42
0.3541185725306985
 10
28.71230146202337
 20
15.10322920289066
 10
28.61014322820702
 20
15.12566625087599
 10
28.57214322820702
 20
15.12566625087599
 10
28.57214322820702
 20
15.09666625087599
 10
28.56014322820702
 20
15.09666625087599
 42
-0.4142135623730951
 10
28.54014322820702
 20
15.11666625087599
 10
28.54014322820702
 20
15.14566625087599
 42
-0.4142135623730951
 10
28.56014322820702
 20
15.16566625087599
 10
28.76213822820702
 20
15.16566625087599
 42
-0.4142135623730951
 10
28.80014322820702
 20
15.12766125087599
 10
28.77814322820702
 20
15.12766125087599
 10
28.77814322820702
 20
15.08571625087598
 42
0.4142135623730951
 10
28.79814322820702
 20
15.06571625087598
 10
29.24464322820702
 20
15.06571625087599
 42
0.4142135623730743
 10
29.34464322820702
 20
15.16571625087599
 10
29.34464322820701
 20
15.79071625087599
 42
0.4142135623730587
 10
29.24464322820702
 20
15.89071625087599
 10
28.79814322820702
 20
15.890716250876
 42
0.4142135623730951
 10
28.77814322820702
 20
15.870716250876
 10
28.77814322820702
 20
15.82877125087598
 10
28.80014322820702
 20
15.82877125087598
 42
-0.4142135623730951
 10
28.76213822820702
 20
15.79076625087599
 10
28.56014322820702
 20
15.79076625087599
 42
-0.4142135623730951
 10
28.54014322820702
 20
15.81076625087599
 10
28.54014322820702
 20
15.83976625087599
 42
-0.4142135623730951
 10
28.56014322820702
 20
15.85976625087599
 10
28.57214322820702
 20
15.85976625087599
 10
28.57214322820702
 20
15.83076625087598
 10
28.61014322820702
 20
15.83076625087598
 10
28.71230146202337
 20
15.85320329886131
 42
0.3541185725306761
 10
28.72814322820702
 20
15.87276625087599
 10
28.72814322820702
 20
15.91471625087599
 10
28.66152089773668
 20
15.98139392040565
 42
0.1989123673796627
 10
28.64384322820702
 20
15.98871625087599
 10
28.57214322820702
 20
15.98871625087598
 10
28.57214322820702
 20
15.95971625087599
 10
28.46964322820701
 20
15.99574655390629
  0
LINE
  5
64A9
330
17
100
AcDbEntity
  8
R-SWTS-DET2
100
AcDbLine
 10
30.219643228207
 20
17.70811496710597
 30
0.0
 11
32.21962309757041
 21
17.70811496710597
 31
0.0
  0
LINE
  5
64AA
330
17
100
AcDbEntity
  8
R-SWTS-DET3
100
AcDbLine
 10
29.844643228207
 20
17.19076125265113
 30
0.0
 11
29.844643228207
 21
16.94076125265113
 31
0.0
  0
LINE
  5
64AB
330
17
100
AcDbEntity
  8
R-SWTS-DET3
100
AcDbLine
 10
29.844643228207
 20
17.19076125265113
 30
0.0
 11
32.219643228207
 21
17.19076125265113
 31
0.0
  0
LINE
  5
64AC
330
17
100
AcDbEntity
  8
R-SWTS-DET3
100
AcDbLine
 10
29.844643228207
 20
16.94076125265113
 30
0.0
 11
32.219643228207
 21
16.94076125265113
 31
0.0
  0
LINE
  5
64AD
330
17
100
AcDbEntity
  8
R-SWTS-DET2
100
AcDbLine
 10
30.219643228207
 20
16.42340753819629
 30
0.0
 11
32.21962309757041
 21
16.42340753819629
 31
0.0
  0
LWPOLYLINE
  5
64AE
330
17
100
AcDbEntity
  8
R-SWTS-DET2
100
AcDbPolyline
 90
       31
 70
     1
 43
0.0
 10
30.10564120004255
 20
16.56722265679733
 10
30.11051550064052
 20
16.59403918333627
 10
30.21775009832227
 20
16.55990905921514
 10
30.22262439720095
 20
16.49896240855506
 10
30.219643228207
 20
16.42340753819629
 10
30.25065277082824
 20
16.4334980797546
 42
0.1257100272134179
 10
30.3023950984219
 20
16.66548948177666
 42
-0.2260837189018228
 10
30.35211295706599
 20
16.81907504220827
 10
30.46305357522635
 20
16.91463035186795
 42
0.6449762263124317
 10
30.45131223275268
 20
16.94056464388614
 10
30.3220752971233
 20
16.93898490685809
 42
0.1518691569180708
 10
30.27764014277404
 20
16.92263213026176
 10
30.21771436350557
 20
16.88412894196651
 42
-0.0293454671788447
 10
30.16583172031295
 20
16.86673405276361
 10
30.0440377104759
 20
16.84950376318008
 42
-0.6538117075652882
 10
30.03705097351054
 20
16.86974457408294
 10
30.20229989100046
 20
16.91383632130527
 42
0.8886355728344963
 10
30.20023846010107
 20
16.93898490685809
 10
30.06599283970841
 20
16.93898490685809
 42
0.0642046489364144
 10
29.87737658300113
 20
16.89655244494866
 42
0.6896355001773956
 10
29.87737658300113
 20
16.79394371456055
 42
0.0703560868358924
 10
30.06599283970841
 20
16.75271125265113
 10
30.16169565004205
 20
16.75271125265113
 10
30.16169565004205
 20
16.67936449467454
 10
30.10807835034154
 20
16.65742369985707
 10
30.10320405146285
 20
16.69642955777055
 10
30.06664680213594
 20
16.66229943157853
 10
30.04471245288364
 20
16.69399169190981
 10
29.99109515490241
 20
16.63304503917887
 10
30.05689820265928
 20
16.57697412024026
 10
30.06664680213594
 20
16.60135278091846
  0
LWPOLYLINE
  5
64AF
330
17
100
AcDbEntity
  8
R-SWTS-DET2
100
AcDbPolyline
 90
       31
 70
     1
 43
0.0
 10
30.10564120004255
 20
17.56429984850492
 10
30.11051550064052
 20
17.53748332196598
 10
30.21775009832227
 20
17.57161344608712
 10
30.22262439720095
 20
17.63256009674719
 10
30.219643228207
 20
17.70811496710597
 10
30.25065277082824
 20
17.69802442554765
 42
-0.1257100272134179
 10
30.3023950984219
 20
17.4660330235256
 42
0.2260837189018228
 10
30.35211295706599
 20
17.31244746309399
 10
30.46305357522635
 20
17.2168921534343
 42
-0.6449762263124317
 10
30.45131223275268
 20
17.19095786141611
 10
30.3220752971233
 20
17.19253759844417
 42
-0.1518691569180708
 10
30.27764014277404
 20
17.2088903750405
 10
30.21771436350557
 20
17.24739356333575
 42
0.0293454671788447
 10
30.16583172031295
 20
17.26478845253864
 10
30.0440377104759
 20
17.28201874212217
 42
0.6538117075652882
 10
30.03705097351054
 20
17.26177793121931
 10
30.20229989100046
 20
17.21768618399699
 42
-0.8886355728344963
 10
30.20023846010107
 20
17.19253759844417
 10
30.06599283970841
 20
17.19253759844417
 42
-0.0642046489364144
 10
29.87737658300113
 20
17.23497006035359
 42
-0.6896355001773956
 10
29.87737658300113
 20
17.3375787907417
 42
-0.0703560868358924
 10
30.06599283970841
 20
17.37881125265112
 10
30.16169565004205
 20
17.37881125265112
 10
30.16169565004205
 20
17.45215801062771
 10
30.10807835034154
 20
17.47409880544519
 10
30.10320405146285
 20
17.4350929475317
 10
30.06664680213594
 20
17.46922307372372
 10
30.04471245288364
 20
17.43753081339244
 10
29.99109515490241
 20
17.49847746612339
 10
30.05689820265928
 20
17.55454838506199
 10
30.06664680213594
 20
17.53016972438379
  0
LWPOLYLINE
  5
64B0
330
17
100
AcDbEntity
  8
R-SWTS-DET2
100
AcDbPolyline
 90
       31
 70
     1
 43
0.0
 10
28.58364525637145
 20
14.98092544500828
 10
28.57877095577349
 20
15.00774197154722
 10
28.47153635809173
 20
14.97361184742609
 10
28.46666205921305
 20
14.91266519676602
 10
28.469643228207
 20
14.83711032640724
 10
28.43863368558576
 20
14.84720086796556
 42
-0.1257100272134179
 10
28.3868913579921
 20
15.07919226998761
 42
0.2260837189018228
 10
28.33717349934801
 20
15.23277783041922
 10
28.22623288118766
 20
15.32833314007891
 42
-0.6449762263124317
 10
28.23797422366132
 20
15.35426743209709
 10
28.3672111592907
 20
15.35268769506904
 42
-0.1518691569180708
 10
28.41164631363996
 20
15.33633491847271
 10
28.47157209290844
 20
15.29783173017746
 42
0.0293454671788447
 10
28.52345473610106
 20
15.28043684097456
 10
28.6452487459381
 20
15.26320655139103
 42
0.6538117075652882
 10
28.65223548290347
 20
15.28344736229389
 10
28.48698656541354
 20
15.32753910951622
 42
-0.8886355728344963
 10
28.48904799631293
 20
15.35268769506904
 10
28.62329361670559
 20
15.35268769506904
 42
-0.0642046489364144
 10
28.81190987341287
 20
15.31025523315961
 42
-0.6896355001773956
 10
28.81190987341287
 20
15.20764650277151
 42
-0.0703560868358924
 10
28.62329361670559
 20
15.16641404086208
 10
28.52759080637195
 20
15.16641404086208
 10
28.52759080637195
 20
15.09306728288549
 10
28.58120810607247
 20
15.07112648806802
 10
28.58608240495115
 20
15.1101323459815
 10
28.62263965427807
 20
15.07600221978949
 10
28.64457400353036
 20
15.10769448012077
 10
28.6981913015116
 20
15.04674782738982
 10
28.63238825375472
 20
14.99067690845121
 10
28.62263965427807
 20
15.01505556912942
  0
LWPOLYLINE
  5
64B1
330
17
100
AcDbEntity
  8
R-SWTS-DET2
100
AcDbPolyline
 90
       31
 70
     1
 43
0.0
 10
28.58364525637145
 20
15.97800263671587
 10
28.57877095577349
 20
15.95118611017694
 10
28.47153635809173
 20
15.98531623429807
 10
28.46666205921305
 20
16.04626288495814
 10
28.469643228207
 20
16.12181775531692
 10
28.43863368558576
 20
16.1117272137586
 42
0.1257100272134179
 10
28.3868913579921
 20
15.87973581173655
 42
-0.2260837189018228
 10
28.33717349934801
 20
15.72615025130494
 10
28.22623288118766
 20
15.63059494164525
 42
0.6449762263124317
 10
28.23797422366132
 20
15.60466064962706
 10
28.3672111592907
 20
15.60624038665512
 42
0.1518691569180708
 10
28.41164631363996
 20
15.62259316325145
 10
28.47157209290844
 20
15.6610963515467
 42
-0.0293454671788447
 10
28.52345473610106
 20
15.6784912407496
 10
28.6452487459381
 20
15.69572153033312
 42
-0.6538117075652882
 10
28.65223548290347
 20
15.67548071943027
 10
28.48698656541354
 20
15.63138897220794
 42
0.8886355728344963
 10
28.48904799631293
 20
15.60624038665512
 10
28.62329361670559
 20
15.60624038665512
 42
0.0642046489364144
 10
28.81190987341287
 20
15.64867284856454
 42
0.6896355001773956
 10
28.81190987341287
 20
15.75128157895265
 42
0.0703560868358924
 10
28.62329361670559
 20
15.79251404086208
 10
28.52759080637195
 20
15.79251404086208
 10
28.52759080637195
 20
15.86586079883867
 10
28.58120810607247
 20
15.88780159365614
 10
28.58608240495115
 20
15.84879573574266
 10
28.62263965427807
 20
15.88292586193467
 10
28.64457400353036
 20
15.85123360160339
 10
28.6981913015116
 20
15.91218025433434
 10
28.63238825375472
 20
15.96825117327294
 10
28.62263965427807
 20
15.94387251259474
  0
LINE
  5
64B2
330
17
100
AcDbEntity
  8
R-ANNO-DIMS
  6
Continuous
100
AcDbLine
 10
28.719643228207
 20
11.47594295597558
 30
0.0
 11
29.96964322820701
 21
11.47594295597558
 31
0.0
  0
SOLID
  5
64B3
330
17
100
AcDbEntity
  8
R-ANNO-DIMS
  6
Continuous
100
AcDbTrace
 10
28.719643228207
 20
11.51760962264225
 30
0.0
 11
28.719643228207
 21
11.43427628930891
 31
0.0
 12
28.469643228207
 22
11.47594295597558
 32
0.0
 13
28.469643228207
 23
11.47594295597558
 33
0.0
  0
SOLID
  5
64B4
330
17
100
AcDbEntity
  8
R-ANNO-DIMS
  6
Continuous
100
AcDbTrace
 10
29.96964322820701
 20
11.51760962264225
 30
0.0
 11
29.96964322820701
 21
11.43427628930891
 31
0.0
 12
30.219643228207
 22
11.47594295597558
 32
0.0
 13
30.219643228207
 23
11.47594295597558
 33
0.0
  0
MTEXT
  5
64B5
330
17
100
AcDbEntity
  8
R-ANNO-DIMS
  6
Continuous
100
AcDbMText
 10
29.344643228207
 20
11.70529152350627
 30
0.0
 40
0.25
 41
0.0
 71
     5
 72
     1
  1
\A1;1 3/4"
 73
     1
 44
1.0
1001
ACAD
1000
MTEXTBEGIN
1070
    73
1070
     1
1070
    44
1040
1.0
1070
    74
1070
     0
1000
MTEXTEND
  0
LINE
  5
64B6
330
17
100
AcDbEntity
  8
R-ANNO-DIMS
  6
Continuous
100
AcDbLine
 10
28.469643228207
 20
12.85331634106408
 30
0.0
 11
28.469643228207
 21
11.29594295597558
 31
0.0
  0
LINE
  5
64B7
330
17
100
AcDbEntity
  8
R-ANNO-DIMS
  6
Continuous
100
AcDbLine
 10
28.219643228207
 20
11.47594295597558
 30
0.0
 11
26.71963322820699
 21
11.47594295597558
 31
0.0
  0
SOLID
  5
64B8
330
17
100
AcDbEntity
  8
R-ANNO-DIMS
  6
Continuous
100
AcDbTrace
 10
28.219643228207
 20
11.51760962264225
 30
0.0
 11
28.219643228207
 21
11.43427628930891
 31
0.0
 12
28.469643228207
 22
11.47594295597558
 32
0.0
 13
28.469643228207
 23
11.47594295597558
 33
0.0
  0
SOLID
  5
64B9
330
17
100
AcDbEntity
  8
R-ANNO-DIMS
  6
Continuous
100
AcDbTrace
 10
26.71963322820699
 20
11.51760962264225
 30
0.0
 11
26.71963322820699
 21
11.43427628930891
 31
0.0
 12
26.46963322820699
 22
11.47594295597558
 32
0.0
 13
26.46963322820699
 23
11.47594295597558
 33
0.0
  0
MTEXT
  5
64BA
330
17
100
AcDbEntity
  8
R-ANNO-DIMS
  6
Continuous
100
AcDbMText
 10
27.46963822820699
 20
11.70529152350627
 30
0.0
 40
0.25
 41
0.0
 71
     5
 72
     1
  1
\A1;DLO
 73
     1
 44
1.0
1001
ACAD
1000
MTEXTBEGIN
1070
    73
1070
     1
1070
    44
1040
1.0
1070
    74
1070
     0
1000
MTEXTEND
  0
LINE
  5
64BB
330
17
100
AcDbEntity
  8
R-ANNO-DIMS
  6
Continuous
100
AcDbLine
 10
30.219643228207
 20
12.85331634106408
 30
0.0
 11
30.219643228207
 21
11.29594295597558
 31
0.0
  0
LINE
  5
64BC
330
17
100
AcDbEntity
  8
R-ANNO-DIMS
  6
Continuous
100
AcDbLine
 10
30.46964322820701
 20
11.47594295597558
 30
0.0
 11
31.96965240805448
 21
11.47594295597558
 31
0.0
  0
SOLID
  5
64BD
330
17
100
AcDbEntity
  8
R-ANNO-DIMS
  6
Continuous
100
AcDbTrace
 10
30.46964322820701
 20
11.51760962264225
 30
0.0
 11
30.46964322820701
 21
11.43427628930891
 31
0.0
 12
30.219643228207
 22
11.47594295597558
 32
0.0
 13
30.219643228207
 23
11.47594295597558
 33
0.0
  0
SOLID
  5
64BE
330
17
100
AcDbEntity
  8
R-ANNO-DIMS
  6
Continuous
100
AcDbTrace
 10
31.96965240805448
 20
11.51760962264225
 30
0.0
 11
31.96965240805448
 21
11.43427628930891
 31
0.0
 12
32.21965240805448
 22
11.47594295597558
 32
0.0
 13
32.21965240805448
 23
11.47594295597558
 33
0.0
  0
MTEXT
  5
64BF
330
17
100
AcDbEntity
  8
R-ANNO-DIMS
  6
Continuous
100
AcDbMText
 10
31.21964781813074
 20
11.70529152350627
 30
0.0
 40
0.25
 41
0.0
 71
     5
 72
     1
  1
\A1;DLO
 73
     1
 44
1.0
1001
ACAD
1000
MTEXTBEGIN
1070
    73
1070
     1
1070
    44
1040
1.0
1070
    74
1070
     0
1000
MTEXTEND
  0
LWPOLYLINE
  5
64C0
330
17
100
AcDbEntity
  8
R-SWTS-DET1
100
AcDbPolyline
 90
        6
 70
     0
 43
0.0
 10
21.63556387578228
 20
12.91415753894531
 10
21.63555457120269
 20
15.36518215338539
 10
21.8355345712027
 20
15.4152021533854
 10
21.43555457120269
 20
15.5151821533854
 10
21.63555457120269
 20
15.56518215338539
 10
21.63556380598071
 20
18.02697711174714
  0
LWPOLYLINE
  5
64C1
330
17
100
AcDbEntity
  8
R-SWTS-DET1
100
AcDbPolyline
 90
        6
 70
     0
 43
0.0
 10
15.87038816684288
 20
18.00768317737667
 10
15.87038816684288
 20
15.58097898048889
 10
15.67040816684288
 20
15.53095898048889
 10
16.07038816684288
 20
15.43097898048889
 10
15.87038816684288
 20
15.38097898048889
 10
15.87038816684288
 20
12.91415773003904
  0
LINE
  5
64C2
330
17
100
AcDbEntity
  8
R-SWTS-DET1
100
AcDbLine
 10
17.88418897395896
 20
13.22881419505752
 30
0.0
 11
15.88417897395896
 21
13.22881419505752
 31
0.0
  0
LINE
  5
64C3
330
17
100
AcDbEntity
  8
R-SWTS-DET1
100
AcDbLine
 10
19.63418897395897
 20
13.23081601978438
 30
0.0
 11
21.63419897395897
 21
13.23081601978438
 31
0.0
  0
LINE
  5
64C4
330
17
100
AcDbEntity
  8
R-SWTS-DET1
100
AcDbLine
 10
17.88418897395896
 20
17.72881419505752
 30
0.0
 11
15.87038816684288
 21
17.73096898048889
 31
0.0
  0
LINE
  5
64C5
330
17
100
AcDbEntity
  8
R-SWTS-DET1
100
AcDbLine
 10
19.63418897395897
 20
17.73096898048889
 30
0.0
 11
21.63556269558385
 21
17.73096898048889
 31
0.0
  0
TEXT
  5
64C6
330
17
100
AcDbEntity
  8
PART_NUMBERS
100
AcDbText
 10
16.04264493856612
 20
18.27893481051475
 30
0.0
 40
0.25
  1
450CG028 DEEP POCKET FILLER
100
AcDbText
  0
TEXT
  5
64C7
330
17
100
AcDbEntity
  8
PART_NUMBERS
100
AcDbText
 10
16.04264493856612
 20
18.77893481051475
 30
0.0
 40
0.25
  1
450VG052 SHALLOW POCKET MULLION
100
AcDbText
  0
LINE
  5
64C8
330
17
100
AcDbEntity
  8
R-SWTS-DET2
100
AcDbLine
 10
19.63418897395898
 20
14.53287210918416
 30
0.0
 11
21.6341688433224
 21
14.53287210918416
 31
0.0
  0
LINE
  5
64C9
330
17
100
AcDbEntity
  8
R-SWTS-DET3
100
AcDbLine
 10
19.25918897395898
 20
14.01551839472932
 30
0.0
 11
19.25918897395898
 21
13.76551839472932
 31
0.0
  0
LINE
  5
64CA
330
17
100
AcDbEntity
  8
R-SWTS-DET3
100
AcDbLine
 10
19.25918897395898
 20
14.01551839472932
 30
0.0
 11
21.63418897395898
 21
14.01551839472932
 31
0.0
  0
LINE
  5
64CB
330
17
100
AcDbEntity
  8
R-SWTS-DET3
100
AcDbLine
 10
19.25918897395898
 20
13.76551839472932
 30
0.0
 11
21.63418897395898
 21
13.76551839472932
 31
0.0
  0
LINE
  5
64CC
330
17
100
AcDbEntity
  8
R-SWTS-DET2
100
AcDbLine
 10
19.63418897395898
 20
13.24816468027448
 30
0.0
 11
21.6341688433224
 21
13.24816468027448
 31
0.0
  0
LINE
  5
64CD
330
17
100
AcDbEntity
  8
R-SWTS-DET2
100
AcDbLine
 10
17.88597437829498
 20
16.12181775531692
 30
0.0
 11
15.88599450893157
 21
16.12181775531692
 31
0.0
  0
LINE
  5
64CE
330
17
100
AcDbEntity
  8
R-SWTS-DET3
100
AcDbLine
 10
18.26097437829499
 20
15.60446404086208
 30
0.0
 11
18.26097437829499
 21
15.35446404086208
 31
0.0
  0
LINE
  5
64CF
330
17
100
AcDbEntity
  8
R-SWTS-DET3
100
AcDbLine
 10
18.26097437829499
 20
15.60446404086208
 30
0.0
 11
15.88597437829499
 21
15.60446404086208
 31
0.0
  0
LINE
  5
64D0
330
17
100
AcDbEntity
  8
R-SWTS-DET3
100
AcDbLine
 10
18.26097437829499
 20
15.35446404086208
 30
0.0
 11
15.88597437829499
 21
15.35446404086208
 31
0.0
  0
LINE
  5
64D1
330
17
100
AcDbEntity
  8
R-SWTS-DET2
100
AcDbLine
 10
17.88597437829498
 20
14.83711032640724
 30
0.0
 11
15.88599450893157
 21
14.83711032640724
 31
0.0
  0
LWPOLYLINE
  5
64D2
330
17
100
AcDbEntity
  8
R-SWTS-DET1
100
AcDbPolyline
 90
       92
 70
     1
 43
0.0
 10
19.45998897395897
 20
13.38086419505752
 42
-0.1989123673796591
 10
19.44231130442931
 20
13.38818652552786
 10
19.37568897395897
 20
13.45486419505752
 10
19.37568897395897
 20
13.49681419505752
 42
-0.3541185725306985
 10
19.39153074014261
 20
13.5163771470722
 10
19.49368897395897
 20
13.53881419505752
 10
19.53168897395897
 20
13.53881419505752
 10
19.53168897395897
 20
13.50981419505752
 10
19.54368897395896
 20
13.50981419505752
 42
0.4142135623730951
 10
19.56368897395897
 20
13.52981419505752
 10
19.56368897395897
 20
13.55881419505752
 42
0.4142135623730951
 10
19.54368897395896
 20
13.57881419505752
 10
19.34169397395896
 20
13.57881419505752
 42
0.4142135623730951
 10
19.30368897395896
 20
13.54080919505752
 10
19.32568897395897
 20
13.54080919505752
 10
19.32568897395897
 20
13.47880919505752
 10
19.30368897395896
 20
13.47880919505752
 10
19.30368897395896
 20
13.42403313895941
 42
0.1989018846181181
 10
19.31101059141096
 20
13.40635618247685
 10
19.37440589931036
 20
13.34295576024357
 42
-0.668164052169291
 10
19.36026319327196
 20
13.30881419505752
 10
19.19418897395898
 20
13.30881419505752
 42
-0.4142135623730866
 10
19.13418897395898
 20
13.36881419505752
 10
19.13418897395897
 20
14.20481919505752
 42
-0.4142135623731107
 10
19.23418897395898
 20
14.30481919505752
 10
19.30068897395896
 20
14.30481919505752
 42
-0.4142135623731159
 10
19.32568897395897
 20
14.27981919505752
 10
19.32568897395897
 20
14.24281919505752
 10
19.30368897395896
 20
14.24281919505752
 42
0.4142135623730951
 10
19.34169397395896
 20
14.20481419505752
 10
19.54368897395896
 20
14.20481419505752
 42
0.4142135623730951
 10
19.56368897395897
 20
14.22481419505752
 10
19.56368897395897
 20
14.25381419505752
 42
0.4142135623730951
 10
19.54368897395896
 20
14.27381419505752
 10
19.53168897395897
 20
14.27381419505752
 10
19.53168897395897
 20
14.24481419505752
 10
19.49368897395897
 20
14.24481419505752
 10
19.39153074014261
 20
14.26725124304284
 42
-0.3541185725306792
 10
19.37568897395897
 20
14.28681419505752
 10
19.37568897395897
 20
14.32876419505752
 10
19.44231130442931
 20
14.39544186458718
 42
-0.1989123673796511
 10
19.45998897395897
 20
14.40276419505752
 10
19.53168897395897
 20
14.40276419505752
 10
19.53168897395897
 20
14.37376419505752
 10
19.63418897395897
 20
14.40979449808782
 10
19.63418897395897
 20
17.72881419505752
 10
17.88418897395896
 20
17.72881419505752
 10
17.88418897395896
 20
17.27481328269409
 10
17.96418897395896
 20
17.27481328269409
 10
17.96418897395897
 20
17.16681328269408
 42
0.4142135623730951
 10
18.02618897395896
 20
17.10481328269408
 10
18.04418897395896
 20
17.10481328269409
 10
18.04418897395897
 20
17.29281328269409
 42
0.4142135623730951
 10
17.98218897395896
 20
17.35481328269409
 10
17.96418897395896
 20
17.35481328269408
 10
17.96418897395896
 20
17.58881419505751
 42
-0.4142135623730929
 10
18.02418897395896
 20
17.64881419505751
 10
19.49418897395897
 20
17.64881419505752
 42
-0.4142135623730929
 10
19.55418897395897
 20
17.58881419505751
 10
19.55418897395897
 20
16.14031419505752
 42
-0.2574846159169048
 10
19.54418897395897
 20
16.12031419505752
 10
19.54418897395897
 20
15.77631419505752
 42
-0.2574846159169045
 10
19.55418897395897
 20
15.75631419505752
 10
19.55418897395897
 20
15.20931419505752
 42
-0.2574846159169059
 10
19.54418897395897
 20
15.18931419505752
 10
19.54418897395897
 20
14.84531419505752
 42
-0.2574846159168986
 10
19.55418897395897
 20
14.82531419505752
 10
19.55418897395897
 20
14.55276419505752
 42
-0.4142135623731045
 10
19.48418897395897
 20
14.48276419505752
 10
19.46413354471038
 20
14.48276419505752
 42
0.1990202627215685
 10
19.38985651601424
 20
14.45197957761446
 10
19.32861074319774
 20
14.39068293171334
 42
-0.1990202627215798
 10
19.3144627377318
 20
14.38481919505752
 10
19.23418897395898
 20
14.38481919505752
 42
0.4142135623731107
 10
19.05418897395897
 20
14.20481919505752
 10
19.05418897395898
 20
13.36881419505753
 42
-0.4142135623730951
 10
18.99418897395898
 20
13.30881419505753
 10
18.02418897395896
 20
13.30881419505752
 42
-0.4142135623730928
 10
17.96418897395896
 20
13.36881419505752
 10
17.96418897395896
 20
13.60281328269411
 10
17.98218897395896
 20
13.6028132826941
 42
0.4142135623730951
 10
18.04418897395896
 20
13.6648132826941
 10
18.04418897395897
 20
13.85281328269409
 10
18.02618897395896
 20
13.85281328269409
 42
0.4142135623730951
 10
17.96418897395897
 20
13.79081328269409
 10
17.96418897395897
 20
13.68281328269409
 10
17.88418897395896
 20
13.68281328269409
 10
17.88418897395896
 20
13.22881419505752
 10
19.63418897395897
 20
13.22881419505752
 10
19.63418897395897
 20
13.37383389202721
 10
19.53168897395897
 20
13.40986419505752
 10
19.53168897395897
 20
13.38086419505752
  0
LWPOLYLINE
  5
64D3
330
17
100
AcDbEntity
  8
R-SWTS-DET1
100
AcDbPolyline
 90
       98
 70
     1
 43
0.0
 10
17.88418897395898
 20
17.27377519358526
 10
17.96418897395898
 20
17.27377519358526
 10
17.96418897395898
 20
17.10377519358526
 10
18.05018897395898
 20
17.10377519358527
 10
18.05018897395898
 20
17.16577519358526
 10
18.26718897395898
 20
17.08677519358526
 42
-1.003724381894564
 10
18.24318897395898
 20
17.02127519358526
 10
18.14010737069186
 20
17.05884271122039
 42
0.4152632777059977
 10
18.10838099786335
 20
17.04160024198891
 42
-0.3398956733201357
 10
18.08518897395895
 20
17.02377519358526
 10
17.98418897395898
 20
17.02377519358526
 42
0.414213562373069
 10
17.96418897395898
 20
17.00377519358527
 10
17.96418897395898
 20
16.87977519358527
 42
0.4142135623731211
 10
17.97418897395898
 20
16.86977519358527
 10
17.97418897395897
 20
16.70777519358527
 10
17.96418897395898
 20
16.69777519358527
 10
17.97418897395897
 20
16.68777519358527
 10
17.97418897395898
 20
16.52577519358527
 42
0.4142135623730431
 10
17.96418897395898
 20
16.51577519358527
 10
17.96418897395898
 20
16.14927519358526
 42
0.4142135623730821
 10
18.04418897395898
 20
16.06927519358526
 10
18.05424440320757
 20
16.06927519358526
 42
-0.1990202627215654
 10
18.12852143190371
 20
16.0384905761422
 10
18.18982215907301
 20
15.97713893024109
 42
0.1990202627215551
 10
18.20397016453894
 20
15.97127519358527
 10
18.65918897395899
 20
15.97127519358527
 42
-0.4142135623730605
 10
18.83918897395897
 20
15.79127519358527
 10
18.83918897395898
 20
15.16627519358526
 42
-0.4142135623730749
 10
18.65918897395899
 20
14.98627519358526
 10
18.20397016453894
 20
14.98627519358526
 42
0.1990202627215551
 10
18.18982215907301
 20
14.98041145692943
 10
18.12852143190371
 20
14.91905981102833
 42
-0.1990202627215655
 10
18.05424440320757
 20
14.88827519358527
 10
18.04418897395898
 20
14.88827519358527
 42
0.4142135623730964
 10
17.96418897395898
 20
14.80827519358527
 10
17.96418897395898
 20
14.44177519358526
 42
0.4142135623730951
 10
17.97418897395897
 20
14.43177519358526
 10
17.97418897395897
 20
14.26977519358526
 10
17.96418897395898
 20
14.25977519358526
 10
17.97418897395897
 20
14.24977519358526
 10
17.97418897395898
 20
14.08777519358526
 42
0.4142135623731471
 10
17.96418897395898
 20
14.07777519358526
 10
17.96418897395898
 20
13.95377519358526
 42
0.4142135623730951
 10
17.98418897395898
 20
13.93377519358526
 10
18.08518897395895
 20
13.93377519358526
 42
-0.3398956733201879
 10
18.10838099786336
 20
13.91595014518162
 42
0.4152632777060245
 10
18.14010737069184
 20
13.89870767595013
 10
18.24318897395898
 20
13.93627519358526
 42
-1.00372438189457
 10
18.26718897395898
 20
13.87077519358526
 10
18.05018897395898
 20
13.79177519358526
 10
18.05018897395898
 20
13.85377519358526
 10
17.96418897395898
 20
13.85377519358526
 10
17.96418897395898
 20
13.68377519358526
 10
17.88418897395898
 20
13.68377519358526
 10
17.88418897395898
 20
14.96124489055496
 10
17.98668897395898
 20
14.99727519358526
 10
17.98668897395898
 20
14.96827519358526
 10
18.05838897395898
 20
14.96827519358526
 42
0.1989123673796549
 10
18.07606664348864
 20
14.9755975240556
 10
18.14268897395898
 20
15.04227519358526
 10
18.14268897395898
 20
15.08422519358526
 42
0.3541185725306985
 10
18.12684720777534
 20
15.10378814559994
 10
18.02468897395898
 20
15.12622519358527
 10
17.98668897395898
 20
15.12622519358527
 10
17.98668897395898
 20
15.09722519358527
 10
17.97468897395898
 20
15.09722519358527
 42
-0.4142135623730951
 10
17.95468897395898
 20
15.11722519358526
 10
17.95468897395898
 20
15.14622519358526
 42
-0.4142135623730951
 10
17.97468897395898
 20
15.16622519358526
 10
18.17668397395898
 20
15.16622519358526
 42
-0.4142135623730951
 10
18.21468897395898
 20
15.12822019358527
 10
18.19268897395898
 20
15.12822019358527
 10
18.19268897395898
 20
15.08627519358526
 42
0.4142135623730951
 10
18.21268897395898
 20
15.06627519358526
 10
18.65918897395898
 20
15.06627519358526
 42
0.4142135623730743
 10
18.75918897395898
 20
15.16627519358526
 10
18.75918897395897
 20
15.79127519358527
 42
0.4142135623730587
 10
18.65918897395898
 20
15.89127519358527
 10
18.21268897395898
 20
15.89127519358527
 42
0.4142135623730951
 10
18.19268897395898
 20
15.87127519358527
 10
18.19268897395898
 20
15.82933019358526
 10
18.21468897395898
 20
15.82933019358526
 42
-0.4142135623730951
 10
18.17668397395898
 20
15.79132519358526
 10
17.97468897395898
 20
15.79132519358526
 42
-0.4142135623730951
 10
17.95468897395898
 20
15.81132519358526
 10
17.95468897395898
 20
15.84032519358526
 42
-0.4142135623730951
 10
17.97468897395898
 20
15.86032519358526
 10
17.98668897395898
 20
15.86032519358526
 10
17.98668897395898
 20
15.83132519358526
 10
18.02468897395898
 20
15.83132519358526
 10
18.12684720777534
 20
15.85376224157058
 42
0.3541185725306761
 10
18.14268897395898
 20
15.87332519358526
 10
18.14268897395898
 20
15.91527519358526
 10
18.07606664348864
 20
15.98195286311492
 42
0.1989123673796627
 10
18.05838897395898
 20
15.98927519358526
 10
17.98668897395898
 20
15.98927519358526
 10
17.98668897395898
 20
15.96027519358526
 10
17.88418897395898
 20
15.99630549661556
  0
LWPOLYLINE
  5
64D4
330
17
100
AcDbEntity
  8
R-SWTS-DET2
100
AcDbPolyline
 90
       31
 70
     1
 43
0.0
 10
17.99997640645944
 20
14.98092544500828
 10
17.99510210586147
 20
15.00774197154722
 10
17.88786750817972
 20
14.97361184742609
 10
17.88299320930103
 20
14.91266519676602
 10
17.88597437829498
 20
14.83711032640724
 10
17.85496483567375
 20
14.84720086796556
 42
-0.1257100272134179
 10
17.8032225080801
 20
15.07919226998761
 42
0.2260837189018228
 10
17.75350464943599
 20
15.23277783041922
 10
17.64256403127564
 20
15.32833314007891
 42
-0.6449762263124317
 10
17.6543053737493
 20
15.35426743209709
 10
17.78354230937869
 20
15.35268769506904
 42
-0.1518691569180708
 10
17.82797746372795
 20
15.33633491847271
 10
17.88790324299642
 20
15.29783173017746
 42
0.0293454671788447
 10
17.93978588618904
 20
15.28043684097456
 10
18.06157989602609
 20
15.26320655139103
 42
0.6538117075652882
 10
18.06856663299145
 20
15.28344736229389
 10
17.90331771550153
 20
15.32753910951622
 42
-0.8886355728344963
 10
17.90537914640092
 20
15.35268769506904
 10
18.03962476679357
 20
15.35268769506904
 42
-0.0642046489364144
 10
18.22824102350086
 20
15.31025523315961
 42
-0.6896355001773956
 10
18.22824102350086
 20
15.20764650277151
 42
-0.0703560868358924
 10
18.03962476679357
 20
15.16641404086208
 10
17.94392195645994
 20
15.16641404086208
 10
17.94392195645994
 20
15.09306728288549
 10
17.99753925616045
 20
15.07112648806802
 10
18.00241355503914
 20
15.1101323459815
 10
18.03897080436605
 20
15.07600221978949
 10
18.06090515361835
 20
15.10769448012077
 10
18.11452245159958
 20
15.04674782738982
 10
18.04871940384271
 20
14.99067690845121
 10
18.03897080436605
 20
15.01505556912942
  0
LWPOLYLINE
  5
64D5
330
17
100
AcDbEntity
  8
R-SWTS-DET2
100
AcDbPolyline
 90
       31
 70
     1
 43
0.0
 10
17.99997640645944
 20
15.97800263671587
 10
17.99510210586147
 20
15.95118611017694
 10
17.88786750817972
 20
15.98531623429807
 10
17.88299320930103
 20
16.04626288495814
 10
17.88597437829498
 20
16.12181775531692
 10
17.85496483567375
 20
16.1117272137586
 42
0.1257100272134179
 10
17.8032225080801
 20
15.87973581173654
 42
-0.2260837189018228
 10
17.75350464943599
 20
15.72615025130494
 10
17.64256403127564
 20
15.63059494164525
 42
0.6449762263124317
 10
17.6543053737493
 20
15.60466064962706
 10
17.78354230937869
 20
15.60624038665511
 42
0.1518691569180708
 10
17.82797746372795
 20
15.62259316325144
 10
17.88790324299642
 20
15.6610963515467
 42
-0.0293454671788447
 10
17.93978588618904
 20
15.6784912407496
 10
18.06157989602609
 20
15.69572153033312
 42
-0.6538117075652882
 10
18.06856663299145
 20
15.67548071943026
 10
17.90331771550153
 20
15.63138897220794
 42
0.8886355728344963
 10
17.90537914640092
 20
15.60624038665511
 10
18.03962476679357
 20
15.60624038665511
 42
0.0642046489364144
 10
18.22824102350086
 20
15.64867284856454
 42
0.6896355001773956
 10
18.22824102350086
 20
15.75128157895265
 42
0.0703560868358924
 10
18.03962476679357
 20
15.79251404086208
 10
17.94392195645994
 20
15.79251404086208
 10
17.94392195645994
 20
15.86586079883866
 10
17.99753925616045
 20
15.88780159365613
 10
18.00241355503914
 20
15.84879573574266
 10
18.03897080436605
 20
15.88292586193467
 10
18.06090515361835
 20
15.85123360160339
 10
18.11452245159958
 20
15.91218025433434
 10
18.04871940384271
 20
15.96825117327294
 10
18.03897080436605
 20
15.94387251259474
  0
LWPOLYLINE
  5
64D6
330
17
100
AcDbEntity
  8
R-SWTS-DET2
100
AcDbPolyline
 90
       31
 70
     1
 43
0.0
 10
19.52018694579453
 20
13.39197979887552
 10
19.52506124639249
 20
13.41879632541446
 10
19.63229584407425
 20
13.38466620129333
 10
19.63717014295293
 20
13.32371955063326
 10
19.63418897395898
 20
13.24816468027448
 10
19.66519851658022
 20
13.25825522183279
 42
0.1257100272134179
 10
19.71694084417387
 20
13.49024662385485
 42
-0.2260837189018228
 10
19.76665870281797
 20
13.64383218428646
 10
19.87759932097833
 20
13.73938749394615
 42
0.6449762263124317
 10
19.86585797850467
 20
13.76532178596433
 10
19.73662104287528
 20
13.76374204893628
 42
0.1518691569180708
 10
19.69218588852602
 20
13.74738927233995
 10
19.63226010925755
 20
13.7088860840447
 42
-0.0293454671788447
 10
19.58037746606492
 20
13.6914911948418
 10
19.45858345622788
 20
13.67426090525827
 42
-0.6538117075652882
 10
19.45159671926252
 20
13.69450171616113
 10
19.61684563675244
 20
13.73859346338346
 42
0.8886355728344963
 10
19.61478420585305
 20
13.76374204893628
 10
19.48053858546039
 20
13.76374204893628
 42
0.0642046489364144
 10
19.29192232875311
 20
13.72130958702685
 42
0.6896355001773956
 10
19.29192232875311
 20
13.61870085663875
 42
0.0703560868358924
 10
19.48053858546039
 20
13.57746839472932
 10
19.57624139579403
 20
13.57746839472932
 10
19.57624139579403
 20
13.50412163675273
 10
19.52262409609351
 20
13.48218084193526
 10
19.51774979721482
 20
13.52118669984874
 10
19.48119254788791
 20
13.48705657365673
 10
19.45925819863562
 20
13.51874883398801
 10
19.40564090065439
 20
13.45780218125706
 10
19.47144394841126
 20
13.40173126231845
 10
19.48119254788791
 20
13.42610992299666
  0
LWPOLYLINE
  5
64D7
330
17
100
AcDbEntity
  8
R-SWTS-DET2
100
AcDbPolyline
 90
       31
 70
     1
 43
0.0
 10
19.52018694579453
 20
14.38905699058311
 10
19.52506124639249
 20
14.36224046404418
 10
19.63229584407425
 20
14.39637058816531
 10
19.63717014295293
 20
14.45731723882538
 10
19.63418897395898
 20
14.53287210918416
 10
19.66519851658022
 20
14.52278156762584
 42
-0.1257100272134179
 10
19.71694084417387
 20
14.29079016560378
 42
0.2260837189018228
 10
19.76665870281797
 20
14.13720460517218
 10
19.87759932097833
 20
14.04164929551249
 42
-0.6449762263124317
 10
19.86585797850467
 20
14.0157150034943
 10
19.73662104287528
 20
14.01729474052235
 42
-0.1518691569180708
 10
19.69218588852602
 20
14.03364751711869
 10
19.63226010925755
 20
14.07215070541394
 42
0.0293454671788447
 10
19.58037746606492
 20
14.08954559461683
 10
19.45858345622788
 20
14.10677588420036
 42
0.6538117075652882
 10
19.45159671926252
 20
14.0865350732975
 10
19.61684563675244
 20
14.04244332607518
 42
-0.8886355728344963
 10
19.61478420585305
 20
14.01729474052235
 10
19.48053858546039
 20
14.01729474052235
 42
-0.0642046489364144
 10
19.29192232875311
 20
14.05972720243178
 42
-0.6896355001773956
 10
19.29192232875311
 20
14.16233593281989
 42
-0.0703560868358924
 10
19.48053858546039
 20
14.20356839472932
 10
19.57624139579403
 20
14.20356839472932
 10
19.57624139579403
 20
14.2769151527059
 10
19.52262409609351
 20
14.29885594752337
 10
19.51774979721482
 20
14.2598500896099
 10
19.48119254788791
 20
14.29398021580191
 10
19.45925819863562
 20
14.26228795547063
 10
19.40564090065439
 20
14.32323460820158
 10
19.47144394841126
 20
14.37930552714018
 10
19.48119254788791
 20
14.35492686646198
  0
LINE
  5
64D8
330
17
100
AcDbEntity
  8
R-ANNO-DIMS
  6
Continuous
100
AcDbLine
 10
19.88418897395897
 20
11.47896715576203
 30
0.0
 11
21.38556387578228
 21
11.47896715576203
 31
0.0
  0
SOLID
  5
64D9
330
17
100
AcDbEntity
  8
R-ANNO-DIMS
  6
Continuous
100
AcDbTrace
 10
19.88418897395897
 20
11.5206338224287
 30
0.0
 11
19.88418897395897
 21
11.43730048909537
 31
0.0
 12
19.63418897395897
 22
11.47896715576203
 32
0.0
 13
19.63418897395897
 23
11.47896715576203
 33
0.0
  0
SOLID
  5
64DA
330
17
100
AcDbEntity
  8
R-ANNO-DIMS
  6
Continuous
100
AcDbTrace
 10
21.38556387578228
 20
11.5206338224287
 30
0.0
 11
21.38556387578228
 21
11.43730048909537
 31
0.0
 12
21.63556387578228
 22
11.47896715576203
 32
0.0
 13
21.63556387578228
 23
11.47896715576203
 33
0.0
  0
MTEXT
  5
64DB
330
17
100
AcDbEntity
  8
R-ANNO-DIMS
  6
Continuous
100
AcDbMText
 10
20.63487642487063
 20
11.70831572329273
 30
0.0
 40
0.25
 41
0.0
 71
     5
 72
     1
  1
\A1;DLO
 73
     1
 44
1.0
1001
ACAD
1000
MTEXTBEGIN
1070
    73
1070
     1
1070
    44
1040
1.0
1070
    74
1070
     0
1000
MTEXTEND
  0
LINE
  5
64DC
330
17
100
AcDbEntity
  8
R-ANNO-DIMS
  6
Continuous
100
AcDbLine
 10
17.63418897395896
 20
11.47896715576203
 30
0.0
 11
16.12038816684288
 21
11.47896715576203
 31
0.0
  0
SOLID
  5
64DD
330
17
100
AcDbEntity
  8
R-ANNO-DIMS
  6
Continuous
100
AcDbTrace
 10
17.63418897395896
 20
11.5206338224287
 30
0.0
 11
17.63418897395896
 21
11.43730048909537
 31
0.0
 12
17.88418897395896
 22
11.47896715576203
 32
0.0
 13
17.88418897395896
 23
11.47896715576203
 33
0.0
  0
SOLID
  5
64DE
330
17
100
AcDbEntity
  8
R-ANNO-DIMS
  6
Continuous
100
AcDbTrace
 10
16.12038816684288
 20
11.5206338224287
 30
0.0
 11
16.12038816684288
 21
11.43730048909537
 31
0.0
 12
15.87038816684288
 22
11.47896715576203
 32
0.0
 13
15.87038816684288
 23
11.47896715576203
 33
0.0
  0
MTEXT
  5
64DF
330
17
100
AcDbEntity
  8
R-ANNO-DIMS
  6
Continuous
100
AcDbMText
 10
16.87728857040092
 20
11.70831572329273
 30
0.0
 40
0.25
 41
0.0
 71
     5
 72
     1
  1
\A1;DLO
 73
     1
 44
1.0
1001
ACAD
1000
MTEXTBEGIN
1070
    73
1070
     1
1070
    44
1040
1.0
1070
    74
1070
     0
1000
MTEXTEND
  0
LINE
  5
64E0
330
17
100
AcDbEntity
  8
R-ANNO-DIMS
  6
Continuous
100
AcDbLine
 10
17.88418897395896
 20
12.85396715576203
 30
0.0
 11
17.88418897395896
 21
11.29896715576203
 31
0.0
  0
LINE
  5
64E1
330
17
100
AcDbEntity
  8
R-ANNO-DIMS
  6
Continuous
100
AcDbLine
 10
19.63418897395897
 20
12.85381419505752
 30
0.0
 11
19.63418897395897
 21
11.29896715576203
 31
0.0
  0
LINE
  5
64E2
330
17
100
AcDbEntity
  8
R-ANNO-DIMS
  6
Continuous
100
AcDbLine
 10
18.13418897395896
 20
11.47896715576203
 30
0.0
 11
19.38418897395897
 21
11.47896715576203
 31
0.0
  0
SOLID
  5
64E3
330
17
100
AcDbEntity
  8
R-ANNO-DIMS
  6
Continuous
100
AcDbTrace
 10
18.13418897395896
 20
11.5206338224287
 30
0.0
 11
18.13418897395896
 21
11.43730048909537
 31
0.0
 12
17.88418897395896
 22
11.47896715576203
 32
0.0
 13
17.88418897395896
 23
11.47896715576203
 33
0.0
  0
SOLID
  5
64E4
330
17
100
AcDbEntity
  8
R-ANNO-DIMS
  6
Continuous
100
AcDbTrace
 10
19.38418897395897
 20
11.5206338224287
 30
0.0
 11
19.38418897395897
 21
11.43730048909537
 31
0.0
 12
19.63418897395897
 22
11.47896715576203
 32
0.0
 13
19.63418897395897
 23
11.47896715576203
 33
0.0
  0
MTEXT
  5
64E5
330
17
100
AcDbEntity
  8
R-ANNO-DIMS
  6
Continuous
100
AcDbMText
 10
18.75918897395896
 20
11.70831572329273
 30
0.0
 40
0.25
 41
0.0
 71
     5
 72
     1
  1
\A1;1 3/4"
 73
     1
 44
1.0
1001
ACAD
1000
MTEXTBEGIN
1070
    73
1070
     1
1070
    44
1040
1.0
1070
    74
1070
     0
1000
MTEXTEND
  0
LWPOLYLINE
  5
64E6
330
17
100
AcDbEntity
  8
R-SWTS-DET1
100
AcDbPolyline
 90
        6
 70
     0
 43
0.0
 10
36.98995004790611
 20
17.95908519857893
 10
36.98995004790611
 20
15.56824548592204
 10
36.7899700479061
 20
15.51822548592204
 10
37.18995004790612
 20
15.41824548592204
 10
36.98995004790611
 20
15.36824548592204
 10
36.98995004790611
 20
12.95019388911984
  0
LWPOLYLINE
  5
64E7
330
17
100
AcDbEntity
  8
R-SWTS-DET1
100
AcDbPolyline
 90
        6
 70
     0
 43
0.0
 10
42.73997004790612
 20
12.98271917777715
 10
42.73997004790612
 20
15.36951382121399
 10
42.93995004790612
 20
15.41953382121399
 10
42.53997004790612
 20
15.519513821214
 10
42.73997004790612
 20
15.569513821214
 10
42.73997004790612
 20
17.99161038244406
  0
LINE
  5
64E8
330
17
100
AcDbEntity
  8
R-SWTS-DET1
100
AcDbLine
 10
38.9899600479061
 20
13.23052083237396
 30
0.0
 11
36.98995004790611
 21
13.23052083237396
 31
0.0
  0
LINE
  5
64E9
330
17
100
AcDbEntity
  8
R-SWTS-DET1
100
AcDbLine
 10
40.73996004790612
 20
13.23180916766591
 30
0.0
 11
42.73997004790612
 21
13.23180916766591
 31
0.0
  0
LINE
  5
64EA
330
17
100
AcDbEntity
  8
R-SWTS-DET1
100
AcDbLine
 10
38.9899600479061
 20
17.73052083237395
 30
0.0
 11
36.9899500479061
 21
17.73052083237395
 31
0.0
  0
LINE
  5
64EB
330
17
100
AcDbEntity
  8
R-SWTS-DET1
100
AcDbLine
 10
40.7399600479061
 20
17.73180916766591
 30
0.0
 11
42.73997004790611
 21
17.73180916766591
 31
0.0
  0
TEXT
  5
64EC
330
17
100
AcDbEntity
  8
PART_NUMBERS
100
AcDbText
 10
37.16455951773302
 20
18.24269153011031
 30
0.0
 40
0.25
  1
450CG002 POCKET FILLER
100
AcDbText
  0
TEXT
  5
64ED
330
17
100
AcDbEntity
  8
PART_NUMBERS
100
AcDbText
 10
37.16455951773302
 20
18.74269153011031
 30
0.0
 40
0.25
  1
450VG001 MULLION
100
AcDbText
  0
LINE
  5
64EE
330
17
100
AcDbEntity
  8
R-SWTS-DET2
100
AcDbLine
 10
38.9899600479061
 20
17.71013426702264
 30
0.0
 11
36.9899801785427
 21
17.71013426702264
 31
0.0
  0
LINE
  5
64EF
330
17
100
AcDbEntity
  8
R-SWTS-DET3
100
AcDbLine
 10
39.36496004790611
 20
17.19278055256779
 30
0.0
 11
39.36496004790611
 21
16.9427805525678
 31
0.0
  0
LINE
  5
64F0
330
17
100
AcDbEntity
  8
R-SWTS-DET3
100
AcDbLine
 10
39.36496004790611
 20
17.19278055256779
 30
0.0
 11
36.98996004790611
 21
17.19278055256779
 31
0.0
  0
LINE
  5
64F1
330
17
100
AcDbEntity
  8
R-SWTS-DET3
100
AcDbLine
 10
39.36496004790611
 20
16.9427805525678
 30
0.0
 11
36.98996004790611
 21
16.9427805525678
 31
0.0
  0
LINE
  5
64F2
330
17
100
AcDbEntity
  8
R-SWTS-DET2
100
AcDbLine
 10
38.9899600479061
 20
16.42542683811295
 30
0.0
 11
36.9899801785427
 21
16.42542683811295
 31
0.0
  0
LINE
  5
64F3
330
17
100
AcDbEntity
  8
R-SWTS-DET2
100
AcDbLine
 10
40.7399600479061
 20
16.12181775531692
 30
0.0
 11
42.73993991726952
 21
16.12181775531692
 31
0.0
  0
LINE
  5
64F4
330
17
100
AcDbEntity
  8
R-SWTS-DET3
100
AcDbLine
 10
40.3649600479061
 20
15.60446404086208
 30
0.0
 11
40.3649600479061
 21
15.35446404086208
 31
0.0
  0
LINE
  5
64F5
330
17
100
AcDbEntity
  8
R-SWTS-DET3
100
AcDbLine
 10
40.3649600479061
 20
15.60446404086208
 30
0.0
 11
42.7399600479061
 21
15.60446404086208
 31
0.0
  0
LINE
  5
64F6
330
17
100
AcDbEntity
  8
R-SWTS-DET3
100
AcDbLine
 10
40.3649600479061
 20
15.35446404086208
 30
0.0
 11
42.7399600479061
 21
15.35446404086208
 31
0.0
  0
LINE
  5
64F7
330
17
100
AcDbEntity
  8
R-SWTS-DET2
100
AcDbLine
 10
40.7399600479061
 20
14.83711032640724
 30
0.0
 11
42.73993991726952
 21
14.83711032640724
 31
0.0
  0
LWPOLYLINE
  5
64F8
330
17
100
AcDbEntity
  8
R-SWTS-DET1
100
AcDbPolyline
 90
      108
 70
     1
 43
0.0
 10
39.29553827866734
 20
16.56865209571813
 42
-0.199020262721565
 10
39.30968628413327
 20
16.57451583237395
 10
39.76496004790611
 20
16.57451583237395
 42
0.4142135623730966
 10
39.94496004790611
 20
16.75451583237395
 10
39.94496004790611
 20
17.59052083237395
 42
-0.4142135623730951
 10
40.00496004790611
 20
17.65052083237395
 10
40.59996004790611
 20
17.65052083237395
 42
-0.4142135623730993
 10
40.65996004790611
 20
17.59052083237395
 10
40.65996004790611
 20
17.35652174473736
 10
40.64196004790611
 20
17.35652174473737
 42
0.4142135623730951
 10
40.57996004790611
 20
17.29452174473737
 10
40.5799600479061
 20
17.10652174473738
 10
40.59796004790611
 20
17.10652174473738
 42
0.4142135623730951
 10
40.6599600479061
 20
17.16852174473738
 10
40.6599600479061
 20
17.27652174473738
 10
40.7399600479061
 20
17.27652174473738
 10
40.7399600479061
 20
17.73052083237395
 10
38.9899600479061
 20
17.73052083237395
 10
38.9899600479061
 20
17.58550113540426
 10
39.0924600479061
 20
17.54947083237395
 10
39.0924600479061
 20
17.57847083237395
 10
39.16416004790611
 20
17.57847083237395
 42
-0.1989123673796471
 10
39.18183771743577
 20
17.57114850190361
 10
39.24846004790611
 20
17.50447083237395
 10
39.24846004790611
 20
17.46252083237395
 42
-0.3541185725306985
 10
39.23261828172246
 20
17.44295788035927
 10
39.13046004790611
 20
17.42052083237395
 10
39.0924600479061
 20
17.42052083237395
 10
39.0924600479061
 20
17.44952083237395
 10
39.0804600479061
 20
17.44952083237395
 42
0.4142135623730951
 10
39.0604600479061
 20
17.42952083237395
 10
39.0604600479061
 20
17.40052083237395
 42
0.4142135623730951
 10
39.0804600479061
 20
17.38052083237395
 10
39.28245504790611
 20
17.38052083237395
 42
0.4142135623730882
 10
39.32046004790611
 20
17.41852583237394
 10
39.2984600479061
 20
17.41852583237394
 10
39.2984600479061
 20
17.48052583237395
 10
39.32046004790611
 20
17.48052583237395
 10
39.32046004790611
 20
17.53530188847205
 42
0.1989018846181244
 10
39.31313843045411
 20
17.55297884495462
 10
39.2497431225547
 20
17.6163792671879
 42
-0.668164052169275
 10
39.2638858285931
 20
17.65052083237395
 10
39.80496004790611
 20
17.65052083237395
 42
-0.4142135623730951
 10
39.8649600479061
 20
17.59052083237395
 10
39.86496004790611
 20
16.75451583237395
 42
-0.4142135623730951
 10
39.76496004790611
 20
16.65451583237395
 10
39.32346004790611
 20
16.65451583237395
 42
-0.4142135623731054
 10
39.2984600479061
 20
16.67951583237395
 10
39.2984600479061
 20
16.71651583237395
 10
39.32046004790611
 20
16.71651583237395
 42
0.4142135623730951
 10
39.28245504790611
 20
16.75452083237395
 10
39.0804600479061
 20
16.75452083237395
 42
0.4142135623730951
 10
39.0604600479061
 20
16.73452083237395
 10
39.0604600479061
 20
16.70552083237395
 42
0.4142135623730951
 10
39.0804600479061
 20
16.68552083237395
 10
39.0924600479061
 20
16.68552083237395
 10
39.0924600479061
 20
16.71452083237395
 10
39.13046004790611
 20
16.71452083237395
 10
39.23261828172246
 20
16.69208378438863
 42
-0.3541185725306892
 10
39.24846004790611
 20
16.67252083237395
 10
39.24846004790611
 20
16.63057083237395
 10
39.18183771743577
 20
16.56389316284428
 42
-0.1989123673796472
 10
39.16416004790611
 20
16.55657083237395
 10
39.0924600479061
 20
16.55657083237395
 10
39.0924600479061
 20
16.58557083237394
 10
38.9899600479061
 20
16.54954052934365
 10
38.9899600479061
 20
13.23052083237395
 10
40.7399600479061
 20
13.23052083237395
 10
40.7399600479061
 20
13.68452174473738
 10
40.65996004790611
 20
13.68452174473738
 10
40.6599600479061
 20
13.79252174473738
 42
0.4142135623730951
 10
40.59796004790611
 20
13.85452174473739
 10
40.57996004790611
 20
13.85452174473738
 10
40.5799600479061
 20
13.66652174473738
 42
0.4142135623730951
 10
40.64196004790611
 20
13.60452174473738
 10
40.65996004790611
 20
13.60452174473739
 10
40.65996004790611
 20
13.37052083237395
 42
-0.4142135623730863
 10
40.59996004790611
 20
13.31052083237395
 10
39.1299600479061
 20
13.31052083237395
 42
-0.4142135623730951
 10
39.06996004790611
 20
13.37052083237395
 10
39.06996004790612
 20
14.84829099491321
 42
-0.5680984128595333
 10
39.09947356141963
 20
14.86588340977383
 42
0.3397540095738105
 10
39.29796004790611
 20
14.89777331584487
 10
39.29796004790612
 20
14.94173880007118
 10
39.2684793828573
 20
14.95875946997301
 42
0.3865446749097457
 10
39.2553346842905
 20
14.95590127464363
 42
-3.127286275187406
 10
39.25533468429052
 20
15.06614039010425
 42
0.3865446749096832
 10
39.2684793828573
 20
15.06328219477486
 10
39.29796004790612
 20
15.08030286467669
 10
39.29796004790611
 20
15.124268348903
 42
0.3397540095738022
 10
39.09947356141963
 20
15.15615825497406
 42
-0.5680984128595333
 10
39.06996004790612
 20
15.17375066983466
 10
39.06996004790611
 20
15.77929099491321
 42
-0.5680984128595452
 10
39.09947356141963
 20
15.79688340977383
 42
0.3397540095738164
 10
39.2979600479061
 20
15.82877331584487
 10
39.29796004790612
 20
15.87273880007118
 10
39.2684793828573
 20
15.88975946997301
 42
0.3865446749097794
 10
39.2553346842905
 20
15.88690127464363
 42
-3.127286275187346
 10
39.25533468429052
 20
15.99714039010425
 42
0.386544674909639
 10
39.26847938285729
 20
15.99428219477486
 10
39.29796004790612
 20
16.01130286467669
 10
39.2979600479061
 20
16.055268348903
 42
0.3397540095737971
 10
39.09947356141963
 20
16.08715825497405
 42
-0.5680984128594781
 10
39.06996004790612
 20
16.10475066983466
 10
39.06996004790611
 20
16.39657083237394
 42
-0.4142135623731046
 10
39.14996004790611
 20
16.47657083237395
 10
39.16001547715469
 20
16.47657083237395
 42
0.1990202627215688
 10
39.23429250585083
 20
16.50735544981701
  0
LWPOLYLINE
  5
64F9
330
17
100
AcDbEntity
  8
R-SWTS-DET1
100
AcDbPolyline
 90
       98
 70
     1
 43
0.0
 10
40.73996004790608
 20
17.27547872696423
 10
40.65996004790608
 20
17.27547872696423
 10
40.65996004790608
 20
17.10547872696423
 10
40.57396004790608
 20
17.10547872696423
 10
40.57396004790608
 20
17.16747872696423
 10
40.35696004790608
 20
17.08847872696423
 42
1.003724381894564
 10
40.38096004790609
 20
17.02297872696424
 10
40.4840416511732
 20
17.06054624459936
 42
-0.4152632777059977
 10
40.51576802400171
 20
17.04330377536787
 42
0.3398956733201357
 10
40.53896004790611
 20
17.02547872696424
 10
40.63996004790609
 20
17.02547872696423
 42
-0.414213562373069
 10
40.65996004790608
 20
17.00547872696423
 10
40.65996004790608
 20
16.88147872696423
 42
-0.4142135623731211
 10
40.64996004790609
 20
16.87147872696423
 10
40.64996004790609
 20
16.70947872696423
 10
40.65996004790608
 20
16.69947872696424
 10
40.64996004790609
 20
16.68947872696424
 10
40.64996004790609
 20
16.52747872696424
 42
-0.4142135623730431
 10
40.65996004790608
 20
16.51747872696424
 10
40.65996004790608
 20
16.15097872696423
 42
-0.4142135623730821
 10
40.57996004790608
 20
16.07097872696423
 10
40.5699046186575
 20
16.07097872696423
 42
0.1990202627215654
 10
40.49562758996136
 20
16.04019410952117
 10
40.43432686279206
 20
15.97884246362006
 42
-0.1990202627215551
 10
40.42017885732612
 20
15.97297872696424
 10
40.33996004790608
 20
15.97297872696423
 42
0.4142135623730605
 10
40.15996004790609
 20
15.79297872696423
 10
40.15996004790608
 20
15.16797872696423
 42
0.4142135623730749
 10
40.33996004790608
 20
14.98797872696423
 10
40.42017885732612
 20
14.98797872696422
 42
-0.1990202627215551
 10
40.43432686279206
 20
14.9821149903084
 10
40.49562758996136
 20
14.9207633444073
 42
0.1990202627215655
 10
40.5699046186575
 20
14.88997872696424
 10
40.57996004790608
 20
14.88997872696424
 42
-0.4142135623730964
 10
40.65996004790608
 20
14.80997872696424
 10
40.65996004790608
 20
14.44347872696423
 42
-0.4142135623730951
 10
40.64996004790609
 20
14.43347872696423
 10
40.64996004790609
 20
14.27147872696423
 10
40.65996004790608
 20
14.26147872696423
 10
40.64996004790609
 20
14.25147872696423
 10
40.64996004790609
 20
14.08947872696423
 42
-0.4142135623731471
 10
40.65996004790608
 20
14.07947872696423
 10
40.65996004790608
 20
13.95547872696423
 42
-0.4142135623730951
 10
40.63996004790609
 20
13.93547872696423
 10
40.53896004790611
 20
13.93547872696423
 42
0.3398956733201879
 10
40.51576802400171
 20
13.91765367856059
 42
-0.4152632777060245
 10
40.48404165117323
 20
13.90041120932909
 10
40.38096004790609
 20
13.93797872696423
 42
1.00372438189457
 10
40.35696004790608
 20
13.87247872696423
 10
40.57396004790608
 20
13.79347872696423
 10
40.57396004790608
 20
13.85547872696423
 10
40.65996004790608
 20
13.85547872696423
 10
40.65996004790608
 20
13.68547872696423
 10
40.73996004790608
 20
13.68547872696423
 10
40.73996004790608
 20
14.96294842393393
 10
40.63746004790608
 20
14.99897872696423
 10
40.63746004790608
 20
14.96997872696423
 10
40.56576004790608
 20
14.96997872696423
 42
-0.1989123673796549
 10
40.54808237837642
 20
14.97730105743457
 10
40.48146004790608
 20
15.04397872696423
 10
40.48146004790608
 20
15.08592872696423
 42
-0.3541185725306985
 10
40.49730181408973
 20
15.10549167897891
 10
40.59946004790608
 20
15.12792872696423
 10
40.63746004790608
 20
15.12792872696423
 10
40.63746004790608
 20
15.09892872696423
 10
40.64946004790608
 20
15.09892872696423
 42
0.4142135623730951
 10
40.66946004790608
 20
15.11892872696423
 10
40.66946004790608
 20
15.14792872696423
 42
0.4142135623730951
 10
40.64946004790608
 20
15.16792872696423
 10
40.44746504790608
 20
15.16792872696423
 42
0.4142135623730951
 10
40.40946004790607
 20
15.12992372696423
 10
40.43146004790608
 20
15.12992372696423
 10
40.43146004790608
 20
15.08797872696423
 42
-0.4142135623730951
 10
40.41146004790609
 20
15.06797872696423
 10
40.33996004790608
 20
15.06797872696423
 42
-0.4142135623730743
 10
40.23996004790608
 20
15.16797872696423
 10
40.23996004790609
 20
15.79297872696423
 42
-0.4142135623730587
 10
40.33996004790608
 20
15.89297872696423
 10
40.41146004790609
 20
15.89297872696424
 42
-0.4142135623730951
 10
40.43146004790608
 20
15.87297872696424
 10
40.43146004790608
 20
15.83103372696423
 10
40.40946004790607
 20
15.83103372696423
 42
0.4142135623730951
 10
40.44746504790608
 20
15.79302872696423
 10
40.64946004790608
 20
15.79302872696423
 42
0.4142135623730951
 10
40.66946004790608
 20
15.81302872696423
 10
40.66946004790608
 20
15.84202872696423
 42
0.4142135623730951
 10
40.64946004790608
 20
15.86202872696423
 10
40.63746004790608
 20
15.86202872696423
 10
40.63746004790608
 20
15.83302872696423
 10
40.59946004790608
 20
15.83302872696423
 10
40.49730181408973
 20
15.85546577494955
 42
-0.3541185725306761
 10
40.48146004790608
 20
15.87502872696423
 10
40.48146004790608
 20
15.91697872696423
 10
40.54808237837642
 20
15.98365639649389
 42
-0.1989123673796627
 10
40.56576004790608
 20
15.99097872696423
 10
40.63746004790608
 20
15.99097872696423
 10
40.63746004790608
 20
15.96197872696423
 10
40.73996004790608
 20
15.99800902999453
  0
LWPOLYLINE
  5
64FA
330
17
100
AcDbEntity
  8
R-SWTS-DET2
100
AcDbPolyline
 90
       31
 70
     1
 43
0.0
 10
40.62595801974165
 20
14.98092544500828
 10
40.63083232033962
 20
15.00774197154722
 10
40.73806691802137
 20
14.97361184742609
 10
40.74294121690005
 20
14.91266519676602
 10
40.7399600479061
 20
14.83711032640724
 10
40.77096959052734
 20
14.84720086796555
 42
0.1257100272134179
 10
40.82271191812099
 20
15.07919226998761
 42
-0.2260837189018228
 10
40.87242977676509
 20
15.23277783041922
 10
40.98337039492544
 20
15.32833314007891
 42
0.6449762263124317
 10
40.97162905245179
 20
15.35426743209709
 10
40.8423921168224
 20
15.35268769506904
 42
0.1518691569180708
 10
40.79795696247314
 20
15.33633491847271
 10
40.73803118320467
 20
15.29783173017746
 42
-0.0293454671788447
 10
40.68614854001204
 20
15.28043684097456
 10
40.564354530175
 20
15.26320655139103
 42
-0.6538117075652882
 10
40.55736779320963
 20
15.28344736229389
 10
40.72261671069956
 20
15.32753910951622
 42
0.8886355728344963
 10
40.72055527980017
 20
15.35268769506904
 10
40.58630965940752
 20
15.35268769506904
 42
0.0642046489364144
 10
40.39769340270022
 20
15.31025523315961
 42
0.6896355001773956
 10
40.39769340270022
 20
15.20764650277151
 42
0.0703560868358924
 10
40.58630965940752
 20
15.16641404086208
 10
40.68201246974115
 20
15.16641404086208
 10
40.68201246974115
 20
15.09306728288549
 10
40.62839517004063
 20
15.07112648806802
 10
40.62352087116194
 20
15.1101323459815
 10
40.58696362183503
 20
15.07600221978949
 10
40.56502927258274
 20
15.10769448012077
 10
40.5114119746015
 20
15.04674782738982
 10
40.57721502235838
 20
14.99067690845121
 10
40.58696362183503
 20
15.01505556912942
  0
LWPOLYLINE
  5
64FB
330
17
100
AcDbEntity
  8
R-SWTS-DET2
100
AcDbPolyline
 90
       31
 70
     1
 43
0.0
 10
40.62595801974165
 20
15.97800263671587
 10
40.63083232033962
 20
15.95118611017694
 10
40.73806691802137
 20
15.98531623429807
 10
40.74294121690005
 20
16.04626288495814
 10
40.7399600479061
 20
16.12181775531692
 10
40.77096959052734
 20
16.1117272137586
 42
-0.1257100272134179
 10
40.82271191812099
 20
15.87973581173655
 42
0.2260837189018228
 10
40.87242977676509
 20
15.72615025130494
 10
40.98337039492544
 20
15.63059494164525
 42
-0.6449762263124317
 10
40.97162905245179
 20
15.60466064962706
 10
40.8423921168224
 20
15.60624038665512
 42
-0.1518691569180708
 10
40.79795696247314
 20
15.62259316325145
 10
40.73803118320467
 20
15.6610963515467
 42
0.0293454671788447
 10
40.68614854001204
 20
15.6784912407496
 10
40.564354530175
 20
15.69572153033312
 42
0.6538117075652882
 10
40.55736779320963
 20
15.67548071943027
 10
40.72261671069956
 20
15.63138897220794
 42
-0.8886355728344963
 10
40.72055527980017
 20
15.60624038665512
 10
40.58630965940752
 20
15.60624038665512
 42
-0.0642046489364144
 10
40.39769340270022
 20
15.64867284856454
 42
-0.6896355001773956
 10
40.39769340270022
 20
15.75128157895265
 42
-0.0703560868358924
 10
40.58630965940752
 20
15.79251404086208
 10
40.68201246974115
 20
15.79251404086208
 10
40.68201246974115
 20
15.86586079883867
 10
40.62839517004063
 20
15.88780159365614
 10
40.62352087116194
 20
15.84879573574266
 10
40.58696362183503
 20
15.88292586193467
 10
40.56502927258274
 20
15.85123360160339
 10
40.5114119746015
 20
15.91218025433434
 10
40.57721502235838
 20
15.96825117327294
 10
40.58696362183503
 20
15.94387251259474
  0
LWPOLYLINE
  5
64FC
330
17
100
AcDbEntity
  8
R-SWTS-DET2
100
AcDbPolyline
 90
       31
 70
     1
 43
0.0
 10
39.10396207607056
 20
16.569241956714
 10
39.09908777547259
 20
16.59605848325294
 10
38.99185317779084
 20
16.5619283591318
 10
38.98697887891215
 20
16.50098170847173
 10
38.9899600479061
 20
16.42542683811295
 10
38.95895050528487
 20
16.43551737967127
 42
-0.1257100272134179
 10
38.90720817769122
 20
16.66750878169333
 42
0.2260837189018228
 10
38.85749031904712
 20
16.82109434212494
 10
38.74654970088676
 20
16.91664965178462
 42
-0.6449762263124317
 10
38.75829104336041
 20
16.94258394380281
 10
38.88752797898981
 20
16.94100420677475
 42
-0.1518691569180708
 10
38.93196313333907
 20
16.92465143017843
 10
38.99188891260754
 20
16.88614824188318
 42
0.0293454671788447
 10
39.04377155580016
 20
16.86875335268028
 10
39.16556556563721
 20
16.85152306309675
 42
0.6538117075652882
 10
39.17255230260257
 20
16.87176387399961
 10
39.00730338511265
 20
16.91585562122194
 42
-0.8886355728344963
 10
39.00936481601204
 20
16.94100420677475
 10
39.14361043640469
 20
16.94100420677475
 42
-0.0642046489364144
 10
39.33222669311198
 20
16.89857174486533
 42
-0.6896355001773956
 10
39.33222669311198
 20
16.79596301447722
 42
-0.0703560868358924
 10
39.14361043640469
 20
16.7547305525678
 10
39.04790762607106
 20
16.7547305525678
 10
39.04790762607106
 20
16.68138379459121
 10
39.10152492577157
 20
16.65944299977374
 10
39.10639922465026
 20
16.69844885768721
 10
39.14295647397717
 20
16.6643187314952
 10
39.16489082322947
 20
16.69601099182648
 10
39.2185081212107
 20
16.63506433909553
 10
39.15270507345383
 20
16.57899342015693
 10
39.14295647397717
 20
16.60337208083513
  0
LWPOLYLINE
  5
64FD
330
17
100
AcDbEntity
  8
R-SWTS-DET2
100
AcDbPolyline
 90
       31
 70
     1
 43
0.0
 10
39.10396207607056
 20
17.56631914842159
 10
39.09908777547259
 20
17.53950262188265
 10
38.99185317779084
 20
17.57363274600379
 10
38.98697887891215
 20
17.63457939666386
 10
38.9899600479061
 20
17.71013426702264
 10
38.95895050528487
 20
17.70004372546432
 42
0.1257100272134179
 10
38.90720817769122
 20
17.46805232344226
 42
-0.2260837189018228
 10
38.85749031904712
 20
17.31446676301066
 10
38.74654970088676
 20
17.21891145335097
 42
0.6449762263124317
 10
38.75829104336041
 20
17.19297716133278
 10
38.88752797898981
 20
17.19455689836084
 42
0.1518691569180708
 10
38.93196313333907
 20
17.21090967495716
 10
38.99188891260754
 20
17.24941286325242
 42
-0.0293454671788447
 10
39.04377155580016
 20
17.26680775245531
 10
39.16556556563721
 20
17.28403804203884
 42
-0.6538117075652882
 10
39.17255230260257
 20
17.26379723113598
 10
39.00730338511265
 20
17.21970548391366
 42
0.8886355728344963
 10
39.00936481601204
 20
17.19455689836084
 10
39.14361043640469
 20
17.19455689836084
 42
0.0642046489364144
 10
39.33222669311198
 20
17.23698936027026
 42
0.6896355001773956
 10
39.33222669311198
 20
17.33959809065837
 42
0.0703560868358924
 10
39.14361043640469
 20
17.38083055256779
 10
39.04790762607106
 20
17.38083055256779
 10
39.04790762607106
 20
17.45417731054438
 10
39.10152492577157
 20
17.47611810536185
 10
39.10639922465026
 20
17.43711224744837
 10
39.14295647397717
 20
17.47124237364039
 10
39.16489082322947
 20
17.43955011330911
 10
39.2185081212107
 20
17.50049676604006
 10
39.15270507345383
 20
17.55656768497866
 10
39.14295647397717
 20
17.53218902430045
  0
LINE
  5
64FE
330
17
100
AcDbEntity
  8
R-ANNO-DIMS
  6
Continuous
100
AcDbLine
 10
40.98996004790611
 20
11.4903805796999
 30
0.0
 11
42.48997004790612
 21
11.4903805796999
 31
0.0
  0
SOLID
  5
64FF
330
17
100
AcDbEntity
  8
R-ANNO-DIMS
  6
Continuous
100
AcDbTrace
 10
40.98996004790611
 20
11.53204724636657
 30
0.0
 11
40.98996004790611
 21
11.44871391303324
 31
0.0
 12
40.7399600479061
 22
11.4903805796999
 32
0.0
 13
40.7399600479061
 23
11.4903805796999
 33
0.0
  0
SOLID
  5
6500
330
17
100
AcDbEntity
  8
R-ANNO-DIMS
  6
Continuous
100
AcDbTrace
 10
42.48997004790612
 20
11.53204724636657
 30
0.0
 11
42.48997004790612
 21
11.44871391303324
 31
0.0
 12
42.73997004790612
 22
11.4903805796999
 32
0.0
 13
42.73997004790612
 23
11.4903805796999
 33
0.0
  0
MTEXT
  5
6501
330
17
100
AcDbEntity
  8
R-ANNO-DIMS
  6
Continuous
100
AcDbMText
 10
41.73996504790611
 20
11.7197291472306
 30
0.0
 40
0.25
 41
0.0
 71
     5
 72
     1
  1
\A1;DLO
 73
     1
 44
1.0
1001
ACAD
1000
MTEXTBEGIN
1070
    73
1070
     1
1070
    44
1040
1.0
1070
    74
1070
     0
1000
MTEXTEND
  0
LINE
  5
6502
330
17
100
AcDbEntity
  8
R-ANNO-DIMS
100
AcDbLine
 10
38.7399600479061
 20
11.4903805796999
 30
0.0
 11
37.23995004790611
 21
11.4903805796999
 31
0.0
  0
SOLID
  5
6503
330
17
100
AcDbEntity
  8
R-ANNO-DIMS
100
AcDbTrace
 10
38.7399600479061
 20
11.53204724636657
 30
0.0
 11
38.7399600479061
 21
11.44871391303324
 31
0.0
 12
38.9899600479061
 22
11.4903805796999
 32
0.0
 13
38.9899600479061
 23
11.4903805796999
 33
0.0
  0
SOLID
  5
6504
330
17
100
AcDbEntity
  8
R-ANNO-DIMS
100
AcDbTrace
 10
37.23995004790611
 20
11.53204724636657
 30
0.0
 11
37.23995004790611
 21
11.44871391303324
 31
0.0
 12
36.98995004790611
 22
11.4903805796999
 32
0.0
 13
36.98995004790611
 23
11.4903805796999
 33
0.0
  0
MTEXT
  5
6505
330
17
100
AcDbEntity
  8
R-ANNO-DIMS
100
AcDbMText
 10
37.98995504790611
 20
11.7197291472306
 30
0.0
 40
0.25
 41
0.0
 71
     5
 72
     1
  1
\A1;DLO
 73
     1
 44
1.0
1001
ACAD
1000
MTEXTBEGIN
1070
    73
1070
     1
1070
    44
1040
1.0
1070
    74
1070
     0
1000
MTEXTEND
  0
LINE
  5
6506
330
17
100
AcDbEntity
  8
R-ANNO-DIMS
  6
Continuous
100
AcDbLine
 10
38.9899600479061
 20
12.85552083237395
 30
0.0
 11
38.9899600479061
 21
11.3103805796999
 31
0.0
  0
LINE
  5
6507
330
17
100
AcDbEntity
  8
R-ANNO-DIMS
  6
Continuous
100
AcDbLine
 10
40.7399600479061
 20
12.8653805796999
 30
0.0
 11
40.7399600479061
 21
11.3103805796999
 31
0.0
  0
LINE
  5
6508
330
17
100
AcDbEntity
  8
R-ANNO-DIMS
  6
Continuous
100
AcDbLine
 10
39.2399600479061
 20
11.4903805796999
 30
0.0
 11
40.48996004790611
 21
11.4903805796999
 31
0.0
  0
SOLID
  5
6509
330
17
100
AcDbEntity
  8
R-ANNO-DIMS
  6
Continuous
100
AcDbTrace
 10
39.2399600479061
 20
11.53204724636657
 30
0.0
 11
39.2399600479061
 21
11.44871391303324
 31
0.0
 12
38.9899600479061
 22
11.4903805796999
 32
0.0
 13
38.9899600479061
 23
11.4903805796999
 33
0.0
  0
SOLID
  5
650A
330
17
100
AcDbEntity
  8
R-ANNO-DIMS
  6
Continuous
100
AcDbTrace
 10
40.48996004790611
 20
11.53204724636657
 30
0.0
 11
40.48996004790611
 21
11.44871391303324
 31
0.0
 12
40.7399600479061
 22
11.4903805796999
 32
0.0
 13
40.7399600479061
 23
11.4903805796999
 33
0.0
  0
MTEXT
  5
650B
330
17
100
AcDbEntity
  8
R-ANNO-DIMS
  6
Continuous
100
AcDbMText
 10
39.86496004790611
 20
11.7197291472306
 30
0.0
 40
0.25
 41
0.0
 71
     5
 72
     1
  1
\A1;1 3/4"
 73
     1
 44
1.0
1001
ACAD
1000
MTEXTBEGIN
1070
    73
1070
     1
1070
    44
1040
1.0
1070
    74
1070
     0
1000
MTEXTEND
  0
MTEXT
  5
6629
102
{ACAD_XDICTIONARY
360
662A
102
}
330
17
100
AcDbEntity
  8
TEXT
100
AcDbMText
 10
1.000000084398437
 20
2.0
 30
0.0
 40
0.375
 41
15.4571868900598
 71
     1
 72
     5
  1
ENGINEERING CHANGE:  97910-096 (MARCH 2017)\PFILE NAME:  KCDC021D.DWG
 73
     1
 44
1.0
1001
ACAD
1000
ACAD_MTEXT_COLUMN_INFO_BEGIN
1070
    75
1070
     2
1070
    79
1070
     0
1070
    76
1070
     1
1070
    78
1070
     0
1070
    48
1040
15.4571868900598
1070
    49
1040
1.25
1070
    50
1070
     1
1040
0.0
1000
ACAD_MTEXT_COLUMN_INFO_END
1000
MTEXTBEGIN
1070
    73
1070
     1
1070
    44
1040
1.0
1070
    74
1070
     0
1000
MTEXTEND
  0
INSERT
  5
6E6A
330
17
100
AcDbEntity
  8
0
100
AcDbBlockReference
  2
Kawneer Logo English
 10
1.0
 20
3.0
 30
0.0
 41
5.337
 42
5.337
 43
5.337
  0
ENDSEC
  0
SECTION
  2
OBJECTS
  0
DICTIONARY
  5
C
330
0
100
AcDbDictionary
281
     1
  3
ACAD_CIP_PREVIOUS_PRODUCT_INFO
350
6603
  3
ACAD_COLOR
350
6569
  3
ACAD_FIELDLIST
350
6627
  3
ACAD_GROUP
350
D
  3
ACAD_LAYOUT
350
485C
  3
ACAD_MATERIAL
350
6537
  3
ACAD_MLEADERSTYLE
350
657E
  3
ACAD_MLINESTYLE
350
1A
  3
ACAD_PLOTSETTINGS
350
485D
  3
ACAD_PLOTSTYLENAME
350
485A
  3
ACAD_SCALELIST
350
656C
  3
ACAD_TABLESTYLE
350
656A
  3
ACAD_VISUALSTYLE
350
6550
  3
ACDB_RECOMPOSE_DATA
350
6F16
  3
ACDBVARIABLEDICTIONARY
350
3E
  3
DWGPROPS
350
6F17
  0
DICTIONARY
  5
65BE
330
8
100
AcDbDictionary
280
     1
281
     1
  0
DICTIONARY
  5
659D
330
2
100
AcDbDictionary
280
     1
281
     1
  3
ACAD_LAYERSTATES
360
659E
  0
DICTIONARY
  5
65AD
330
E
100
AcDbDictionary
280
     1
281
     1
  3
ADSK_XREC_LAYER_RECONCILED
360
65AE
  0
DICTIONARY
  5
65AF
330
6019
100
AcDbDictionary
280
     1
281
     1
  3
ADSK_XREC_LAYER_RECONCILED
360
65B0
  0
DICTIONARY
  5
65B1
330
601A
100
AcDbDictionary
280
     1
281
     1
  3
ADSK_XREC_LAYER_RECONCILED
360
65B2
  0
DICTIONARY
  5
65B3
330
601B
100
AcDbDictionary
280
     1
281
     1
  3
ADSK_XREC_LAYER_RECONCILED
360
65B4
  0
DICTIONARY
  5
65B5
330
601C
100
AcDbDictionary
280
     1
281
     1
  3
ADSK_XREC_LAYER_RECONCILED
360
65B6
  0
DICTIONARY
  5
65B7
330
601D
100
AcDbDictionary
280
     1
281
     1
  3
ADSK_XREC_LAYER_RECONCILED
360
65B8
  0
DICTIONARY
  5
6618
330
6617
100
AcDbDictionary
280
     1
281
     1
  0
DICTIONARY
  5
4A11
330
17
100
AcDbDictionary
280
     1
281
     1
  3
ACAD_LAYOUTSELFREF
360
6533
  0
DICTIONARY
  5
4A0F
330
14
100
AcDbDictionary
280
     1
281
     1
  3
ACAD_LAYOUTSELFREF
360
6532
  0
DICTIONARY
  5
6E66
330
6E5C
100
AcDbDictionary
280
     1
281
     1
  3
ACAD_SORTENTS
360
6E67
  0
DICTIONARY
  5
6F14
330
6E5D
100
AcDbDictionary
280
     1
281
     1
  3
ACAD_MTEXT_2008_RT
360
6F15
  0
DICTIONARY
  5
662A
330
6629
100
AcDbDictionary
280
     1
281
     1
  0
XRECORD
  5
6603
102
{ACAD_REACTORS
330
C
102
}
330
C
100
AcDbXrecord
280
     1
300
ACD
300
2012
300
85730ACD_2012_0F
  0
DICTIONARY
  5
6569
102
{ACAD_REACTORS
330
C
102
}
330
C
100
AcDbDictionary
281
     1
  0
FIELDLIST
  5
6627
102
{ACAD_REACTORS
330
C
102
}
330
C
100
AcDbIdSet
 90
        0
100
AcDbFieldList
  0
DICTIONARY
  5
D
102
{ACAD_REACTORS
330
C
102
}
330
C
100
AcDbDictionary
281
     1
  0
DICTIONARY
  5
485C
102
{ACAD_REACTORS
330
C
102
}
330
C
100
AcDbDictionary
281
     1
  3
Layout1
350
485F
  3
Model
350
485E
  0
DICTIONARY
  5
6537
102
{ACAD_REACTORS
330
C
102
}
330
C
100
AcDbDictionary
281
     1
  3
ByBlock
350
6540
  3
ByLayer
350
6538
  3
Global
350
6548
  0
DICTIONARY
  5
657E
102
{ACAD_REACTORS
330
C
102
}
330
C
100
AcDbDictionary
281
     1
  3
Standard
350
657F
  0
DICTIONARY
  5
1A
102
{ACAD_REACTORS
330
C
102
}
330
C
100
AcDbDictionary
281
     1
  3
STANDARD
350
1B
  0
DICTIONARY
  5
485D
102
{ACAD_REACTORS
330
C
102
}
330
C
100
AcDbDictionary
281
     1
  0
ACDBDICTIONARYWDFLT
  5
485A
102
{ACAD_REACTORS
330
C
102
}
330
C
100
AcDbDictionary
281
     1
  3
Normal
350
485B
100
AcDbDictionaryWithDefault
340
485B
  0
DICTIONARY
  5
656C
102
{ACAD_REACTORS
330
C
102
}
330
C
100
AcDbDictionary
281
     1
  3
A0
350
656D
  3
A1
350
6E3A
  3
A2
350
6E3B
  3
A3
350
6E3C
  3
A4
350
6E3D
  3
A5
350
6E3E
  3
A6
350
6E3F
  3
A7
350
6E40
  3
A8
350
6E41
  3
A9
350
6E42
  3
B0
350
6E43
  3
B1
350
6E44
  3
B2
350
6E45
  3
B3
350
6E46
  3
B4
350
6E47
  3
B5
350
6E48
  3
B6
350
6E49
  0
DICTIONARY
  5
656A
102
{ACAD_REACTORS
330
C
102
}
330
C
100
AcDbDictionary
281
     1
  3
Standard
350
656B
  0
DICTIONARY
  5
6550
102
{ACAD_REACTORS
330
C
102
}
330
C
100
AcDbDictionary
281
     1
  3
2dWireframe
350
6556
  3
3D Hidden
350
6E5A
  3
3dWireframe
350
6E5B
  3
Basic
350
6555
  3
Brighten
350
655C
  3
ColorChange
350
6560
  3
Conceptual
350
6559
  3
Dim
350
655B
  3
EdgeColorOff
350
6568
  3
Facepattern
350
655F
  3
Flat
350
6551
  3
FlatWithEdges
350
6552
  3
Gouraud
350
6553
  3
GouraudWithEdges
350
6554
  3
Hidden
350
6558
  3
JitterOff
350
6566
  3
Linepattern
350
655E
  3
OverhangOff
350
6567
  3
Realistic
350
655A
  3
Shaded
350
6565
  3
Shaded with edges
350
6564
  3
Shades of Gray
350
6561
  3
Sketchy
350
6562
  3
Thicken
350
655D
  3
Wireframe
350
6557
  3
X-Ray
350
6563
  0
XRECORD
  5
6F16
102
{ACAD_REACTORS
330
C
102
}
330
C
100
AcDbXrecord
280
     1
 90
        1
330
656B
330
6629
330
6E5D
  0
DICTIONARY
  5
3E
102
{ACAD_REACTORS
330
C
102
}
330
C
100
AcDbDictionary
281
     1
  3
CANNOSCALE
350
65FB
  3
CMLEADERSTYLE
350
65FA
  3
CTABLESTYLE
350
65F9
  3
DIMADEC
350
3F
  3
DIMASSOC
350
65FE
  3
INDEXCTL
350
65FD
  3
LAYEREVAL
350
6EF8
  3
LAYERNOTIFY
350
6EF9
  3
LIGHTINGUNITS
350
6EF7
  3
MSLTSCALE
350
6EF6
  3
SORTENTS
350
65FC
  3
XCLIPFRAME
350
6F12
  0
XRECORD
  5
6F17
102
{ACAD_REACTORS
330
C
102
}
330
C
100
AcDbXrecord
280
     1
  1
DWGPROPS COOKIE
  2

  3

  4

  6

  7

  8
quadiss
  9

300
=
301
=
302
=
303
=
304
=
305
=
306
=
307
=
308
=
309
=
 40
0.5444440162037038
 41
2450777.537570949
 42
2457812.593838218
  1

 90
        0
  0
DICTIONARY
  5
659E
102
{ACAD_REACTORS
330
659D
102
}
330
659D
100
AcDbDictionary
281
     1
  0
XRECORD
  5
65AE
102
{ACAD_REACTORS
330
65AD
102
}
330
65AD
100
AcDbXrecord
280
     1
290
     1
  0
XRECORD
  5
65B0
102
{ACAD_REACTORS
330
65AF
102
}
330
65AF
100
AcDbXrecord
280
     1
290
     1
  0
XRECORD
  5
65B2
102
{ACAD_REACTORS
330
65B1
102
}
330
65B1
100
AcDbXrecord
280
     1
290
     1
  0
XRECORD
  5
65B4
102
{ACAD_REACTORS
330
65B3
102
}
330
65B3
100
AcDbXrecord
280
     1
290
     1
  0
XRECORD
  5
65B6
102
{ACAD_REACTORS
330
65B5
102
}
330
65B5
100
AcDbXrecord
280
     1
290
     1
  0
XRECORD
  5
65B8
102
{ACAD_REACTORS
330
65B7
102
}
330
65B7
100
AcDbXrecord
280
     1
290
     1
  0
XRECORD
  5
6533
102
{ACAD_REACTORS
330
4A11
102
}
330
4A11
100
AcDbXrecord
280
     1
340
17
  0
XRECORD
  5
6532
102
{ACAD_REACTORS
330
4A0F
102
}
330
4A0F
100
AcDbXrecord
280
     1
340
14
  0
SORTENTSTABLE
  5
6E67
102
{ACAD_REACTORS
330
6E66
102
}
330
6E66
100
AcDbSortentsTable
330
6E5C
  0
XRECORD
  5
6F15
102
{ACAD_REACTORS
330
6F14
102
}
330
6F14
100
AcDbXrecord
280
     1
 40
102645.0
  1
\pxqr;{\fArial TUR|b0|i0|c0|p34;\T1.05;AN ARCONIC COMPANY}
  0
LAYOUT
  5
485F
102
{ACAD_XDICTIONARY
360
6F1A
102
}
102
{ACAD_REACTORS
330
485C
102
}
330
485C
100
AcDbPlotSettings
  1

  2
\\NOAKCI-SRV7\Marketing Communications - HP4550hdn
  4

  6

 40
0.0
 41
0.0
 42
0.0
 43
0.0
 44
0.0
 45
0.0
 46
0.0
 47
0.0
 48
0.0
 49
0.0
140
0.0
141
0.0
142
1.0
143
1.0
 70
   688
 72
     0
 73
     0
 74
     5
  7
monochrome.ctb
 75
    16
147
1.0
148
0.0
149
0.0
100
AcDbLayout
  1
Layout1
 70
     1
 71
     1
 10
0.0
 20
0.0
 11
12.0
 21
9.0
 12
0.0
 22
0.0
 32
0.0
 14
1.000000000000000E+20
 24
1.000000000000000E+20
 34
1.000000000000000E+20
 15
-1.000000000000000E+20
 25
-1.000000000000000E+20
 35
-1.000000000000000E+20
146
0.0
 13
0.0
 23
0.0
 33
0.0
 16
1.0
 26
0.0
 36
0.0
 17
0.0
 27
1.0
 37
0.0
 76
     0
330
14
  0
LAYOUT
  5
485E
102
{ACAD_XDICTIONARY
360
6F18
102
}
102
{ACAD_REACTORS
330
485C
102
}
330
485C
100
AcDbPlotSettings
  1

  2
\\noakci-hub01\KCI_MKT_HP9000_PCL6
  4
11x17
  6

 40
3.174999952316284
 41
3.174999952316284
 42
3.17498779296875
 43
3.17498779296875
 44
279.3999938964844
 45
431.8000183105469
 46
0.0
 47
0.0
 48
0.0
 49
0.0
140
0.0
141
0.0
142
1.0
143
3.390426794445869
 70
 11952
 72
     0
 73
     1
 74
     1
  7
monochrome.ctb
 75
     0
147
0.2949481173397344
148
0.0873889752816979
149
0.0600747600600443
100
AcDbLayout
  1
Model
 70
     1
 71
     0
 10
0.0
 20
0.0
 11
12.0
 21
9.0
 12
0.0
 22
0.0
 32
0.0
 14
0.0
 24
0.0
 34
0.0
 15
0.0
 25
0.0
 35
0.0
146
0.0
 13
0.0
 23
0.0
 33
0.0
 16
1.0
 26
0.0
 36
0.0
 17
0.0
 27
1.0
 37
0.0
 76
     0
330
17
331
650C
  0
MATERIAL
  5
6540
102
{ACAD_XDICTIONARY
360
6541
102
}
102
{ACAD_REACTORS
330
6537
102
}
330
6537
100
AcDbMaterial
  1
ByBlock
 72
     0
 43
0.0208333333333333
 43
0.0
 43
0.0
 43
0.0
 43
0.0
 43
0.0208333333333333
 43
0.0
 43
0.0
 43
0.0
 43
0.0
 43
1.0
 43
0.0
 43
0.0
 43
0.0
 43
0.0
 43
1.0
 77
     0
 47
0.0208333333333333
 47
0.0
 47
0.0
 47
0.0
 47
0.0
 47
0.0208333333333333
 47
0.0
 47
0.0
 47
0.0
 47
0.0
 47
1.0
 47
0.0
 47
0.0
 47
0.0
 47
0.0
 47
1.0
171
     0
 49
0.0208333333333333
 49
0.0
 49
0.0
 49
0.0
 49
0.0
 49
0.0208333333333333
 49
0.0
 49
0.0
 49
0.0
 49
0.0
 49
1.0
 49
0.0
 49
0.0
 49
0.0
 49
0.0
 49
1.0
175
     0
142
0.0208333333333333
142
0.0
142
0.0
142
0.0
142
0.0
142
0.0208333333333333
142
0.0
142
0.0
142
0.0
142
0.0
142
1.0
142
0.0
142
0.0
142
0.0
142
0.0
142
1.0
179
     0
144
0.0208333333333333
144
0.0
144
0.0
144
0.0
144
0.0
144
0.0208333333333333
144
0.0
144
0.0
144
0.0
144
0.0
144
1.0
144
0.0
144
0.0
144
0.0
144
0.0
144
1.0
147
0.0208333333333333
147
0.0
147
0.0
147
0.0
147
0.0
147
0.0208333333333333
147
0.0
147
0.0
147
0.0
147
0.0
147
1.0
147
0.0
147
0.0
147
0.0
147
0.0
147
1.0
  0
MATERIAL
  5
6538
102
{ACAD_XDICTIONARY
360
6539
102
}
102
{ACAD_REACTORS
330
6537
102
}
330
6537
100
AcDbMaterial
  1
ByLayer
 72
     0
 43
0.0208333333333333
 43
0.0
 43
0.0
 43
0.0
 43
0.0
 43
0.0208333333333333
 43
0.0
 43
0.0
 43
0.0
 43
0.0
 43
1.0
 43
0.0
 43
0.0
 43
0.0
 43
0.0
 43
1.0
 77
     0
 47
0.0208333333333333
 47
0.0
 47
0.0
 47
0.0
 47
0.0
 47
0.0208333333333333
 47
0.0
 47
0.0
 47
0.0
 47
0.0
 47
1.0
 47
0.0
 47
0.0
 47
0.0
 47
0.0
 47
1.0
171
     0
 49
0.0208333333333333
 49
0.0
 49
0.0
 49
0.0
 49
0.0
 49
0.0208333333333333
 49
0.0
 49
0.0
 49
0.0
 49
0.0
 49
1.0
 49
0.0
 49
0.0
 49
0.0
 49
0.0
 49
1.0
175
     0
142
0.0208333333333333
142
0.0
142
0.0
142
0.0
142
0.0
142
0.0208333333333333
142
0.0
142
0.0
142
0.0
142
0.0
142
1.0
142
0.0
142
0.0
142
0.0
142
0.0
142
1.0
179
     0
144
0.0208333333333333
144
0.0
144
0.0
144
0.0
144
0.0
144
0.0208333333333333
144
0.0
144
0.0
144
0.0
144
0.0
144
1.0
144
0.0
144
0.0
144
0.0
144
0.0
144
1.0
147
0.0208333333333333
147
0.0
147
0.0
147
0.0
147
0.0
147
0.0208333333333333
147
0.0
147
0.0
147
0.0
147
0.0
147
1.0
147
0.0
147
0.0
147
0.0
147
0.0
147
1.0
  0
MATERIAL
  5
6548
102
{ACAD_XDICTIONARY
360
6549
102
}
102
{ACAD_REACTORS
330
6537
102
}
330
6537
100
AcDbMaterial
  1
Global
 72
     0
 43
0.0208333333333333
 43
0.0
 43
0.0
 43
0.0
 43
0.0
 43
0.0208333333333333
 43
0.0
 43
0.0
 43
0.0
 43
0.0
 43
1.0
 43
0.0
 43
0.0
 43
0.0
 43
0.0
 43
1.0
 77
     0
 47
0.0208333333333333
 47
0.0
 47
0.0
 47
0.0
 47
0.0
 47
0.0208333333333333
 47
0.0
 47
0.0
 47
0.0
 47
0.0
 47
1.0
 47
0.0
 47
0.0
 47
0.0
 47
0.0
 47
1.0
171
     0
 49
0.0208333333333333
 49
0.0
 49
0.0
 49
0.0
 49
0.0
 49
0.0208333333333333
 49
0.0
 49
0.0
 49
0.0
 49
0.0
 49
1.0
 49
0.0
 49
0.0
 49
0.0
 49
0.0
 49
1.0
175
     0
142
0.0208333333333333
142
0.0
142
0.0
142
0.0
142
0.0
142
0.0208333333333333
142
0.0
142
0.0
142
0.0
142
0.0
142
1.0
142
0.0
142
0.0
142
0.0
142
0.0
142
1.0
179
     0
144
0.0208333333333333
144
0.0
144
0.0
144
0.0
144
0.0
144
0.0208333333333333
144
0.0
144
0.0
144
0.0
144
0.0
144
1.0
144
0.0
144
0.0
144
0.0
144
0.0
144
1.0
147
0.0208333333333333
147
0.0
147
0.0
147
0.0
147
0.0
147
0.0208333333333333
147
0.0
147
0.0
147
0.0
147
0.0
147
1.0
147
0.0
147
0.0
147
0.0
147
0.0
147
1.0
  0
MLEADERSTYLE
  5
657F
102
{ACAD_REACTORS
330
657E
102
}
330
657E
100
AcDbMLeaderStyle
170
     2
171
     1
172
     0
 90
        2
 40
0.0
 41
0.0
173
     1
 91
-1056964608
340
11
 92
       -2
290
     1
 42
0.09
291
     1
 43
0.36
  3
Standard
 44
0.18
300

342
F
174
     1
178
     6
175
     1
176
     0
 93
-1056964608
 45
0.18
292
     0
297
     0
 46
0.18
 94
-1056964608
 47
1.0
 49
1.0
140
1.0
293
     1
141
0.0
294
     1
177
     0
142
1.0
295
     0
296
     0
143
0.125
1001
ACAD_MLEADERVER
1070
     2
  0
MLINESTYLE
  5
1B
102
{ACAD_REACTORS
330
1A
102
}
330
1A
100
AcDbMlineStyle
  2
STANDARD
 70
     0
  3

 62
   256
 51
90.0
 52
90.0
 71
     2
 49
0.5
 62
   256
  6
BYLAYER
 49
-0.5
 62
   256
  6
BYLAYER
  0
ACDBPLACEHOLDER
  5
485B
102
{ACAD_REACTORS
330
485A
102
}
330
485A
  0
SCALE
  5
656D
102
{ACAD_REACTORS
330
656C
102
}
330
656C
100
AcDbScale
 70
     0
300
1:1
140
1.0
141
1.0
290
     1
  0
SCALE
  5
6E3A
102
{ACAD_REACTORS
330
656C
102
}
330
656C
100
AcDbScale
 70
     0
300
1/128" = 1'-0"
140
0.0078125
141
12.0
290
     0
  0
SCALE
  5
6E3B
102
{ACAD_REACTORS
330
656C
102
}
330
656C
100
AcDbScale
 70
     0
300
1/64" = 1'-0"
140
0.015625
141
12.0
290
     0
  0
SCALE
  5
6E3C
102
{ACAD_REACTORS
330
656C
102
}
330
656C
100
AcDbScale
 70
     0
300
1/32" = 1'-0"
140
0.03125
141
12.0
290
     0
  0
SCALE
  5
6E3D
102
{ACAD_REACTORS
330
656C
102
}
330
656C
100
AcDbScale
 70
     0
300
1/16" = 1'-0"
140
0.0625
141
12.0
290
     0
  0
SCALE
  5
6E3E
102
{ACAD_REACTORS
330
656C
102
}
330
656C
100
AcDbScale
 70
     0
300
3/32" = 1'-0"
140
0.09375
141
12.0
290
     0
  0
SCALE
  5
6E3F
102
{ACAD_REACTORS
330
656C
102
}
330
656C
100
AcDbScale
 70
     0
300
1/8" = 1'-0"
140
0.125
141
12.0
290
     0
  0
SCALE
  5
6E40
102
{ACAD_REACTORS
330
656C
102
}
330
656C
100
AcDbScale
 70
     0
300
3/16" = 1'-0"
140
0.1875
141
12.0
290
     0
  0
SCALE
  5
6E41
102
{ACAD_REACTORS
330
656C
102
}
330
656C
100
AcDbScale
 70
     0
300
1/4" = 1'-0"
140
0.25
141
12.0
290
     0
  0
SCALE
  5
6E42
102
{ACAD_REACTORS
330
656C
102
}
330
656C
100
AcDbScale
 70
     0
300
3/8" = 1'-0"
140
0.375
141
12.0
290
     0
  0
SCALE
  5
6E43
102
{ACAD_REACTORS
330
656C
102
}
330
656C
100
AcDbScale
 70
     0
300
1/2" = 1'-0"
140
0.5
141
12.0
290
     0
  0
SCALE
  5
6E44
102
{ACAD_REACTORS
330
656C
102
}
330
656C
100
AcDbScale
 70
     0
300
3/4" = 1'-0"
140
0.75
141
12.0
290
     0
  0
SCALE
  5
6E45
102
{ACAD_REACTORS
330
656C
102
}
330
656C
100
AcDbScale
 70
     0
300
1" = 1'-0"
140
1.0
141
12.0
290
     0
  0
SCALE
  5
6E46
102
{ACAD_REACTORS
330
656C
102
}
330
656C
100
AcDbScale
 70
     0
300
1-1/2" = 1'-0"
140
1.5
141
12.0
290
     0
  0
SCALE
  5
6E47
102
{ACAD_REACTORS
330
656C
102
}
330
656C
100
AcDbScale
 70
     0
300
3" = 1'-0"
140
3.0
141
12.0
290
     0
  0
SCALE
  5
6E48
102
{ACAD_REACTORS
330
656C
102
}
330
656C
100
AcDbScale
 70
     0
300
6" = 1'-0"
140
6.0
141
12.0
290
     0
  0
SCALE
  5
6E49
102
{ACAD_REACTORS
330
656C
102
}
330
656C
100
AcDbScale
 70
     0
300
1'-0" = 1'-0"
140
12.0
141
12.0
290
     0
  0
TABLESTYLE
  5
656B
102
{ACAD_XDICTIONARY
360
65BA
102
}
102
{ACAD_REACTORS
330
656A
102
}
330
656A
100
AcDbTableStyle
  3
Standard
 70
     0
 71
     0
 40
0.06
 41
0.06
280
     0
281
     0
  7
STANDARD
140
0.18
170
     2
 62
     0
 63
     7
283
     0
274
    -2
284
     1
 64
     0
275
    -2
285
     1
 65
     0
276
    -2
286
     1
 66
     0
277
    -2
287
     1
 67
     0
278
    -2
288
     1
 68
     0
279
    -2
289
     1
 69
     0
  7
STANDARD
140
0.25
170
     5
 62
     0
 63
     7
283
     0
274
    -2
284
     1
 64
     0
275
    -2
285
     1
 65
     0
276
    -2
286
     1
 66
     0
277
    -2
287
     1
 67
     0
278
    -2
288
     1
 68
     0
279
    -2
289
     1
 69
     0
  7
STANDARD
140
0.18
170
     5
 62
     0
 63
     7
283
     0
274
    -2
284
     1
 64
     0
275
    -2
285
     1
 65
     0
276
    -2
286
     1
 66
     0
277
    -2
287
     1
 67
     0
278
    -2
288
     1
 68
     0
279
    -2
289
     1
 69
     0
  0
VISUALSTYLE
  5
6556
102
{ACAD_XDICTIONARY
360
6F29
102
}
102
{ACAD_REACTORS
330
6550
102
}
330
6550
100
AcDbVisualStyle
  2
2dWireframe
 70
     4
 71
     0
 72
     2
 73
     0
 90
        0
 40
-0.6
 41
-30.0
 62
     5
 63
     7
 74
     1
 91
        4
 64
     7
 65
   257
 75
     1
175
     1
 42
1.0
 92
        0
 66
   257
 43
1.0
 76
     1
 77
     6
 78
     2
 67
     7
 79
     5
170
     0
171
     0
290
     0
174
     0
 93
        1
 44
0.0
173
     0
291
     0
 45
0.0
1001
ACAD
1000
AcDbSavedByObjectVersion
1070
     0
  0
VISUALSTYLE
  5
6E5A
102
{ACAD_XDICTIONARY
360
6F50
102
}
102
{ACAD_REACTORS
330
6550
102
}
330
6550
100
AcDbVisualStyle
  2
3D Hidden
 70
     6
 71
     1
 72
     2
 73
     2
 90
        0
 40
-0.6
 41
-30.0
 62
     5
 63
     7
 74
     2
 91
        2
 64
     7
 65
   257
 75
     2
175
     1
 42
40.0
 92
        0
 66
   257
 43
1.0
 76
     1
 77
     6
 78
     2
 67
     7
 79
     3
170
     0
171
     0
290
     0
174
     0
 93
        1
 44
0.0
173
     0
291
     0
 45
0.0
1001
ACAD
1000
AcDbSavedByObjectVersion
1070
     0
  0
VISUALSTYLE
  5
6E5B
102
{ACAD_XDICTIONARY
360
6F52
102
}
102
{ACAD_REACTORS
330
6550
102
}
330
6550
100
AcDbVisualStyle
  2
3dWireframe
 70
     5
 71
     0
 72
     2
 73
     0
 90
        0
 40
-0.6
 41
-30.0
 62
     5
 63
     7
 74
     1
 91
        4
 64
     7
 65
   257
 75
     1
175
     1
 42
1.0
 92
        0
 66
   257
 43
1.0
 76
     1
 77
     6
 78
     2
 67
     7
 79
     5
170
     0
171
     0
290
     0
174
     0
 93
        1
 44
0.0
173
     0
291
     0
 45
0.0
1001
ACAD
1000
AcDbSavedByObjectVersion
1070
     0
  0
VISUALSTYLE
  5
6555
102
{ACAD_XDICTIONARY
360
6F27
102
}
102
{ACAD_REACTORS
330
6550
102
}
330
6550
100
AcDbVisualStyle
  2
Basic
 70
     7
 71
     1
 72
     0
 73
     1
 90
        0
 40
-0.6
 41
-30.0
 62
     5
 63
     7
 74
     0
 91
        4
 64
     7
 65
   257
 75
     1
175
     1
 42
1.0
 92
        8
 66
     7
 43
1.0
 76
     1
 77
     6
 78
     2
 67
     7
 79
     5
170
     0
171
     0
290
     0
174
     0
 93
        1
 44
0.0
173
     0
291
     1
 45
0.0
1001
ACAD
1000
AcDbSavedByObjectVersion
1070
     0
  0
VISUALSTYLE
  5
655C
102
{ACAD_XDICTIONARY
360
6F35
102
}
102
{ACAD_REACTORS
330
6550
102
}
330
6550
100
AcDbVisualStyle
  2
Brighten
 70
    12
 71
     2
 72
     2
 73
     0
 90
        0
 40
-0.6
 41
-30.0
 62
     5
 63
     7
 74
     1
 91
        4
 64
     7
 65
   257
 75
     1
175
     1
 42
1.0
 92
        8
 66
     7
 43
1.0
 76
     1
 77
     6
 78
     2
 67
     7
 79
     5
170
     0
171
     0
290
     0
174
     0
 93
        1
 44
50.0
173
     0
291
     1
 45
0.0
1001
ACAD
1000
AcDbSavedByObjectVersion
1070
     0
  0
VISUALSTYLE
  5
6560
102
{ACAD_XDICTIONARY
360
6F3D
102
}
102
{ACAD_REACTORS
330
6550
102
}
330
6550
100
AcDbVisualStyle
  2
ColorChange
 70
    16
 71
     2
 72
     2
 73
     3
 90
        0
 40
-0.6
 41
-30.0
 62
     5
 63
     8
 74
     1
 91
        4
 64
     7
 65
   257
 75
     1
175
     1
 42
1.0
 92
        8
 66
     8
 43
1.0
 76
     1
 77
     6
 78
     2
 67
     7
 79
     5
170
     0
171
     0
290
     0
174
     0
 93
        1
 44
0.0
173
     0
291
     1
 45
0.0
1001
ACAD
1000
AcDbSavedByObjectVersion
1070
     0
  0
VISUALSTYLE
  5
6559
102
{ACAD_XDICTIONARY
360
6F2F
102
}
102
{ACAD_REACTORS
330
6550
102
}
330
6550
100
AcDbVisualStyle
  2
Conceptual
 70
     9
 71
     3
 72
     2
 73
     0
 90
        0
 40
-0.6
 41
-30.0
 62
     5
 63
     7
 74
     2
 91
        2
 64
     7
 65
   257
 75
     1
175
     1
 42
179.0
 92
        8
 66
     7
 43
1.0
 76
     1
 77
     6
 78
     2
 67
     7
 79
     3
170
     0
171
     0
290
     0
174
     0
 93
        1
 44
0.0
173
     0
291
     0
 45
0.0
1001
ACAD
1000
AcDbSavedByObjectVersion
1070
     0
  0
VISUALSTYLE
  5
655B
102
{ACAD_XDICTIONARY
360
6F33
102
}
102
{ACAD_REACTORS
330
6550
102
}
330
6550
100
AcDbVisualStyle
  2
Dim
 70
    11
 71
     2
 72
     2
 73
     0
 90
        0
 40
-0.6
 41
-30.0
 62
     5
 63
     7
 74
     1
 91
        4
 64
     7
 65
   257
 75
     1
175
     1
 42
1.0
 92
        8
 66
     7
 43
1.0
 76
     1
 77
     6
 78
     2
 67
     7
 79
     5
170
     0
171
     0
290
     0
174
     0
 93
        1
 44
-50.0
173
     0
291
     1
 45
0.0
1001
ACAD
1000
AcDbSavedByObjectVersion
1070
     0
  0
VISUALSTYLE
  5
6568
102
{ACAD_XDICTIONARY
360
6F4D
102
}
102
{ACAD_REACTORS
330
6550
102
}
330
6550
100
AcDbVisualStyle
  2
EdgeColorOff
 70
    22
 71
     2
 72
     2
 73
     0
 90
        0
 40
-0.6
 41
-30.0
 62
     5
 63
     7
 74
     1
 91
        4
 64
     7
 65
   257
 75
     1
175
     1
 42
1.0
 92
        8
 66
     7
 43
1.0
 76
     1
 77
     6
 78
     2
 67
     7
 79
     5
170
     0
171
     0
290
     0
174
     0
 93
        1
 44
0.0
173
     0
291
     1
 45
0.0
1001
ACAD
1000
AcDbSavedByObjectVersion
1070
     0
  0
VISUALSTYLE
  5
655F
102
{ACAD_XDICTIONARY
360
6F3B
102
}
102
{ACAD_REACTORS
330
6550
102
}
330
6550
100
AcDbVisualStyle
  2
Facepattern
 70
    15
 71
     2
 72
     2
 73
     0
 90
        0
 40
-0.6
 41
-30.0
 62
     5
 63
     7
 74
     1
 91
        4
 64
     7
 65
   257
 75
     1
175
     1
 42
1.0
 92
        8
 66
     7
 43
1.0
 76
     1
 77
     6
 78
     2
 67
     7
 79
     5
170
     0
171
     0
290
     0
174
     0
 93
        1
 44
0.0
173
     0
291
     1
 45
0.0
1001
ACAD
1000
AcDbSavedByObjectVersion
1070
     0
  0
VISUALSTYLE
  5
6551
102
{ACAD_XDICTIONARY
360
6F1F
102
}
102
{ACAD_REACTORS
330
6550
102
}
330
6550
100
AcDbVisualStyle
  2
Flat
 70
     0
 71
     2
 72
     1
 73
     1
 90
        2
 40
-0.6
 41
30.0
 62
     5
 63
     7
 74
     0
 91
        0
 64
     7
 65
   257
 75
     1
175
     1
 42
1.0
 92
        8
 66
     7
 43
1.0
 76
     1
 77
     6
 78
     2
 67
     7
 79
     5
170
     0
171
     0
290
     0
174
     0
 93
       13
 44
0.0
173
     0
291
     1
 45
0.0
1001
ACAD
1000
AcDbSavedByObjectVersion
1070
     0
  0
VISUALSTYLE
  5
6552
102
{ACAD_XDICTIONARY
360
6F21
102
}
102
{ACAD_REACTORS
330
6550
102
}
330
6550
100
AcDbVisualStyle
  2
FlatWithEdges
 70
     1
 71
     2
 72
     1
 73
     1
 90
        2
 40
-0.6
 41
30.0
 62
     5
 63
     7
 74
     1
 91
        0
 64
     7
 65
   257
 75
     1
175
     1
 42
1.0
 92
        0
 66
   257
 43
1.0
 76
     1
 77
     6
 78
     2
 67
     7
 79
     5
170
     0
171
     0
290
     0
174
     0
 93
       13
 44
0.0
173
     0
291
     1
 45
0.0
1001
ACAD
1000
AcDbSavedByObjectVersion
1070
     0
  0
VISUALSTYLE
  5
6553
102
{ACAD_XDICTIONARY
360
6F23
102
}
102
{ACAD_REACTORS
330
6550
102
}
330
6550
100
AcDbVisualStyle
  2
Gouraud
 70
     2
 71
     2
 72
     2
 73
     1
 90
        2
 40
-0.6
 41
30.0
 62
     5
 63
     7
 74
     0
 91
        0
 64
     7
 65
   257
 75
     1
175
     1
 42
1.0
 92
        0
 66
     7
 43
1.0
 76
     1
 77
     6
 78
     2
 67
     7
 79
     5
170
     0
171
     0
290
     0
174
     0
 93
       13
 44
0.0
173
     0
291
     1
 45
0.0
1001
ACAD
1000
AcDbSavedByObjectVersion
1070
     0
  0
VISUALSTYLE
  5
6554
102
{ACAD_XDICTIONARY
360
6F25
102
}
102
{ACAD_REACTORS
330
6550
102
}
330
6550
100
AcDbVisualStyle
  2
GouraudWithEdges
 70
     3
 71
     2
 72
     2
 73
     1
 90
        2
 40
-0.6
 41
30.0
 62
     5
 63
     7
 74
     1
 91
        0
 64
     7
 65
   257
 75
     1
175
     1
 42
1.0
 92
        0
 66
   257
 43
1.0
 76
     1
 77
     6
 78
     2
 67
     7
 79
     5
170
     0
171
     0
290
     0
174
     0
 93
       13
 44
0.0
173
     0
291
     1
 45
0.0
1001
ACAD
1000
AcDbSavedByObjectVersion
1070
     0
  0
VISUALSTYLE
  5
6558
102
{ACAD_XDICTIONARY
360
6F2D
102
}
102
{ACAD_REACTORS
330
6550
102
}
330
6550
100
AcDbVisualStyle
  2
Hidden
 70
     6
 71
     1
 72
     2
 73
     2
 90
        0
 40
-0.6
 41
-30.0
 62
     5
 63
     7
 74
     2
 91
        2
 64
     7
 65
   257
 75
     2
175
     1
 42
40.0
 92
        0
 66
   257
 43
1.0
 76
     1
 77
     6
 78
     2
 67
     7
 79
     3
170
     0
171
     0
290
     0
174
     0
 93
        1
 44
0.0
173
     0
291
     0
 45
0.0
1001
ACAD
1000
AcDbSavedByObjectVersion
1070
     0
  0
VISUALSTYLE
  5
6566
102
{ACAD_XDICTIONARY
360
6F49
102
}
102
{ACAD_REACTORS
330
6550
102
}
330
6550
100
AcDbVisualStyle
  2
JitterOff
 70
    20
 71
     2
 72
     2
 73
     0
 90
        0
 40
-0.6
 41
-30.0
 62
     5
 63
     7
 74
     1
 91
        4
 64
     7
 65
   257
 75
     1
175
     1
 42
1.0
 92
       10
 66
     7
 43
1.0
 76
     1
 77
     6
 78
     2
 67
     7
 79
     5
170
     0
171
     0
290
     0
174
     0
 93
        1
 44
0.0
173
     0
291
     1
 45
0.0
1001
ACAD
1000
AcDbSavedByObjectVersion
1070
     0
  0
VISUALSTYLE
  5
655E
102
{ACAD_XDICTIONARY
360
6F39
102
}
102
{ACAD_REACTORS
330
6550
102
}
330
6550
100
AcDbVisualStyle
  2
Linepattern
 70
    14
 71
     2
 72
     2
 73
     0
 90
        0
 40
-0.6
 41
-30.0
 62
     5
 63
     7
 74
     1
 91
        4
 64
     7
 65
   257
 75
     7
175
     7
 42
1.0
 92
        8
 66
     7
 43
1.0
 76
     1
 77
     6
 78
     2
 67
     7
 79
     5
170
     0
171
     0
290
     0
174
     0
 93
        1
 44
0.0
173
     0
291
     1
 45
0.0
1001
ACAD
1000
AcDbSavedByObjectVersion
1070
     0
  0
VISUALSTYLE
  5
6567
102
{ACAD_XDICTIONARY
360
6F4B
102
}
102
{ACAD_REACTORS
330
6550
102
}
330
6550
100
AcDbVisualStyle
  2
OverhangOff
 70
    21
 71
     2
 72
     2
 73
     0
 90
        0
 40
-0.6
 41
-30.0
 62
     5
 63
     7
 74
     1
 91
        4
 64
     7
 65
   257
 75
     1
175
     1
 42
1.0
 92
        9
 66
     7
 43
1.0
 76
     1
 77
     6
 78
     2
 67
     7
 79
     5
170
     0
171
     0
290
     0
174
     0
 93
        1
 44
0.0
173
     0
291
     1
 45
0.0
1001
ACAD
1000
AcDbSavedByObjectVersion
1070
     0
  0
VISUALSTYLE
  5
655A
102
{ACAD_XDICTIONARY
360
6F31
102
}
102
{ACAD_REACTORS
330
6550
102
}
330
6550
100
AcDbVisualStyle
  2
Realistic
 70
     8
 71
     2
 72
     2
 73
     0
 90
        2
 40
-0.6
 41
30.0
 62
     5
 63
     7
 74
     0
 91
        0
 64
     7
 65
   257
 75
     1
175
     1
 42
1.0
 92
        8
 66
   257
 43
1.0
 76
     1
 77
     6
 78
     2
 67
     7
 79
     3
170
     0
171
     0
290
     0
174
     0
 93
       13
 44
0.0
173
     0
291
     0
 45
0.0
1001
ACAD
1000
AcDbSavedByObjectVersion
1070
     0
  0
VISUALSTYLE
  5
6565
102
{ACAD_XDICTIONARY
360
6F47
102
}
102
{ACAD_REACTORS
330
6550
102
}
330
6550
100
AcDbVisualStyle
  2
Shaded
 70
    27
 71
     2
 72
     2
 73
     1
 90
        2
 40
-0.6
 41
30.0
 62
     5
 63
     7
 74
     0
 91
        4
 64
     7
 65
   257
 75
     1
175
     1
 42
1.0
 92
        8
 66
   257
 43
1.0
 76
     1
 77
     6
 78
     2
 67
     8
 79
     3
170
     0
171
     0
290
     0
174
     0
 93
        5
 44
0.0
173
     0
291
     0
 45
0.0
1001
ACAD
1000
AcDbSavedByObjectVersion
1070
     0
  0
VISUALSTYLE
  5
6564
102
{ACAD_XDICTIONARY
360
6F45
102
}
102
{ACAD_REACTORS
330
6550
102
}
330
6550
100
AcDbVisualStyle
  2
Shaded with edges
 70
    26
 71
     2
 72
     2
 73
     1
 90
        2
 40
-0.6
 41
30.0
 62
     5
 63
     7
 74
     1
 91
       10
 64
     7
 65
   257
 75
     2
175
     1
 42
1.0
 92
        8
 66
   257
 43
1.0
 76
     1
 77
     6
 78
     2
 67
     7
 79
     3
170
     0
171
     0
290
     0
174
     0
 93
        5
 44
0.0
173
     0
291
     0
 45
0.0
1001
ACAD
1000
AcDbSavedByObjectVersion
1070
     0
  0
VISUALSTYLE
  5
6561
102
{ACAD_XDICTIONARY
360
6F3F
102
}
102
{ACAD_REACTORS
330
6550
102
}
330
6550
100
AcDbVisualStyle
  2
Shades of Gray
 70
    23
 71
     2
 72
     2
 73
     3
 90
        0
 40
-0.6
 41
-30.0
 62
     5
 63
     7
 74
     2
 91
        2
 64
     7
 65
     7
 75
     1
175
     1
 42
40.0
 92
        8
 66
     7
 43
1.0
 76
     1
 77
     6
 78
     2
 67
     7
 79
     3
170
     0
171
     0
290
     0
174
     0
 93
        1
 44
0.0
173
     0
291
     0
 45
0.0
1001
ACAD
1000
AcDbSavedByObjectVersion
1070
     0
  0
VISUALSTYLE
  5
6562
102
{ACAD_XDICTIONARY
360
6F41
102
}
102
{ACAD_REACTORS
330
6550
102
}
330
6550
100
AcDbVisualStyle
  2
Sketchy
 70
    24
 71
     1
 72
     2
 73
     2
 90
        0
 40
-0.6
 41
-30.0
 62
     5
 63
     7
 74
     2
 91
        2
 64
     7
 65
     7
 75
     1
175
     1
 42
40.0
 92
       11
 66
     7
 43
1.0
 76
     1
 77
     6
 78
     2
 67
     7
 79
     6
170
     0
171
     0
290
     0
174
     0
 93
        1
 44
0.0
173
     0
291
     0
 45
0.0
1001
ACAD
1000
AcDbSavedByObjectVersion
1070
     0
  0
VISUALSTYLE
  5
655D
102
{ACAD_XDICTIONARY
360
6F37
102
}
102
{ACAD_REACTORS
330
6550
102
}
330
6550
100
AcDbVisualStyle
  2
Thicken
 70
    13
 71
     2
 72
     2
 73
     0
 90
        0
 40
-0.6
 41
-30.0
 62
     5
 63
     7
 74
     1
 91
        4
 64
     7
 65
   257
 75
     1
175
     1
 42
1.0
 92
       12
 66
     7
 43
1.0
 76
     1
 77
     6
 78
     2
 67
     7
 79
     5
170
     0
171
     0
290
     0
174
     0
 93
        1
 44
0.0
173
     0
291
     1
 45
0.0
1001
ACAD
1000
AcDbSavedByObjectVersion
1070
     0
  0
VISUALSTYLE
  5
6557
102
{ACAD_XDICTIONARY
360
6F2B
102
}
102
{ACAD_REACTORS
330
6550
102
}
330
6550
100
AcDbVisualStyle
  2
Wireframe
 70
     5
 71
     0
 72
     2
 73
     0
 90
        0
 40
-0.6
 41
-30.0
 62
     5
 63
     7
 74
     1
 91
        4
 64
     7
 65
   257
 75
     1
175
     1
 42
1.0
 92
        0
 66
   257
 43
1.0
 76
     1
 77
     6
 78
     2
 67
     7
 79
     3
170
     0
171
     0
290
     0
174
     0
 93
        1
 44
0.0
173
     0
291
     0
 45
0.0
1001
ACAD
1000
AcDbSavedByObjectVersion
1070
     0
  0
VISUALSTYLE
  5
6563
102
{ACAD_XDICTIONARY
360
6F43
102
}
102
{ACAD_REACTORS
330
6550
102
}
330
6550
100
AcDbVisualStyle
  2
X-Ray
 70
    25
 71
     2
 72
     2
 73
     1
 90
        1
 40
0.5
 41
-30.0
 62
     5
 63
     7
 74
     1
 91
        0
 64
     7
 65
   257
 75
     1
175
     1
 42
1.0
 92
        8
 66
     7
 43
1.0
 76
     1
 77
     6
 78
     2
 67
     7
 79
     3
170
     0
171
     0
290
     0
174
     0
 93
       13
 44
0.0
173
     0
291
     0
 45
0.0
1001
ACAD
1000
AcDbSavedByObjectVersion
1070
     0
  0
DICTIONARYVAR
  5
65FB
102
{ACAD_REACTORS
330
3E
102
}
330
3E
100
DictionaryVariables
280
     0
  1
1:1
  0
DICTIONARYVAR
  5
65FA
102
{ACAD_REACTORS
330
3E
102
}
330
3E
100
DictionaryVariables
280
     0
  1
STANDARD
  0
DICTIONARYVAR
  5
65F9
102
{ACAD_REACTORS
330
3E
102
}
330
3E
100
DictionaryVariables
280
     0
  1
STANDARD
  0
DICTIONARYVAR
  5
3F
102
{ACAD_REACTORS
330
3E
102
}
330
3E
100
DictionaryVariables
280
     0
  1
0
  0
DICTIONARYVAR
  5
65FE
102
{ACAD_REACTORS
330
3E
102
}
330
3E
100
DictionaryVariables
280
     0
  1
1
  0
DICTIONARYVAR
  5
65FD
102
{ACAD_REACTORS
330
3E
102
}
330
3E
100
DictionaryVariables
280
     0
  1
0
  0
DICTIONARYVAR
  5
6EF8
102
{ACAD_REACTORS
330
3E
102
}
330
3E
100
DictionaryVariables
280
     0
  1
1
  0
DICTIONARYVAR
  5
6EF9
102
{ACAD_REACTORS
330
3E
102
}
330
3E
100
DictionaryVariables
280
     0
  1
15
  0
DICTIONARYVAR
  5
6EF7
102
{ACAD_REACTORS
330
3E
102
}
330
3E
100
DictionaryVariables
280
     0
  1
0
  0
DICTIONARYVAR
  5
6EF6
102
{ACAD_REACTORS
330
3E
102
}
330
3E
100
DictionaryVariables
280
     0
  1
0
  0
DICTIONARYVAR
  5
65FC
102
{ACAD_REACTORS
330
3E
102
}
330
3E
100
DictionaryVariables
280
     0
  1
127
  0
DICTIONARYVAR
  5
6F12
102
{ACAD_REACTORS
330
3E
102
}
330
3E
100
DictionaryVariables
280
     0
  1
2
  0
DICTIONARY
  5
6F1A
330
485F
100
AcDbDictionary
280
     1
281
     1
  3
ACAD_XREC_ROUNDTRIP
360
6F1B
  0
DICTIONARY
  5
6F18
330
485E
100
AcDbDictionary
280
     1
281
     1
  3
ACAD_XREC_ROUNDTRIP
360
6F19
  0
DICTIONARY
  5
6541
330
6540
100
AcDbDictionary
280
     1
281
     1
  3
ACAD_XREC_ROUNDTRIP
360
6F1D
  3
BUMPTILE
360
6543
  3
DIFFUSETILE
360
6542
  3
OPACITYTILE
360
6546
  3
REFLECTIONTILE
360
6545
  3
REFRACTIONTILE
360
6547
  3
SPECULARTILE
360
6544
  0
DICTIONARY
  5
6539
330
6538
100
AcDbDictionary
280
     1
281
     1
  3
ACAD_XREC_ROUNDTRIP
360
6F1C
  3
BUMPTILE
360
653B
  3
DIFFUSETILE
360
653A
  3
OPACITYTILE
360
653E
  3
REFLECTIONTILE
360
653D
  3
REFRACTIONTILE
360
653F
  3
SPECULARTILE
360
653C
  0
DICTIONARY
  5
6549
330
6548
100
AcDbDictionary
280
     1
281
     1
  3
ACAD_XREC_ROUNDTRIP
360
6F1E
  3
BUMPTILE
360
654B
  3
DIFFUSETILE
360
654A
  3
OPACITYTILE
360
654E
  3
REFLECTIONTILE
360
654D
  3
REFRACTIONTILE
360
654F
  3
SPECULARTILE
360
654C
  0
DICTIONARY
  5
65BA
330
656B
100
AcDbDictionary
280
     1
281
     1
  3
ACAD_ROUNDTRIP_2008_TABLESTYLE_CELLSTYLEMAP
360
6F13
  3
ACAD_XREC_ROUNDTRIP
360
6F4F
  0
DICTIONARY
  5
6F29
330
6556
100
AcDbDictionary
280
     1
281
     1
  3
ACAD_XREC_ROUNDTRIP
360
6F2A
  0
DICTIONARY
  5
6F50
330
6E5A
100
AcDbDictionary
280
     1
281
     1
  3
ACAD_XREC_ROUNDTRIP
360
6F51
  0
DICTIONARY
  5
6F52
330
6E5B
100
AcDbDictionary
280
     1
281
     1
  3
ACAD_XREC_ROUNDTRIP
360
6F53
  0
DICTIONARY
  5
6F27
330
6555
100
AcDbDictionary
280
     1
281
     1
  3
ACAD_XREC_ROUNDTRIP
360
6F28
  0
DICTIONARY
  5
6F35
330
655C
100
AcDbDictionary
280
     1
281
     1
  3
ACAD_XREC_ROUNDTRIP
360
6F36
  0
DICTIONARY
  5
6F3D
330
6560
100
AcDbDictionary
280
     1
281
     1
  3
ACAD_XREC_ROUNDTRIP
360
6F3E
  0
DICTIONARY
  5
6F2F
330
6559
100
AcDbDictionary
280
     1
281
     1
  3
ACAD_XREC_ROUNDTRIP
360
6F30
  0
DICTIONARY
  5
6F33
330
655B
100
AcDbDictionary
280
     1
281
     1
  3
ACAD_XREC_ROUNDTRIP
360
6F34
  0
DICTIONARY
  5
6F4D
330
6568
100
AcDbDictionary
280
     1
281
     1
  3
ACAD_XREC_ROUNDTRIP
360
6F4E
  0
DICTIONARY
  5
6F3B
330
655F
100
AcDbDictionary
280
     1
281
     1
  3
ACAD_XREC_ROUNDTRIP
360
6F3C
  0
DICTIONARY
  5
6F1F
330
6551
100
AcDbDictionary
280
     1
281
     1
  3
ACAD_XREC_ROUNDTRIP
360
6F20
  0
DICTIONARY
  5
6F21
330
6552
100
AcDbDictionary
280
     1
281
     1
  3
ACAD_XREC_ROUNDTRIP
360
6F22
  0
DICTIONARY
  5
6F23
330
6553
100
AcDbDictionary
280
     1
281
     1
  3
ACAD_XREC_ROUNDTRIP
360
6F24
  0
DICTIONARY
  5
6F25
330
6554
100
AcDbDictionary
280
     1
281
     1
  3
ACAD_XREC_ROUNDTRIP
360
6F26
  0
DICTIONARY
  5
6F2D
330
6558
100
AcDbDictionary
280
     1
281
     1
  3
ACAD_XREC_ROUNDTRIP
360
6F2E
  0
DICTIONARY
  5
6F49
330
6566
100
AcDbDictionary
280
     1
281
     1
  3
ACAD_XREC_ROUNDTRIP
360
6F4A
  0
DICTIONARY
  5
6F39
330
655E
100
AcDbDictionary
280
     1
281
     1
  3
ACAD_XREC_ROUNDTRIP
360
6F3A
  0
DICTIONARY
  5
6F4B
330
6567
100
AcDbDictionary
280
     1
281
     1
  3
ACAD_XREC_ROUNDTRIP
360
6F4C
  0
DICTIONARY
  5
6F31
330
655A
100
AcDbDictionary
280
     1
281
     1
  3
ACAD_XREC_ROUNDTRIP
360
6F32
  0
DICTIONARY
  5
6F47
330
6565
100
AcDbDictionary
280
     1
281
     1
  3
ACAD_XREC_ROUNDTRIP
360
6F48
  0
DICTIONARY
  5
6F45
330
6564
100
AcDbDictionary
280
     1
281
     1
  3
ACAD_XREC_ROUNDTRIP
360
6F46
  0
DICTIONARY
  5
6F3F
330
6561
100
AcDbDictionary
280
     1
281
     1
  3
ACAD_XREC_ROUNDTRIP
360
6F40
  0
DICTIONARY
  5
6F41
330
6562
100
AcDbDictionary
280
     1
281
     1
  3
ACAD_XREC_ROUNDTRIP
360
6F42
  0
DICTIONARY
  5
6F37
330
655D
100
AcDbDictionary
280
     1
281
     1
  3
ACAD_XREC_ROUNDTRIP
360
6F38
  0
DICTIONARY
  5
6F2B
330
6557
100
AcDbDictionary
280
     1
281
     1
  3
ACAD_XREC_ROUNDTRIP
360
6F2C
  0
DICTIONARY
  5
6F43
330
6563
100
AcDbDictionary
280
     1
281
     1
  3
ACAD_XREC_ROUNDTRIP
360
6F44
  0
XRECORD
  5
6F1B
102
{ACAD_REACTORS
330
6F1A
102
}
330
6F1A
100
AcDbXrecord
280
     1
102
SHADEPLOT
 70
     0
102
SHADEPLOTRESLEVEL
 70
     2
102
SHADEPLOTCUSTOMDPI
 70
   300
  0
XRECORD
  5
6F19
102
{ACAD_REACTORS
330
6F18
102
}
330
6F18
100
AcDbXrecord
280
     1
102
SHADEPLOT
 70
     0
102
SHADEPLOTRESLEVEL
 70
     2
102
SHADEPLOTCUSTOMDPI
 70
   300
  0
XRECORD
  5
6F1D
102
{ACAD_REACTORS
330
6541
102
}
330
6541
100
AcDbXrecord
280
     1
102
MATERIAL
148
0.0
149
0.0
149
0.0
 93
        0
 94
      127
282
     0
 72
     0
 77
     0
171
     0
175
     0
179
     0
273
     0
  0
XRECORD
  5
6543
102
{ACAD_REACTORS
330
6541
102
}
330
6541
100
AcDbXrecord
280
     1
270
     1
271
     1
  0
XRECORD
  5
6542
102
{ACAD_REACTORS
330
6541
102
}
330
6541
100
AcDbXrecord
280
     1
270
     1
271
     1
  0
XRECORD
  5
6546
102
{ACAD_REACTORS
330
6541
102
}
330
6541
100
AcDbXrecord
280
     1
270
     1
271
     1
  0
XRECORD
  5
6545
102
{ACAD_REACTORS
330
6541
102
}
330
6541
100
AcDbXrecord
280
     1
270
     1
271
     1
  0
XRECORD
  5
6547
102
{ACAD_REACTORS
330
6541
102
}
330
6541
100
AcDbXrecord
280
     1
270
     1
271
     1
  0
XRECORD
  5
6544
102
{ACAD_REACTORS
330
6541
102
}
330
6541
100
AcDbXrecord
280
     1
270
     1
271
     1
  0
XRECORD
  5
6F1C
102
{ACAD_REACTORS
330
6539
102
}
330
6539
100
AcDbXrecord
280
     1
102
MATERIAL
148
0.0
149
0.0
149
0.0
 93
        0
 94
      127
282
     0
 72
     0
 77
     0
171
     0
175
     0
179
     0
273
     0
  0
XRECORD
  5
653B
102
{ACAD_REACTORS
330
6539
102
}
330
6539
100
AcDbXrecord
280
     1
270
     1
271
     1
  0
XRECORD
  5
653A
102
{ACAD_REACTORS
330
6539
102
}
330
6539
100
AcDbXrecord
280
     1
270
     1
271
     1
  0
XRECORD
  5
653E
102
{ACAD_REACTORS
330
6539
102
}
330
6539
100
AcDbXrecord
280
     1
270
     1
271
     1
  0
XRECORD
  5
653D
102
{ACAD_REACTORS
330
6539
102
}
330
6539
100
AcDbXrecord
280
     1
270
     1
271
     1
  0
XRECORD
  5
653F
102
{ACAD_REACTORS
330
6539
102
}
330
6539
100
AcDbXrecord
280
     1
270
     1
271
     1
  0
XRECORD
  5
653C
102
{ACAD_REACTORS
330
6539
102
}
330
6539
100
AcDbXrecord
280
     1
270
     1
271
     1
  0
XRECORD
  5
6F1E
102
{ACAD_REACTORS
330
6549
102
}
330
6549
100
AcDbXrecord
280
     1
102
MATERIAL
148
0.0
149
0.0
149
0.0
 93
        0
 94
      127
282
     0
 72
     0
 77
     0
171
     0
175
     0
179
     0
273
     0
  0
XRECORD
  5
654B
102
{ACAD_REACTORS
330
6549
102
}
330
6549
100
AcDbXrecord
280
     1
270
     1
271
     1
  0
XRECORD
  5
654A
102
{ACAD_REACTORS
330
6549
102
}
330
6549
100
AcDbXrecord
280
     1
270
     1
271
     1
  0
XRECORD
  5
654E
102
{ACAD_REACTORS
330
6549
102
}
330
6549
100
AcDbXrecord
280
     1
270
     1
271
     1
  0
XRECORD
  5
654D
102
{ACAD_REACTORS
330
6549
102
}
330
6549
100
AcDbXrecord
280
     1
270
     1
271
     1
  0
XRECORD
  5
654F
102
{ACAD_REACTORS
330
6549
102
}
330
6549
100
AcDbXrecord
280
     1
270
     1
271
     1
  0
XRECORD
  5
654C
102
{ACAD_REACTORS
330
6549
102
}
330
6549
100
AcDbXrecord
280
     1
270
     1
271
     1
  0
CELLSTYLEMAP
  5
6F13
102
{ACAD_REACTORS
330
65BA
102
}
330
65BA
100
AcDbCellStyleMap
 90
        3
300
CELLSTYLE
  1
TABLEFORMAT_BEGIN
 90
        5
170
     1
 91
        0
 92
    32768
 62
   257
 93
        1
300
CONTENTFORMAT
  1
CONTENTFORMAT_BEGIN
 90
        0
 91
        0
 92
      512
 93
        0
300

 40
0.0
140
1.0
 94
        5
 62
     0
340
F
144
0.25
309
CONTENTFORMAT_END
171
     0
 94
        0
309
TABLEFORMAT_END
  1
CELLSTYLE_BEGIN
 90
        1
 91
        1
300
_TITLE
309
CELLSTYLE_END
300
CELLSTYLE
  1
TABLEFORMAT_BEGIN
 90
        5
170
     1
 91
        0
 92
        0
 62
   257
 93
        1
300
CONTENTFORMAT
  1
CONTENTFORMAT_BEGIN
 90
        0
 91
        0
 92
      512
 93
        0
300

 40
0.0
140
1.0
 94
        5
 62
     0
340
F
144
0.18
309
CONTENTFORMAT_END
171
     0
 94
        0
309
TABLEFORMAT_END
  1
CELLSTYLE_BEGIN
 90
        2
 91
        1
300
_HEADER
309
CELLSTYLE_END
300
CELLSTYLE
  1
TABLEFORMAT_BEGIN
 90
        5
170
     1
 91
        0
 92
        0
 62
   257
 93
        1
300
CONTENTFORMAT
  1
CONTENTFORMAT_BEGIN
 90
        0
 91
        0
 92
      512
 93
        0
300

 40
0.0
140
1.0
 94
        2
 62
     0
340
F
144
0.18
309
CONTENTFORMAT_END
171
     0
 94
        0
309
TABLEFORMAT_END
  1
CELLSTYLE_BEGIN
 90
        3
 91
        2
300
_DATA
309
CELLSTYLE_END
  0
XRECORD
  5
6F4F
102
{ACAD_REACTORS
330
65BA
102
}
330
65BA
100
AcDbXrecord
280
     1
102
ACAD_ROUNDTRIP_PRE2007_TABLESTYLE
 90
      512
 91
        0
  1

 92
      512
 93
        0
  2

 94
      512
 95
        0
  3

  0
XRECORD
  5
6F2A
102
{ACAD_REACTORS
330
6F29
102
}
330
6F29
100
AcDbXrecord
280
     1
102
RTVSPropertyOp0
 70
     1
102
RTVSPropertyOp1
 70
     1
102
RTVSPropertyOp2
 70
     1
102
RTVSPropertyOp3
 70
     1
102
RTVSPropertyOp4
 70
     1
102
RTVSPropertyOp5
 70
     1
102
RTVSPropertyOp6
 70
     1
102
RTVSPropertyOp7
 70
     1
102
RTVSPropertyOp8
 70
     1
102
RTVSPropertyOp9
 70
     1
102
RTVSPropertyOp10
 70
     1
102
RTVSPropertyOp11
 70
     1
102
RTVSPropertyOp12
 70
     1
102
RTVSPropertyOp13
 70
     1
102
RTVSPropertyOp14
 70
     1
102
RTVSPropertyOp15
 70
     1
102
RTVSPropertyOp16
 70
     1
102
RTVSPropertyOp17
 70
     1
102
RTVSPropertyOp18
 70
     1
102
RTVSPropertyOp19
 70
     1
102
RTVSPropertyOp20
 70
     1
102
RTVSPropertyOp21
 70
     1
102
RTVSPropertyOp22
 70
     1
102
RTVSPropertyOp23
 70
     1
102
RTVSPropertyOp24
 70
     1
102
RTVSPropertyOp25
 70
     1
102
RTVSPropertyOp26
 70
     1
102
RTVSPropertyOp27
 70
     1
102
RTVSPropertyOp28
 70
     1
102
RTVSPropertyOp29
 70
     1
102
RTVSPropertyOp30
 70
     1
102
RTVSPropertyOp31
 70
     1
102
RTVSPropertyOp32
 70
     1
  0
XRECORD
  5
6F51
102
{ACAD_REACTORS
330
6F50
102
}
330
6F50
100
AcDbXrecord
280
     1
102
RTVSPropertyOp0
 70
     1
102
RTVSPropertyOp1
 70
     1
102
RTVSPropertyOp2
 70
     1
102
RTVSPropertyOp3
 70
     1
102
RTVSPropertyOp4
 70
     1
102
RTVSPropertyOp5
 70
     1
102
RTVSPropertyOp6
 70
     1
102
RTVSPropertyOp7
 70
     1
102
RTVSPropertyOp8
 70
     1
102
RTVSPropertyOp9
 70
     1
102
RTVSPropertyOp10
 70
     1
102
RTVSPropertyOp11
 70
     1
102
RTVSPropertyOp12
 70
     1
102
RTVSPropertyOp13
 70
     1
102
RTVSPropertyOp14
 70
     1
102
RTVSPropertyOp15
 70
     1
102
RTVSPropertyOp16
 70
     1
102
RTVSPropertyOp17
 70
     1
102
RTVSPropertyOp18
 70
     1
102
RTVSPropertyOp19
 70
     1
102
RTVSPropertyOp20
 70
     1
102
RTVSPropertyOp21
 70
     1
102
RTVSPropertyOp22
 70
     1
102
RTVSPropertyOp23
 70
     1
102
RTVSPropertyOp24
 70
     1
102
RTVSPropertyOp25
 70
     1
102
RTVSPropertyOp26
 70
     1
102
RTVSPropertyOp27
 70
     1
102
RTVSPropertyOp28
 70
     1
102
RTVSPropertyOp29
 70
     1
102
RTVSPropertyOp30
 70
     1
102
RTVSPropertyOp31
 70
     1
102
RTVSPropertyOp32
 70
     1
  0
XRECORD
  5
6F53
102
{ACAD_REACTORS
330
6F52
102
}
330
6F52
100
AcDbXrecord
280
     1
102
RTVSPropertyOp0
 70
     1
102
RTVSPropertyOp1
 70
     1
102
RTVSPropertyOp2
 70
     1
102
RTVSPropertyOp3
 70
     1
102
RTVSPropertyOp4
 70
     1
102
RTVSPropertyOp5
 70
     1
102
RTVSPropertyOp6
 70
     1
102
RTVSPropertyOp7
 70
     1
102
RTVSPropertyOp8
 70
     1
102
RTVSPropertyOp9
 70
     1
102
RTVSPropertyOp10
 70
     1
102
RTVSPropertyOp11
 70
     1
102
RTVSPropertyOp12
 70
     1
102
RTVSPropertyOp13
 70
     1
102
RTVSPropertyOp14
 70
     1
102
RTVSPropertyOp15
 70
     1
102
RTVSPropertyOp16
 70
     1
102
RTVSPropertyOp17
 70
     1
102
RTVSPropertyOp18
 70
     1
102
RTVSPropertyOp19
 70
     1
102
RTVSPropertyOp20
 70
     1
102
RTVSPropertyOp21
 70
     1
102
RTVSPropertyOp22
 70
     1
102
RTVSPropertyOp23
 70
     1
102
RTVSPropertyOp24
 70
     1
102
RTVSPropertyOp25
 70
     1
102
RTVSPropertyOp26
 70
     1
102
RTVSPropertyOp27
 70
     1
102
RTVSPropertyOp28
 70
     1
102
RTVSPropertyOp29
 70
     1
102
RTVSPropertyOp30
 70
     1
102
RTVSPropertyOp31
 70
     1
102
RTVSPropertyOp32
 70
     1
  0
XRECORD
  5
6F28
102
{ACAD_REACTORS
330
6F27
102
}
330
6F27
100
AcDbXrecord
280
     1
102
RTVSPropertyOp0
 70
     1
102
RTVSPropertyOp1
 70
     1
102
RTVSPropertyOp2
 70
     1
102
RTVSPropertyOp3
 70
     1
102
RTVSPropertyOp4
 70
     1
102
RTVSPropertyOp5
 70
     1
102
RTVSPropertyOp6
 70
     1
102
RTVSPropertyOp7
 70
     1
102
RTVSPropertyOp8
 70
     1
102
RTVSPropertyOp9
 70
     1
102
RTVSPropertyOp10
 70
     1
102
RTVSPropertyOp11
 70
     1
102
RTVSPropertyOp12
 70
     1
102
RTVSPropertyOp13
 70
     1
102
RTVSPropertyOp14
 70
     1
102
RTVSPropertyOp15
 70
     1
102
RTVSPropertyOp16
 70
     1
102
RTVSPropertyOp17
 70
     1
102
RTVSPropertyOp18
 70
     1
102
RTVSPropertyOp19
 70
     1
102
RTVSPropertyOp20
 70
     1
102
RTVSPropertyOp21
 70
     1
102
RTVSPropertyOp22
 70
     1
102
RTVSPropertyOp23
 70
     1
102
RTVSPropertyOp24
 70
     1
102
RTVSPropertyOp25
 70
     1
102
RTVSPropertyOp26
 70
     1
102
RTVSPropertyOp27
 70
     1
102
RTVSPropertyOp28
 70
     1
102
RTVSPropertyOp29
 70
     1
102
RTVSPropertyOp30
 70
     1
102
RTVSPropertyOp31
 70
     1
102
RTVSPropertyOp32
 70
     1
  0
XRECORD
  5
6F36
102
{ACAD_REACTORS
330
6F35
102
}
330
6F35
100
AcDbXrecord
280
     1
102
RTVSPropertyOp0
 70
     1
102
RTVSPropertyOp1
 70
     1
102
RTVSPropertyOp2
 70
     1
102
RTVSPropertyOp3
 70
     1
102
RTVSPropertyOp4
 70
     1
102
RTVSPropertyOp5
 70
     1
102
RTVSPropertyOp6
 70
     1
102
RTVSPropertyOp7
 70
     1
102
RTVSPropertyOp8
 70
     1
102
RTVSPropertyOp9
 70
     1
102
RTVSPropertyOp10
 70
     1
102
RTVSPropertyOp11
 70
     1
102
RTVSPropertyOp12
 70
     1
102
RTVSPropertyOp13
 70
     1
102
RTVSPropertyOp14
 70
     1
102
RTVSPropertyOp15
 70
     1
102
RTVSPropertyOp16
 70
     1
102
RTVSPropertyOp17
 70
     1
102
RTVSPropertyOp18
 70
     1
102
RTVSPropertyOp19
 70
     1
102
RTVSPropertyOp20
 70
     1
102
RTVSPropertyOp21
 70
     1
102
RTVSPropertyOp22
 70
     1
102
RTVSPropertyOp23
 70
     1
102
RTVSPropertyOp24
 70
     1
102
RTVSPropertyOp25
 70
     1
102
RTVSPropertyOp26
 70
     1
102
RTVSPropertyOp27
 70
     1
102
RTVSPropertyOp28
 70
     1
102
RTVSPropertyOp29
 70
     1
102
RTVSPropertyOp30
 70
     1
102
RTVSPropertyOp31
 70
     1
102
RTVSPropertyOp32
 70
     1
  0
XRECORD
  5
6F3E
102
{ACAD_REACTORS
330
6F3D
102
}
330
6F3D
100
AcDbXrecord
280
     1
102
RTVSPropertyOp0
 70
     1
102
RTVSPropertyOp1
 70
     1
102
RTVSPropertyOp2
 70
     1
102
RTVSPropertyOp3
 70
     1
102
RTVSPropertyOp4
 70
     1
102
RTVSPropertyOp5
 70
     1
102
RTVSPropertyOp6
 70
     1
102
RTVSPropertyOp7
 70
     1
102
RTVSPropertyOp8
 70
     1
102
RTVSPropertyOp9
 70
     1
102
RTVSPropertyOp10
 70
     1
102
RTVSPropertyOp11
 70
     1
102
RTVSPropertyOp12
 70
     1
102
RTVSPropertyOp13
 70
     1
102
RTVSPropertyOp14
 70
     1
102
RTVSPropertyOp15
 70
     1
102
RTVSPropertyOp16
 70
     1
102
RTVSPropertyOp17
 70
     1
102
RTVSPropertyOp18
 70
     1
102
RTVSPropertyOp19
 70
     1
102
RTVSPropertyOp20
 70
     1
102
RTVSPropertyOp21
 70
     1
102
RTVSPropertyOp22
 70
     1
102
RTVSPropertyOp23
 70
     1
102
RTVSPropertyOp24
 70
     1
102
RTVSPropertyOp25
 70
     1
102
RTVSPropertyOp26
 70
     1
102
RTVSPropertyOp27
 70
     1
102
RTVSPropertyOp28
 70
     1
102
RTVSPropertyOp29
 70
     1
102
RTVSPropertyOp30
 70
     1
102
RTVSPropertyOp31
 70
     1
102
RTVSPropertyOp32
 70
     1
  0
XRECORD
  5
6F30
102
{ACAD_REACTORS
330
6F2F
102
}
330
6F2F
100
AcDbXrecord
280
     1
102
RTVSPropertyOp0
 70
     1
102
RTVSPropertyOp1
 70
     1
102
RTVSPropertyOp2
 70
     1
102
RTVSPropertyOp3
 70
     1
102
RTVSPropertyOp4
 70
     1
102
RTVSPropertyOp5
 70
     1
102
RTVSPropertyOp6
 70
     1
102
RTVSPropertyOp7
 70
     1
102
RTVSPropertyOp8
 70
     1
102
RTVSPropertyOp9
 70
     1
102
RTVSPropertyOp10
 70
     1
102
RTVSPropertyOp11
 70
     1
102
RTVSPropertyOp12
 70
     1
102
RTVSPropertyOp13
 70
     1
102
RTVSPropertyOp14
 70
     1
102
RTVSPropertyOp15
 70
     1
102
RTVSPropertyOp16
 70
     1
102
RTVSPropertyOp17
 70
     1
102
RTVSPropertyOp18
 70
     1
102
RTVSPropertyOp19
 70
     1
102
RTVSPropertyOp20
 70
     1
102
RTVSPropertyOp21
 70
     1
102
RTVSPropertyOp22
 70
     1
102
RTVSPropertyOp23
 70
     1
102
RTVSPropertyOp24
 70
     1
102
RTVSPropertyOp25
 70
     1
102
RTVSPropertyOp26
 70
     1
102
RTVSPropertyOp27
 70
     1
102
RTVSPropertyOp28
 70
     1
102
RTVSPropertyOp29
 70
     1
102
RTVSPropertyOp30
 70
     1
102
RTVSPropertyOp31
 70
     1
102
RTVSPropertyOp32
 70
     1
  0
XRECORD
  5
6F34
102
{ACAD_REACTORS
330
6F33
102
}
330
6F33
100
AcDbXrecord
280
     1
102
RTVSPropertyOp0
 70
     1
102
RTVSPropertyOp1
 70
     1
102
RTVSPropertyOp2
 70
     1
102
RTVSPropertyOp3
 70
     1
102
RTVSPropertyOp4
 70
     1
102
RTVSPropertyOp5
 70
     1
102
RTVSPropertyOp6
 70
     1
102
RTVSPropertyOp7
 70
     1
102
RTVSPropertyOp8
 70
     1
102
RTVSPropertyOp9
 70
     1
102
RTVSPropertyOp10
 70
     1
102
RTVSPropertyOp11
 70
     1
102
RTVSPropertyOp12
 70
     1
102
RTVSPropertyOp13
 70
     1
102
RTVSPropertyOp14
 70
     1
102
RTVSPropertyOp15
 70
     1
102
RTVSPropertyOp16
 70
     1
102
RTVSPropertyOp17
 70
     1
102
RTVSPropertyOp18
 70
     1
102
RTVSPropertyOp19
 70
     1
102
RTVSPropertyOp20
 70
     1
102
RTVSPropertyOp21
 70
     1
102
RTVSPropertyOp22
 70
     1
102
RTVSPropertyOp23
 70
     1
102
RTVSPropertyOp24
 70
     1
102
RTVSPropertyOp25
 70
     1
102
RTVSPropertyOp26
 70
     1
102
RTVSPropertyOp27
 70
     1
102
RTVSPropertyOp28
 70
     1
102
RTVSPropertyOp29
 70
     1
102
RTVSPropertyOp30
 70
     1
102
RTVSPropertyOp31
 70
     1
102
RTVSPropertyOp32
 70
     1
  0
XRECORD
  5
6F4E
102
{ACAD_REACTORS
330
6F4D
102
}
330
6F4D
100
AcDbXrecord
280
     1
102
RTVSPropertyOp0
 70
     0
102
RTVSPropertyOp1
 70
     0
102
RTVSPropertyOp2
 70
     0
102
RTVSPropertyOp3
 70
     0
102
RTVSPropertyOp4
 70
     0
102
RTVSPropertyOp5
 70
     0
102
RTVSPropertyOp6
 70
     0
102
RTVSPropertyOp7
 70
     0
102
RTVSPropertyOp8
 70
     0
102
RTVSPropertyOp9
 70
     0
102
RTVSPropertyOp10
 70
     0
102
RTVSPropertyOp11
 70
     0
102
RTVSPropertyOp12
 70
     0
102
RTVSPropertyOp13
 70
     0
102
RTVSPropertyOp14
 70
     2
102
RTVSPropertyOp15
 70
     0
102
RTVSPropertyOp16
 70
     0
102
RTVSPropertyOp17
 70
     0
102
RTVSPropertyOp18
 70
     0
102
RTVSPropertyOp19
 70
     0
102
RTVSPropertyOp20
 70
     0
102
RTVSPropertyOp21
 70
     0
102
RTVSPropertyOp22
 70
     0
102
RTVSPropertyOp23
 70
     0
102
RTVSPropertyOp24
 70
     0
102
RTVSPropertyOp25
 70
     0
102
RTVSPropertyOp26
 70
     0
102
RTVSPropertyOp27
 70
     0
102
RTVSPropertyOp28
 70
     1
102
RTVSPropertyOp29
 70
     1
102
RTVSPropertyOp30
 70
     1
102
RTVSPropertyOp31
 70
     1
102
RTVSPropertyOp32
 70
     1
  0
XRECORD
  5
6F3C
102
{ACAD_REACTORS
330
6F3B
102
}
330
6F3B
100
AcDbXrecord
280
     1
102
RTVSPropertyOp0
 70
     1
102
RTVSPropertyOp1
 70
     1
102
RTVSPropertyOp2
 70
     1
102
RTVSPropertyOp3
 70
     1
102
RTVSPropertyOp4
 70
     1
102
RTVSPropertyOp5
 70
     1
102
RTVSPropertyOp6
 70
     1
102
RTVSPropertyOp7
 70
     1
102
RTVSPropertyOp8
 70
     1
102
RTVSPropertyOp9
 70
     1
102
RTVSPropertyOp10
 70
     1
102
RTVSPropertyOp11
 70
     1
102
RTVSPropertyOp12
 70
     1
102
RTVSPropertyOp13
 70
     1
102
RTVSPropertyOp14
 70
     1
102
RTVSPropertyOp15
 70
     1
102
RTVSPropertyOp16
 70
     1
102
RTVSPropertyOp17
 70
     1
102
RTVSPropertyOp18
 70
     1
102
RTVSPropertyOp19
 70
     1
102
RTVSPropertyOp20
 70
     1
102
RTVSPropertyOp21
 70
     1
102
RTVSPropertyOp22
 70
     1
102
RTVSPropertyOp23
 70
     1
102
RTVSPropertyOp24
 70
     1
102
RTVSPropertyOp25
 70
     1
102
RTVSPropertyOp26
 70
     1
102
RTVSPropertyOp27
 70
     1
102
RTVSPropertyOp28
 70
     1
102
RTVSPropertyOp29
 70
     1
102
RTVSPropertyOp30
 70
     1
102
RTVSPropertyOp31
 70
     1
102
RTVSPropertyOp32
 70
     1
  0
XRECORD
  5
6F20
102
{ACAD_REACTORS
330
6F1F
102
}
330
6F1F
100
AcDbXrecord
280
     1
102
RTVSPropertyOp0
 70
     1
102
RTVSPropertyOp1
 70
     1
102
RTVSPropertyOp2
 70
     1
102
RTVSPropertyOp3
 70
     1
102
RTVSPropertyOp4
 70
     1
102
RTVSPropertyOp5
 70
     1
102
RTVSPropertyOp6
 70
     1
102
RTVSPropertyOp7
 70
     1
102
RTVSPropertyOp8
 70
     1
102
RTVSPropertyOp9
 70
     1
102
RTVSPropertyOp10
 70
     1
102
RTVSPropertyOp11
 70
     1
102
RTVSPropertyOp12
 70
     1
102
RTVSPropertyOp13
 70
     1
102
RTVSPropertyOp14
 70
     1
102
RTVSPropertyOp15
 70
     1
102
RTVSPropertyOp16
 70
     1
102
RTVSPropertyOp17
 70
     1
102
RTVSPropertyOp18
 70
     1
102
RTVSPropertyOp19
 70
     1
102
RTVSPropertyOp20
 70
     1
102
RTVSPropertyOp21
 70
     1
102
RTVSPropertyOp22
 70
     1
102
RTVSPropertyOp23
 70
     1
102
RTVSPropertyOp24
 70
     1
102
RTVSPropertyOp25
 70
     1
102
RTVSPropertyOp26
 70
     1
102
RTVSPropertyOp27
 70
     1
102
RTVSPropertyOp28
 70
     1
102
RTVSPropertyOp29
 70
     1
102
RTVSPropertyOp30
 70
     1
102
RTVSPropertyOp31
 70
     1
102
RTVSPropertyOp32
 70
     1
  0
XRECORD
  5
6F22
102
{ACAD_REACTORS
330
6F21
102
}
330
6F21
100
AcDbXrecord
280
     1
102
RTVSPropertyOp0
 70
     1
102
RTVSPropertyOp1
 70
     1
102
RTVSPropertyOp2
 70
     1
102
RTVSPropertyOp3
 70
     1
102
RTVSPropertyOp4
 70
     1
102
RTVSPropertyOp5
 70
     1
102
RTVSPropertyOp6
 70
     1
102
RTVSPropertyOp7
 70
     1
102
RTVSPropertyOp8
 70
     1
102
RTVSPropertyOp9
 70
     1
102
RTVSPropertyOp10
 70
     1
102
RTVSPropertyOp11
 70
     1
102
RTVSPropertyOp12
 70
     1
102
RTVSPropertyOp13
 70
     1
102
RTVSPropertyOp14
 70
     1
102
RTVSPropertyOp15
 70
     1
102
RTVSPropertyOp16
 70
     1
102
RTVSPropertyOp17
 70
     1
102
RTVSPropertyOp18
 70
     1
102
RTVSPropertyOp19
 70
     1
102
RTVSPropertyOp20
 70
     1
102
RTVSPropertyOp21
 70
     1
102
RTVSPropertyOp22
 70
     1
102
RTVSPropertyOp23
 70
     1
102
RTVSPropertyOp24
 70
     1
102
RTVSPropertyOp25
 70
     1
102
RTVSPropertyOp26
 70
     1
102
RTVSPropertyOp27
 70
     1
102
RTVSPropertyOp28
 70
     1
102
RTVSPropertyOp29
 70
     1
102
RTVSPropertyOp30
 70
     1
102
RTVSPropertyOp31
 70
     1
102
RTVSPropertyOp32
 70
     1
  0
XRECORD
  5
6F24
102
{ACAD_REACTORS
330
6F23
102
}
330
6F23
100
AcDbXrecord
280
     1
102
RTVSPropertyOp0
 70
     1
102
RTVSPropertyOp1
 70
     1
102
RTVSPropertyOp2
 70
     1
102
RTVSPropertyOp3
 70
     1
102
RTVSPropertyOp4
 70
     1
102
RTVSPropertyOp5
 70
     1
102
RTVSPropertyOp6
 70
     1
102
RTVSPropertyOp7
 70
     1
102
RTVSPropertyOp8
 70
     1
102
RTVSPropertyOp9
 70
     1
102
RTVSPropertyOp10
 70
     1
102
RTVSPropertyOp11
 70
     1
102
RTVSPropertyOp12
 70
     1
102
RTVSPropertyOp13
 70
     1
102
RTVSPropertyOp14
 70
     1
102
RTVSPropertyOp15
 70
     1
102
RTVSPropertyOp16
 70
     1
102
RTVSPropertyOp17
 70
     1
102
RTVSPropertyOp18
 70
     1
102
RTVSPropertyOp19
 70
     1
102
RTVSPropertyOp20
 70
     1
102
RTVSPropertyOp21
 70
     1
102
RTVSPropertyOp22
 70
     1
102
RTVSPropertyOp23
 70
     1
102
RTVSPropertyOp24
 70
     1
102
RTVSPropertyOp25
 70
     1
102
RTVSPropertyOp26
 70
     1
102
RTVSPropertyOp27
 70
     1
102
RTVSPropertyOp28
 70
     1
102
RTVSPropertyOp29
 70
     1
102
RTVSPropertyOp30
 70
     1
102
RTVSPropertyOp31
 70
     1
102
RTVSPropertyOp32
 70
     1
  0
XRECORD
  5
6F26
102
{ACAD_REACTORS
330
6F25
102
}
330
6F25
100
AcDbXrecord
280
     1
102
RTVSPropertyOp0
 70
     1
102
RTVSPropertyOp1
 70
     1
102
RTVSPropertyOp2
 70
     1
102
RTVSPropertyOp3
 70
     1
102
RTVSPropertyOp4
 70
     1
102
RTVSPropertyOp5
 70
     1
102
RTVSPropertyOp6
 70
     1
102
RTVSPropertyOp7
 70
     1
102
RTVSPropertyOp8
 70
     1
102
RTVSPropertyOp9
 70
     1
102
RTVSPropertyOp10
 70
     1
102
RTVSPropertyOp11
 70
     1
102
RTVSPropertyOp12
 70
     1
102
RTVSPropertyOp13
 70
     1
102
RTVSPropertyOp14
 70
     1
102
RTVSPropertyOp15
 70
     1
102
RTVSPropertyOp16
 70
     1
102
RTVSPropertyOp17
 70
     1
102
RTVSPropertyOp18
 70
     1
102
RTVSPropertyOp19
 70
     1
102
RTVSPropertyOp20
 70
     1
102
RTVSPropertyOp21
 70
     1
102
RTVSPropertyOp22
 70
     1
102
RTVSPropertyOp23
 70
     1
102
RTVSPropertyOp24
 70
     1
102
RTVSPropertyOp25
 70
     1
102
RTVSPropertyOp26
 70
     1
102
RTVSPropertyOp27
 70
     1
102
RTVSPropertyOp28
 70
     1
102
RTVSPropertyOp29
 70
     1
102
RTVSPropertyOp30
 70
     1
102
RTVSPropertyOp31
 70
     1
102
RTVSPropertyOp32
 70
     1
  0
XRECORD
  5
6F2E
102
{ACAD_REACTORS
330
6F2D
102
}
330
6F2D
100
AcDbXrecord
280
     1
102
RTVSPropertyOp0
 70
     1
102
RTVSPropertyOp1
 70
     1
102
RTVSPropertyOp2
 70
     1
102
RTVSPropertyOp3
 70
     1
102
RTVSPropertyOp4
 70
     1
102
RTVSPropertyOp5
 70
     1
102
RTVSPropertyOp6
 70
     1
102
RTVSPropertyOp7
 70
     1
102
RTVSPropertyOp8
 70
     1
102
RTVSPropertyOp9
 70
     1
102
RTVSPropertyOp10
 70
     1
102
RTVSPropertyOp11
 70
     1
102
RTVSPropertyOp12
 70
     1
102
RTVSPropertyOp13
 70
     1
102
RTVSPropertyOp14
 70
     1
102
RTVSPropertyOp15
 70
     1
102
RTVSPropertyOp16
 70
     1
102
RTVSPropertyOp17
 70
     1
102
RTVSPropertyOp18
 70
     1
102
RTVSPropertyOp19
 70
     1
102
RTVSPropertyOp20
 70
     1
102
RTVSPropertyOp21
 70
     1
102
RTVSPropertyOp22
 70
     1
102
RTVSPropertyOp23
 70
     1
102
RTVSPropertyOp24
 70
     1
102
RTVSPropertyOp25
 70
     1
102
RTVSPropertyOp26
 70
     1
102
RTVSPropertyOp27
 70
     1
102
RTVSPropertyOp28
 70
     1
102
RTVSPropertyOp29
 70
     1
102
RTVSPropertyOp30
 70
     1
102
RTVSPropertyOp31
 70
     1
102
RTVSPropertyOp32
 70
     1
  0
XRECORD
  5
6F4A
102
{ACAD_REACTORS
330
6F49
102
}
330
6F49
100
AcDbXrecord
280
     1
102
RTVSPropertyOp0
 70
     0
102
RTVSPropertyOp1
 70
     0
102
RTVSPropertyOp2
 70
     0
102
RTVSPropertyOp3
 70
     0
102
RTVSPropertyOp4
 70
     0
102
RTVSPropertyOp5
 70
     0
102
RTVSPropertyOp6
 70
     0
102
RTVSPropertyOp7
 70
     0
102
RTVSPropertyOp8
 70
     0
102
RTVSPropertyOp9
 70
     0
102
RTVSPropertyOp10
 70
     0
102
RTVSPropertyOp11
 70
     0
102
RTVSPropertyOp12
 70
     0
102
RTVSPropertyOp13
 70
     0
102
RTVSPropertyOp14
 70
     2
102
RTVSPropertyOp15
 70
     0
102
RTVSPropertyOp16
 70
     0
102
RTVSPropertyOp17
 70
     0
102
RTVSPropertyOp18
 70
     0
102
RTVSPropertyOp19
 70
     0
102
RTVSPropertyOp20
 70
     0
102
RTVSPropertyOp21
 70
     0
102
RTVSPropertyOp22
 70
     0
102
RTVSPropertyOp23
 70
     0
102
RTVSPropertyOp24
 70
     0
102
RTVSPropertyOp25
 70
     0
102
RTVSPropertyOp26
 70
     0
102
RTVSPropertyOp27
 70
     0
102
RTVSPropertyOp28
 70
     1
102
RTVSPropertyOp29
 70
     1
102
RTVSPropertyOp30
 70
     1
102
RTVSPropertyOp31
 70
     1
102
RTVSPropertyOp32
 70
     1
  0
XRECORD
  5
6F3A
102
{ACAD_REACTORS
330
6F39
102
}
330
6F39
100
AcDbXrecord
280
     1
102
RTVSPropertyOp0
 70
     1
102
RTVSPropertyOp1
 70
     1
102
RTVSPropertyOp2
 70
     1
102
RTVSPropertyOp3
 70
     1
102
RTVSPropertyOp4
 70
     1
102
RTVSPropertyOp5
 70
     1
102
RTVSPropertyOp6
 70
     1
102
RTVSPropertyOp7
 70
     1
102
RTVSPropertyOp8
 70
     1
102
RTVSPropertyOp9
 70
     1
102
RTVSPropertyOp10
 70
     1
102
RTVSPropertyOp11
 70
     1
102
RTVSPropertyOp12
 70
     1
102
RTVSPropertyOp13
 70
     1
102
RTVSPropertyOp14
 70
     1
102
RTVSPropertyOp15
 70
     1
102
RTVSPropertyOp16
 70
     1
102
RTVSPropertyOp17
 70
     1
102
RTVSPropertyOp18
 70
     1
102
RTVSPropertyOp19
 70
     1
102
RTVSPropertyOp20
 70
     1
102
RTVSPropertyOp21
 70
     1
102
RTVSPropertyOp22
 70
     1
102
RTVSPropertyOp23
 70
     1
102
RTVSPropertyOp24
 70
     1
102
RTVSPropertyOp25
 70
     1
102
RTVSPropertyOp26
 70
     1
102
RTVSPropertyOp27
 70
     1
102
RTVSPropertyOp28
 70
     1
102
RTVSPropertyOp29
 70
     1
102
RTVSPropertyOp30
 70
     1
102
RTVSPropertyOp31
 70
     1
102
RTVSPropertyOp32
 70
     1
  0
XRECORD
  5
6F4C
102
{ACAD_REACTORS
330
6F4B
102
}
330
6F4B
100
AcDbXrecord
280
     1
102
RTVSPropertyOp0
 70
     0
102
RTVSPropertyOp1
 70
     0
102
RTVSPropertyOp2
 70
     0
102
RTVSPropertyOp3
 70
     0
102
RTVSPropertyOp4
 70
     0
102
RTVSPropertyOp5
 70
     0
102
RTVSPropertyOp6
 70
     0
102
RTVSPropertyOp7
 70
     0
102
RTVSPropertyOp8
 70
     0
102
RTVSPropertyOp9
 70
     0
102
RTVSPropertyOp10
 70
     0
102
RTVSPropertyOp11
 70
     0
102
RTVSPropertyOp12
 70
     0
102
RTVSPropertyOp13
 70
     0
102
RTVSPropertyOp14
 70
     2
102
RTVSPropertyOp15
 70
     0
102
RTVSPropertyOp16
 70
     0
102
RTVSPropertyOp17
 70
     0
102
RTVSPropertyOp18
 70
     0
102
RTVSPropertyOp19
 70
     0
102
RTVSPropertyOp20
 70
     0
102
RTVSPropertyOp21
 70
     0
102
RTVSPropertyOp22
 70
     0
102
RTVSPropertyOp23
 70
     0
102
RTVSPropertyOp24
 70
     0
102
RTVSPropertyOp25
 70
     0
102
RTVSPropertyOp26
 70
     0
102
RTVSPropertyOp27
 70
     0
102
RTVSPropertyOp28
 70
     1
102
RTVSPropertyOp29
 70
     1
102
RTVSPropertyOp30
 70
     1
102
RTVSPropertyOp31
 70
     1
102
RTVSPropertyOp32
 70
     1
  0
XRECORD
  5
6F32
102
{ACAD_REACTORS
330
6F31
102
}
330
6F31
100
AcDbXrecord
280
     1
102
RTVSPropertyOp0
 70
     1
102
RTVSPropertyOp1
 70
     1
102
RTVSPropertyOp2
 70
     1
102
RTVSPropertyOp3
 70
     1
102
RTVSPropertyOp4
 70
     1
102
RTVSPropertyOp5
 70
     1
102
RTVSPropertyOp6
 70
     1
102
RTVSPropertyOp7
 70
     1
102
RTVSPropertyOp8
 70
     1
102
RTVSPropertyOp9
 70
     1
102
RTVSPropertyOp10
 70
     1
102
RTVSPropertyOp11
 70
     1
102
RTVSPropertyOp12
 70
     1
102
RTVSPropertyOp13
 70
     1
102
RTVSPropertyOp14
 70
     1
102
RTVSPropertyOp15
 70
     1
102
RTVSPropertyOp16
 70
     1
102
RTVSPropertyOp17
 70
     1
102
RTVSPropertyOp18
 70
     1
102
RTVSPropertyOp19
 70
     1
102
RTVSPropertyOp20
 70
     1
102
RTVSPropertyOp21
 70
     1
102
RTVSPropertyOp22
 70
     1
102
RTVSPropertyOp23
 70
     1
102
RTVSPropertyOp24
 70
     1
102
RTVSPropertyOp25
 70
     1
102
RTVSPropertyOp26
 70
     1
102
RTVSPropertyOp27
 70
     1
102
RTVSPropertyOp28
 70
     1
102
RTVSPropertyOp29
 70
     1
102
RTVSPropertyOp30
 70
     1
102
RTVSPropertyOp31
 70
     1
102
RTVSPropertyOp32
 70
     1
  0
XRECORD
  5
6F48
102
{ACAD_REACTORS
330
6F47
102
}
330
6F47
100
AcDbXrecord
280
     1
102
RTVSPropertyOp0
 70
     1
102
RTVSPropertyOp1
 70
     1
102
RTVSPropertyOp2
 70
     1
102
RTVSPropertyOp3
 70
     1
102
RTVSPropertyOp4
 70
     1
102
RTVSPropertyOp5
 70
     1
102
RTVSPropertyOp6
 70
     1
102
RTVSPropertyOp7
 70
     1
102
RTVSPropertyOp8
 70
     1
102
RTVSPropertyOp9
 70
     1
102
RTVSPropertyOp10
 70
     1
102
RTVSPropertyOp11
 70
     1
102
RTVSPropertyOp12
 70
     1
102
RTVSPropertyOp13
 70
     1
102
RTVSPropertyOp14
 70
     1
102
RTVSPropertyOp15
 70
     1
102
RTVSPropertyOp16
 70
     1
102
RTVSPropertyOp17
 70
     1
102
RTVSPropertyOp18
 70
     1
102
RTVSPropertyOp19
 70
     1
102
RTVSPropertyOp20
 70
     1
102
RTVSPropertyOp21
 70
     1
102
RTVSPropertyOp22
 70
     1
102
RTVSPropertyOp23
 70
     1
102
RTVSPropertyOp24
 70
     1
102
RTVSPropertyOp25
 70
     1
102
RTVSPropertyOp26
 70
     1
102
RTVSPropertyOp27
 70
     1
102
RTVSPropertyOp28
 70
     1
102
RTVSPropertyOp29
 70
     1
102
RTVSPropertyOp30
 70
     1
102
RTVSPropertyOp31
 70
     1
102
RTVSPropertyOp32
 70
     1
  0
XRECORD
  5
6F46
102
{ACAD_REACTORS
330
6F45
102
}
330
6F45
100
AcDbXrecord
280
     1
102
RTVSPropertyOp0
 70
     1
102
RTVSPropertyOp1
 70
     1
102
RTVSPropertyOp2
 70
     1
102
RTVSPropertyOp3
 70
     1
102
RTVSPropertyOp4
 70
     1
102
RTVSPropertyOp5
 70
     1
102
RTVSPropertyOp6
 70
     1
102
RTVSPropertyOp7
 70
     1
102
RTVSPropertyOp8
 70
     1
102
RTVSPropertyOp9
 70
     1
102
RTVSPropertyOp10
 70
     1
102
RTVSPropertyOp11
 70
     1
102
RTVSPropertyOp12
 70
     1
102
RTVSPropertyOp13
 70
     1
102
RTVSPropertyOp14
 70
     1
102
RTVSPropertyOp15
 70
     1
102
RTVSPropertyOp16
 70
     1
102
RTVSPropertyOp17
 70
     1
102
RTVSPropertyOp18
 70
     1
102
RTVSPropertyOp19
 70
     1
102
RTVSPropertyOp20
 70
     1
102
RTVSPropertyOp21
 70
     1
102
RTVSPropertyOp22
 70
     1
102
RTVSPropertyOp23
 70
     1
102
RTVSPropertyOp24
 70
     1
102
RTVSPropertyOp25
 70
     1
102
RTVSPropertyOp26
 70
     1
102
RTVSPropertyOp27
 70
     1
102
RTVSPropertyOp28
 70
     1
102
RTVSPropertyOp29
 70
     1
102
RTVSPropertyOp30
 70
     1
102
RTVSPropertyOp31
 70
     1
102
RTVSPropertyOp32
 70
     1
  0
XRECORD
  5
6F40
102
{ACAD_REACTORS
330
6F3F
102
}
330
6F3F
100
AcDbXrecord
280
     1
102
RTVSPropertyOp0
 70
     1
102
RTVSPropertyOp1
 70
     1
102
RTVSPropertyOp2
 70
     1
102
RTVSPropertyOp3
 70
     1
102
RTVSPropertyOp4
 70
     1
102
RTVSPropertyOp5
 70
     1
102
RTVSPropertyOp6
 70
     1
102
RTVSPropertyOp7
 70
     1
102
RTVSPropertyOp8
 70
     1
102
RTVSPropertyOp9
 70
     1
102
RTVSPropertyOp10
 70
     1
102
RTVSPropertyOp11
 70
     1
102
RTVSPropertyOp12
 70
     1
102
RTVSPropertyOp13
 70
     1
102
RTVSPropertyOp14
 70
     1
102
RTVSPropertyOp15
 70
     1
102
RTVSPropertyOp16
 70
     1
102
RTVSPropertyOp17
 70
     1
102
RTVSPropertyOp18
 70
     1
102
RTVSPropertyOp19
 70
     1
102
RTVSPropertyOp20
 70
     1
102
RTVSPropertyOp21
 70
     1
102
RTVSPropertyOp22
 70
     1
102
RTVSPropertyOp23
 70
     1
102
RTVSPropertyOp24
 70
     1
102
RTVSPropertyOp25
 70
     1
102
RTVSPropertyOp26
 70
     1
102
RTVSPropertyOp27
 70
     1
102
RTVSPropertyOp28
 70
     1
102
RTVSPropertyOp29
 70
     1
102
RTVSPropertyOp30
 70
     1
102
RTVSPropertyOp31
 70
     1
102
RTVSPropertyOp32
 70
     1
  0
XRECORD
  5
6F42
102
{ACAD_REACTORS
330
6F41
102
}
330
6F41
100
AcDbXrecord
280
     1
102
RTVSPropertyOp0
 70
     1
102
RTVSPropertyOp1
 70
     1
102
RTVSPropertyOp2
 70
     1
102
RTVSPropertyOp3
 70
     1
102
RTVSPropertyOp4
 70
     1
102
RTVSPropertyOp5
 70
     1
102
RTVSPropertyOp6
 70
     1
102
RTVSPropertyOp7
 70
     1
102
RTVSPropertyOp8
 70
     1
102
RTVSPropertyOp9
 70
     1
102
RTVSPropertyOp10
 70
     1
102
RTVSPropertyOp11
 70
     1
102
RTVSPropertyOp12
 70
     1
102
RTVSPropertyOp13
 70
     1
102
RTVSPropertyOp14
 70
     1
102
RTVSPropertyOp15
 70
     1
102
RTVSPropertyOp16
 70
     1
102
RTVSPropertyOp17
 70
     1
102
RTVSPropertyOp18
 70
     1
102
RTVSPropertyOp19
 70
     1
102
RTVSPropertyOp20
 70
     1
102
RTVSPropertyOp21
 70
     1
102
RTVSPropertyOp22
 70
     1
102
RTVSPropertyOp23
 70
     1
102
RTVSPropertyOp24
 70
     1
102
RTVSPropertyOp25
 70
     1
102
RTVSPropertyOp26
 70
     1
102
RTVSPropertyOp27
 70
     1
102
RTVSPropertyOp28
 70
     1
102
RTVSPropertyOp29
 70
     1
102
RTVSPropertyOp30
 70
     1
102
RTVSPropertyOp31
 70
     1
102
RTVSPropertyOp32
 70
     1
  0
XRECORD
  5
6F38
102
{ACAD_REACTORS
330
6F37
102
}
330
6F37
100
AcDbXrecord
280
     1
102
RTVSPropertyOp0
 70
     1
102
RTVSPropertyOp1
 70
     1
102
RTVSPropertyOp2
 70
     1
102
RTVSPropertyOp3
 70
     1
102
RTVSPropertyOp4
 70
     1
102
RTVSPropertyOp5
 70
     1
102
RTVSPropertyOp6
 70
     1
102
RTVSPropertyOp7
 70
     1
102
RTVSPropertyOp8
 70
     1
102
RTVSPropertyOp9
 70
     1
102
RTVSPropertyOp10
 70
     1
102
RTVSPropertyOp11
 70
     1
102
RTVSPropertyOp12
 70
     1
102
RTVSPropertyOp13
 70
     1
102
RTVSPropertyOp14
 70
     1
102
RTVSPropertyOp15
 70
     1
102
RTVSPropertyOp16
 70
     1
102
RTVSPropertyOp17
 70
     1
102
RTVSPropertyOp18
 70
     1
102
RTVSPropertyOp19
 70
     1
102
RTVSPropertyOp20
 70
     1
102
RTVSPropertyOp21
 70
     1
102
RTVSPropertyOp22
 70
     1
102
RTVSPropertyOp23
 70
     1
102
RTVSPropertyOp24
 70
     1
102
RTVSPropertyOp25
 70
     1
102
RTVSPropertyOp26
 70
     1
102
RTVSPropertyOp27
 70
     1
102
RTVSPropertyOp28
 70
     1
102
RTVSPropertyOp29
 70
     1
102
RTVSPropertyOp30
 70
     1
102
RTVSPropertyOp31
 70
     1
102
RTVSPropertyOp32
 70
     1
  0
XRECORD
  5
6F2C
102
{ACAD_REACTORS
330
6F2B
102
}
330
6F2B
100
AcDbXrecord
280
     1
102
RTVSPropertyOp0
 70
     1
102
RTVSPropertyOp1
 70
     1
102
RTVSPropertyOp2
 70
     1
102
RTVSPropertyOp3
 70
     1
102
RTVSPropertyOp4
 70
     1
102
RTVSPropertyOp5
 70
     1
102
RTVSPropertyOp6
 70
     1
102
RTVSPropertyOp7
 70
     1
102
RTVSPropertyOp8
 70
     1
102
RTVSPropertyOp9
 70
     1
102
RTVSPropertyOp10
 70
     1
102
RTVSPropertyOp11
 70
     1
102
RTVSPropertyOp12
 70
     1
102
RTVSPropertyOp13
 70
     1
102
RTVSPropertyOp14
 70
     1
102
RTVSPropertyOp15
 70
     1
102
RTVSPropertyOp16
 70
     1
102
RTVSPropertyOp17
 70
     1
102
RTVSPropertyOp18
 70
     1
102
RTVSPropertyOp19
 70
     1
102
RTVSPropertyOp20
 70
     1
102
RTVSPropertyOp21
 70
     1
102
RTVSPropertyOp22
 70
     1
102
RTVSPropertyOp23
 70
     1
102
RTVSPropertyOp24
 70
     1
102
RTVSPropertyOp25
 70
     1
102
RTVSPropertyOp26
 70
     1
102
RTVSPropertyOp27
 70
     1
102
RTVSPropertyOp28
 70
     1
102
RTVSPropertyOp29
 70
     1
102
RTVSPropertyOp30
 70
     1
102
RTVSPropertyOp31
 70
     1
102
RTVSPropertyOp32
 70
     1
  0
XRECORD
  5
6F44
102
{ACAD_REACTORS
330
6F43
102
}
330
6F43
100
AcDbXrecord
280
     1
102
RTVSPropertyOp0
 70
     1
102
RTVSPropertyOp1
 70
     1
102
RTVSPropertyOp2
 70
     1
102
RTVSPropertyOp3
 70
     1
102
RTVSPropertyOp4
 70
     1
102
RTVSPropertyOp5
 70
     1
102
RTVSPropertyOp6
 70
     1
102
RTVSPropertyOp7
 70
     1
102
RTVSPropertyOp8
 70
     1
102
RTVSPropertyOp9
 70
     1
102
RTVSPropertyOp10
 70
     1
102
RTVSPropertyOp11
 70
     1
102
RTVSPropertyOp12
 70
     1
102
RTVSPropertyOp13
 70
     1
102
RTVSPropertyOp14
 70
     1
102
RTVSPropertyOp15
 70
     1
102
RTVSPropertyOp16
 70
     1
102
RTVSPropertyOp17
 70
     1
102
RTVSPropertyOp18
 70
     1
102
RTVSPropertyOp19
 70
     1
102
RTVSPropertyOp20
 70
     1
102
RTVSPropertyOp21
 70
     1
102
RTVSPropertyOp22
 70
     1
102
RTVSPropertyOp23
 70
     1
102
RTVSPropertyOp24
 70
     1
102
RTVSPropertyOp25
 70
     1
102
RTVSPropertyOp26
 70
     1
102
RTVSPropertyOp27
 70
     1
102
RTVSPropertyOp28
 70
     1
102
RTVSPropertyOp29
 70
     1
102
RTVSPropertyOp30
 70
     1
102
RTVSPropertyOp31
 70
     1
102
RTVSPropertyOp32
 70
     1
  0
ENDSEC
  0
EOF
