  0
SECTION
  2
HEADER
  9
$ACADVER
  1
AC1015
  9
$ACADMAINTVER
 70
    20
  9
$DWGCODEPAGE
  3
ANSI_1252
  9
$INSBASE
 10
0.0
 20
0.0
 30
0.0
  9
$EXTMIN
 10
0.0
 20
0.0
 30
0.0
  9
$EXTMAX
 10
60.40181834353598
 20
36.9901922988268
 30
0.0
  9
$LIMMIN
 10
0.0
 20
0.0
  9
$LIMMAX
 10
12.0
 20
9.0
  9
$ORTHOMODE
 70
     0
  9
$REGENMODE
 70
     1
  9
$FILLMODE
 70
     1
  9
$QTEXTMODE
 70
     0
  9
$MIRRTEXT
 70
     1
  9
$LTSCALE
 40
0.5
  9
$ATTMODE
 70
     1
  9
$TEXTSIZE
 40
0.25
  9
$TRACEWID
 40
0.05
  9
$TEXTSTYLE
  7
STANDARD
  9
$CLAYER
  8
0
  9
$CELTYPE
  6
BYLAYER
  9
$CECOLOR
 62
   256
  9
$CELTSCALE
 40
1.0
  9
$DISPSILH
 70
     0
  9
$DIMSCALE
 40
1.0
  9
$DIMASZ
 40
0.2
  9
$DIMEXO
 40
0.125
  9
$DIMDLI
 40
0.375
  9
$DIMRND
 40
0.0
  9
$DIMDLE
 40
0.0
  9
$DIMEXE
 40
0.125
  9
$DIMTP
 40
0.0
  9
$DIMTM
 40
0.0
  9
$DIMTXT
 40
0.25
  9
$DIMCEN
 40
0.0
  9
$DIMTSZ
 40
0.0
  9
$DIMTOL
 70
     0
  9
$DIMLIM
 70
     0
  9
$DIMTIH
 70
     0
  9
$DIMTOH
 70
     0
  9
$DIMSE1
 70
     0
  9
$DIMSE2
 70
     0
  9
$DIMTAD
 70
     1
  9
$DIMZIN
 70
     3
  9
$DIMBLK
  1

  9
$DIMASO
 70
     1
  9
$DIMSHO
 70
     1
  9
$DIMPOST
  1

  9
$DIMAPOST
  1

  9
$DIMALT
 70
     0
  9
$DIMALTD
 70
     2
  9
$DIMALTF
 40
25.4
  9
$DIMLFAC
 40
1.0
  9
$DIMTOFL
 70
     0
  9
$DIMTVP
 40
0.0
  9
$DIMTIX
 70
     0
  9
$DIMSOXD
 70
     0
  9
$DIMSAH
 70
     0
  9
$DIMBLK1
  1

  9
$DIMBLK2
  1

  9
$DIMSTYLE
  2
STANDARD
  9
$DIMCLRD
 70
     0
  9
$DIMCLRE
 70
     0
  9
$DIMCLRT
 70
     0
  9
$DIMTFAC
 40
1.0
  9
$DIMGAP
 40
0.125
  9
$DIMJUST
 70
     0
  9
$DIMSD1
 70
     0
  9
$DIMSD2
 70
     0
  9
$DIMTOLJ
 70
     1
  9
$DIMTZIN
 70
     3
  9
$DIMALTZ
 70
     3
  9
$DIMALTTZ
 70
     3
  9
$DIMUPT
 70
     0
  9
$DIMDEC
 70
     5
  9
$DIMTDEC
 70
     5
  9
$DIMALTU
 70
     4
  9
$DIMALTTD
 70
     2
  9
$DIMTXSTY
  7
STANDARD
  9
$DIMAUNIT
 70
     0
  9
$DIMADEC
 70
     0
  9
$DIMALTRND
 40
0.0
  9
$DIMAZIN
 70
     0
  9
$DIMDSEP
 70
    46
  9
$DIMATFIT
 70
     0
  9
$DIMFRAC
 70
     2
  9
$DIMLDRBLK
  1

  9
$DIMLUNIT
 70
     4
  9
$DIMLWD
 70
    -2
  9
$DIMLWE
 70
    -2
  9
$DIMTMOVE
 70
     0
  9
$LUNITS
 70
     2
  9
$LUPREC
 70
     5
  9
$SKETCHINC
 40
0.1
  9
$FILLETRAD
 40
0.0
  9
$AUNITS
 70
     0
  9
$AUPREC
 70
     0
  9
$MENU
  1
ACAD
  9
$ELEVATION
 40
0.0
  9
$PELEVATION
 40
0.0
  9
$THICKNESS
 40
0.0
  9
$LIMCHECK
 70
     0
  9
$CHAMFERA
 40
0.0
  9
$CHAMFERB
 40
0.0
  9
$CHAMFERC
 40
0.0
  9
$CHAMFERD
 40
0.0
  9
$SKPOLY
 70
     0
  9
$TDCREATE
 40
2450777.537570949
  9
$TDUCREATE
 40
2450777.745904282
  9
$TDUPDATE
 40
2457809.454054710
  9
$TDUUPDATE
 40
2457809.662388044
  9
$TDINDWG
 40
0.5420415972
  9
$TDUSRTIMER
 40
0.5420415972
  9
$USRTIMER
 70
     1
  9
$ANGBASE
 50
0.0
  9
$ANGDIR
 70
     0
  9
$PDMODE
 70
     0
  9
$PDSIZE
 40
0.0
  9
$PLINEWID
 40
0.0
  9
$SPLFRAME
 70
     0
  9
$SPLINETYPE
 70
     6
  9
$SPLINESEGS
 70
     8
  9
$HANDSEED
  5
6D37
  9
$SURFTAB1
 70
     6
  9
$SURFTAB2
 70
     6
  9
$SURFTYPE
 70
     6
  9
$SURFU
 70
     6
  9
$SURFV
 70
     6
  9
$UCSBASE
  2

  9
$UCSNAME
  2

  9
$UCSORG
 10
0.0
 20
0.0
 30
0.0
  9
$UCSXDIR
 10
1.0
 20
0.0
 30
0.0
  9
$UCSYDIR
 10
0.0
 20
1.0
 30
0.0
  9
$UCSORTHOREF
  2

  9
$UCSORTHOVIEW
 70
     0
  9
$UCSORGTOP
 10
0.0
 20
0.0
 30
0.0
  9
$UCSORGBOTTOM
 10
0.0
 20
0.0
 30
0.0
  9
$UCSORGLEFT
 10
0.0
 20
0.0
 30
0.0
  9
$UCSORGRIGHT
 10
0.0
 20
0.0
 30
0.0
  9
$UCSORGFRONT
 10
0.0
 20
0.0
 30
0.0
  9
$UCSORGBACK
 10
0.0
 20
0.0
 30
0.0
  9
$PUCSBASE
  2

  9
$PUCSNAME
  2

  9
$PUCSORG
 10
0.0
 20
0.0
 30
0.0
  9
$PUCSXDIR
 10
1.0
 20
0.0
 30
0.0
  9
$PUCSYDIR
 10
0.0
 20
1.0
 30
0.0
  9
$PUCSORTHOREF
  2

  9
$PUCSORTHOVIEW
 70
     0
  9
$PUCSORGTOP
 10
0.0
 20
0.0
 30
0.0
  9
$PUCSORGBOTTOM
 10
0.0
 20
0.0
 30
0.0
  9
$PUCSORGLEFT
 10
0.0
 20
0.0
 30
0.0
  9
$PUCSORGRIGHT
 10
0.0
 20
0.0
 30
0.0
  9
$PUCSORGFRONT
 10
0.0
 20
0.0
 30
0.0
  9
$PUCSORGBACK
 10
0.0
 20
0.0
 30
0.0
  9
$USERI1
 70
     0
  9
$USERI2
 70
     0
  9
$USERI3
 70
     0
  9
$USERI4
 70
     0
  9
$USERI5
 70
     0
  9
$USERR1
 40
0.0
  9
$USERR2
 40
0.0
  9
$USERR3
 40
0.0
  9
$USERR4
 40
0.0
  9
$USERR5
 40
0.0
  9
$WORLDVIEW
 70
     1
  9
$SHADEDGE
 70
     3
  9
$SHADEDIF
 70
    70
  9
$TILEMODE
 70
     1
  9
$MAXACTVP
 70
    16
  9
$PINSBASE
 10
0.0
 20
0.0
 30
0.0
  9
$PLIMCHECK
 70
     0
  9
$PEXTMIN
 10
1.000000000000000E+20
 20
1.000000000000000E+20
 30
1.000000000000000E+20
  9
$PEXTMAX
 10
-1.000000000000000E+20
 20
-1.000000000000000E+20
 30
-1.000000000000000E+20
  9
$PLIMMIN
 10
0.0
 20
0.0
  9
$PLIMMAX
 10
12.0
 20
9.0
  9
$UNITMODE
 70
     0
  9
$VISRETAIN
 70
     0
  9
$PLINEGEN
 70
     0
  9
$PSLTSCALE
 70
     1
  9
$TREEDEPTH
 70
  3020
  9
$CMLSTYLE
  2
STANDARD
  9
$CMLJUST
 70
     0
  9
$CMLSCALE
 40
1.0
  9
$PROXYGRAPHICS
 70
     1
  9
$MEASUREMENT
 70
     0
  9
$CELWEIGHT
370
    -1
  9
$ENDCAPS
280
     0
  9
$JOINSTYLE
280
     0
  9
$LWDISPLAY
290
     0
  9
$INSUNITS
 70
     0
  9
$HYPERLINKBASE
  1

  9
$STYLESHEET
  1
monochrome.ctb
  9
$XEDIT
290
     1
  9
$CEPSNTYPE
380
     0
  9
$PSTYLEMODE
290
     1
  9
$FINGERPRINTGUID
  2
{AFB9463B-F323-4607-850C-DC68DBB64F67}
  9
$VERSIONGUID
  2
{FE716F5C-3A42-4BFA-B6E1-B1CBE48C2028}
  9
$EXTNAMES
290
     1
  9
$PSVPSCALE
 40
0.0
  9
$OLESTARTUP
290
     0
  0
ENDSEC
  0
SECTION
  2
CLASSES
  0
CLASS
  1
DICTIONARYVAR
  2
AcDbDictionaryVar
  3
ObjectDBX Classes
 90
        0
280
     0
281
     0
  0
CLASS
  1
ACDBDICTIONARYWDFLT
  2
AcDbDictionaryWithDefault
  3
ObjectDBX Classes
 90
        0
280
     0
281
     0
  0
CLASS
  1
ACDBPLACEHOLDER
  2
AcDbPlaceHolder
  3
ObjectDBX Classes
 90
        0
280
     0
281
     0
  0
CLASS
  1
LAYOUT
  2
AcDbLayout
  3
ObjectDBX Classes
 90
        0
280
     0
281
     0
  0
CLASS
  1
MATERIAL
  2
AcDbMaterial
  3
ObjectDBX Classes
 90
     1153
280
     0
281
     0
  0
CLASS
  1
VISUALSTYLE
  2
AcDbVisualStyle
  3
ObjectDBX Classes
 90
     4095
280
     0
281
     0
  0
CLASS
  1
TABLESTYLE
  2
AcDbTableStyle
  3
ObjectDBX Classes
 90
     4095
280
     0
281
     0
  0
CLASS
  1
SCALE
  2
AcDbScale
  3
ObjectDBX Classes
 90
     1153
280
     0
281
     0
  0
CLASS
  1
MLEADERSTYLE
  2
AcDbMLeaderStyle
  3
ACDB_MLEADERSTYLE_CLASS
 90
     4095
280
     0
281
     0
  0
CLASS
  1
SORTENTSTABLE
  2
AcDbSortentsTable
  3
ObjectDBX Classes
 90
        0
280
     0
281
     0
  0
CLASS
  1
CELLSTYLEMAP
  2
AcDbCellStyleMap
  3
ObjectDBX Classes
 90
     1152
280
     0
281
     0
  0
CLASS
  1
EXACXREFPANELOBJECT
  2
ExAcXREFPanelObject
  3
EXAC_ESW
 90
     1025
280
     0
281
     0
  0
CLASS
  1
NPOCOLLECTION
  2
AcDbImpNonPersistentObjectsCollection
  3
ObjectDBX Classes
 90
     1153
280
     0
281
     0
  0
CLASS
  1
FIELD
  2
AcDbField
  3
ObjectDBX Classes
 90
    33920
280
     0
281
     0
  0
CLASS
  1
FIELDLIST
  2
AcDbFieldList
  3
ObjectDBX Classes
 90
     1152
280
     0
281
     0
  0
ENDSEC
  0
SECTION
  2
TABLES
  0
TABLE
  2
VPORT
  5
8
102
{ACAD_XDICTIONARY
360
6602
102
}
330
0
100
AcDbSymbolTable
 70
     1
  0
VPORT
  5
6550
330
8
100
AcDbSymbolTableRecord
100
AcDbViewportTableRecord
  2
*Active
 70
     0
 10
0.0
 20
0.0
 11
1.0
 21
1.0
 12
60.97227027181777
 22
18.4950962355379
 13
0.0
 23
0.0
 14
1.0
 24
1.0
 15
0.0
 25
0.0
 16
0.0
 26
0.0
 36
1.0
 17
0.0
 27
0.0
 37
0.0
 40
37.23767052695736
 41
3.716019417475727
 42
50.0
 43
0.0
 44
0.0
 50
0.0
 51
0.0
 71
     0
 72
  2000
 73
     1
 74
     0
 75
     0
 76
     0
 77
     0
 78
     0
281
     0
 65
     1
110
0.0
120
0.0
130
0.0
111
1.0
121
0.0
131
0.0
112
0.0
122
1.0
132
0.0
 79
     0
146
0.0
1001
ACAD_NAV_VCDISPLAY
1070
     3
  0
ENDTAB
  0
TABLE
  2
LTYPE
  5
5
330
0
100
AcDbSymbolTable
 70
     3
  0
LTYPE
  5
11
330
5
100
AcDbSymbolTableRecord
100
AcDbLinetypeTableRecord
  2
BYBLOCK
 70
     0
  3

 72
    65
 73
     0
 40
0.0
  0
LTYPE
  5
12
330
5
100
AcDbSymbolTableRecord
100
AcDbLinetypeTableRecord
  2
BYLAYER
 70
     0
  3

 72
    65
 73
     0
 40
0.0
  0
LTYPE
  5
13
330
5
100
AcDbSymbolTableRecord
100
AcDbLinetypeTableRecord
  2
CONTINUOUS
 70
     0
  3
Solid line
 72
    65
 73
     0
 40
0.0
  0
LTYPE
  5
6C7C
330
5
100
AcDbSymbolTableRecord
100
AcDbLinetypeTableRecord
  2
DASHED
 70
     0
  3
Dashed __ __ __ __ __ __ __ __ __ __ __ __ __ _
 72
    65
 73
     2
 40
0.75
 49
0.5
 74
     0
 49
-0.25
 74
     0
  0
LTYPE
  5
6C7D
330
5
100
AcDbSymbolTableRecord
100
AcDbLinetypeTableRecord
  2
DOT
 70
     0
  3
Dot . . . . . . . . . . . . . . . . . . . . . .
 72
    65
 73
     2
 40
0.25
 49
0.0
 74
     0
 49
-0.25
 74
     0
  0
ENDTAB
  0
TABLE
  2
LAYER
  5
2
102
{ACAD_XDICTIONARY
360
65E1
102
}
330
0
100
AcDbSymbolTable
 70
     8
  0
LAYER
  5
E
102
{ACAD_XDICTIONARY
360
65F1
102
}
330
2
100
AcDbSymbolTableRecord
100
AcDbLayerTableRecord
  2
0
 70
     0
 62
     7
  6
CONTINUOUS
370
    -3
390
485B
  0
LAYER
  5
6019
102
{ACAD_XDICTIONARY
360
65F3
102
}
330
2
100
AcDbSymbolTableRecord
100
AcDbLayerTableRecord
  2
R-SWTS-DET1
 70
     0
 62
     1
  6
CONTINUOUS
370
    -3
390
485B
  0
LAYER
  5
601A
102
{ACAD_XDICTIONARY
360
65F5
102
}
330
2
100
AcDbSymbolTableRecord
100
AcDbLayerTableRecord
  2
PART_NUMBERS
 70
     0
 62
     6
  6
CONTINUOUS
370
    -3
390
485B
  0
LAYER
  5
601B
102
{ACAD_XDICTIONARY
360
65F7
102
}
330
2
100
AcDbSymbolTableRecord
100
AcDbLayerTableRecord
  2
R-ANNO-DIMS
 70
     0
 62
     3
  6
CONTINUOUS
370
    -3
390
485B
  0
LAYER
  5
601C
102
{ACAD_XDICTIONARY
360
65F9
102
}
330
2
100
AcDbSymbolTableRecord
100
AcDbLayerTableRecord
  2
R-SWTS-DET2
 70
     0
 62
     4
  6
CONTINUOUS
370
    -3
390
485B
  0
LAYER
  5
601D
102
{ACAD_XDICTIONARY
360
65FB
102
}
330
2
100
AcDbSymbolTableRecord
100
AcDbLayerTableRecord
  2
R-SWTS-DET3
 70
     0
 62
     5
  6
CONTINUOUS
370
    -3
390
485B
  0
LAYER
  5
665B
102
{ACAD_XDICTIONARY
360
665C
102
}
330
2
100
AcDbSymbolTableRecord
100
AcDbLayerTableRecord
  2
TEXT
 70
     0
 62
     3
  6
CONTINUOUS
370
    -3
390
485B
  0
LAYER
  5
6C7E
330
2
100
AcDbSymbolTableRecord
100
AcDbLayerTableRecord
  2
Kawneer Logo-English
 70
     0
 62
     7
  6
CONTINUOUS
370
    -3
390
485B
1001
AcAecLayerStandard
1000

1000

1001
AcCmTransparency
1071
        0
  0
ENDTAB
  0
TABLE
  2
STYLE
  5
3
330
0
100
AcDbSymbolTable
 70
     1
  0
STYLE
  5
F
330
3
100
AcDbSymbolTableRecord
100
AcDbTextStyleTableRecord
  2
STANDARD
 70
     0
 40
0.0
 41
1.0
 50
0.0
 71
     0
 42
0.25
  3
arial.ttf
  4

1001
ACAD
1000
Arial
1071
       34
  0
ENDTAB
  0
TABLE
  2
VIEW
  5
6
330
0
100
AcDbSymbolTable
 70
     0
  0
ENDTAB
  0
TABLE
  2
UCS
  5
7
330
0
100
AcDbSymbolTable
 70
     0
  0
ENDTAB
  0
TABLE
  2
APPID
  5
9
330
0
100
AcDbSymbolTable
 70
    15
  0
APPID
  5
10
330
9
100
AcDbSymbolTableRecord
100
AcDbRegAppTableRecord
  2
ACAD
 70
     0
  0
APPID
  5
665F
330
9
100
AcDbSymbolTableRecord
100
AcDbRegAppTableRecord
  2
ACAD_NAV_VCDISPLAY
 70
     0
  0
APPID
  5
6C7F
330
9
100
AcDbSymbolTableRecord
100
AcDbRegAppTableRecord
  2
ACAD_EXEMPT_FROM_CAD_STANDARDS
 70
     0
  0
APPID
  5
6C80
330
9
100
AcDbSymbolTableRecord
100
AcDbRegAppTableRecord
  2
GradientColor1ACI
 70
     0
  0
APPID
  5
6C81
330
9
100
AcDbSymbolTableRecord
100
AcDbRegAppTableRecord
  2
GradientColor2ACI
 70
     0
  0
APPID
  5
6C82
330
9
100
AcDbSymbolTableRecord
100
AcDbRegAppTableRecord
  2
ACAD_MLEADERVER
 70
     0
  0
APPID
  5
6C83
330
9
100
AcDbSymbolTableRecord
100
AcDbRegAppTableRecord
  2
ACAD_PSEXT
 70
     0
  0
APPID
  5
6C84
330
9
100
AcDbSymbolTableRecord
100
AcDbRegAppTableRecord
  2
ACAD_DSTYLE_DIMJAG
 70
     0
  0
APPID
  5
6C85
330
9
100
AcDbSymbolTableRecord
100
AcDbRegAppTableRecord
  2
ACAD_DSTYLE_DIMTALN
 70
     0
  0
APPID
  5
6C86
330
9
100
AcDbSymbolTableRecord
100
AcDbRegAppTableRecord
  2
ACAD_DSTYLE_DIMBREAK
 70
     0
  0
APPID
  5
6C87
330
9
100
AcDbSymbolTableRecord
100
AcDbRegAppTableRecord
  2
AcDbDynamicBlockGUID
 70
     0
  0
APPID
  5
6C88
330
9
100
AcDbSymbolTableRecord
100
AcDbRegAppTableRecord
  2
ACAUTHENVIRON
 70
     0
  0
APPID
  5
6C89
330
9
100
AcDbSymbolTableRecord
100
AcDbRegAppTableRecord
  2
AcDbDynamicBlockTrueName
 70
     0
  0
APPID
  5
6C8A
330
9
100
AcDbSymbolTableRecord
100
AcDbRegAppTableRecord
  2
AcAecLayerStandard
 70
     0
  0
APPID
  5
6C8B
330
9
100
AcDbSymbolTableRecord
100
AcDbRegAppTableRecord
  2
AcCmTransparency
 70
     0
  0
ENDTAB
  0
TABLE
  2
DIMSTYLE
  5
A
330
0
100
AcDbSymbolTable
 70
     1
100
AcDbDimStyleTable
 71
     0
  0
DIMSTYLE
105
26C
330
A
100
AcDbSymbolTableRecord
100
AcDbDimStyleTableRecord
  2
STANDARD
 70
     0
340
F
  0
ENDTAB
  0
TABLE
  2
BLOCK_RECORD
  5
1
330
0
100
AcDbSymbolTable
 70
     1
  0
BLOCK_RECORD
  5
17
102
{ACAD_XDICTIONARY
360
4A11
102
}
330
1
100
AcDbSymbolTableRecord
100
AcDbBlockTableRecord
  2
*MODEL_SPACE
340
485E
  0
BLOCK_RECORD
  5
14
102
{ACAD_XDICTIONARY
360
4A0F
102
}
330
1
100
AcDbSymbolTableRecord
100
AcDbBlockTableRecord
  2
*PAPER_SPACE
340
485F
  0
BLOCK_RECORD
  5
6C8E
102
{ACAD_XDICTIONARY
360
6C98
102
}
330
1
100
AcDbSymbolTableRecord
100
AcDbBlockTableRecord
  2
Kawneer Logo English
340
0
102
{BLKREFS
331
6C9C
102
}
1001
ACAD
1000
DesignCenter Data
1002
{
1070
     1
1070
     1
1002
}
  0
ENDTAB
  0
ENDSEC
  0
SECTION
  2
BLOCKS
  0
BLOCK
  5
3C
330
17
100
AcDbEntity
  8
0
100
AcDbBlockBegin
  2
*MODEL_SPACE
 70
     0
 10
0.0
 20
0.0
 30
0.0
  3
*MODEL_SPACE
  1

  0
ENDBLK
  5
3D
330
17
100
AcDbEntity
  8
0
100
AcDbBlockEnd
  0
BLOCK
  5
3A
330
14
100
AcDbEntity
 67
     1
  8
0
100
AcDbBlockBegin
  2
*PAPER_SPACE
 70
     0
 10
0.0
 20
0.0
 30
0.0
  3
*PAPER_SPACE
  1

  0
ENDBLK
  5
3B
330
14
100
AcDbEntity
 67
     1
  8
0
100
AcDbBlockEnd
  0
BLOCK
  5
6C9A
330
6C8E
100
AcDbEntity
  8
0
100
AcDbBlockBegin
  2
Kawneer Logo English
 70
     0
 10
0.0
 20
0.0
 30
0.0
  3
Kawneer Logo English
  1

  0
MTEXT
  5
6C8F
102
{ACAD_XDICTIONARY
360
6CF7
102
}
330
6C8E
100
AcDbEntity
  8
Kawneer Logo-English
100
AcDbMText
 10
1.510096758583198
 20
0.0372523876656778
 30
0.0
 40
0.036
 41
0.6125900866323382
 71
     3
 72
     5
  1
{\fArial TUR|b0|i0|c0|p34;\T1.05;AN ARCONIC COMPANY}
 73
     1
 44
1.0
1001
ACAD
1000
ACAD_MTEXT_COLUMN_INFO_BEGIN
1070
    75
1070
     2
1070
    79
1070
     0
1070
    76
1070
     1
1070
    78
1070
     0
1070
    48
1040
0.6125900866323382
1070
    49
1040
1.0
1070
    50
1070
     1
1040
0.0
1000
ACAD_MTEXT_COLUMN_INFO_END
1000
MTEXTBEGIN
1070
    73
1070
     1
1070
    44
1040
1.0
1070
    74
1070
     0
1000
MTEXTEND
  0
HATCH
  5
6C90
330
6C8E
100
AcDbEntity
  8
Kawneer Logo-English
100
AcDbHatch
 10
0.0
 20
0.0
 30
0.0
210
0.0
220
0.0
230
1.0
  2
SOLID
 70
     1
 71
     0
 91
        1
 92
        1
 93
       81
 72
     1
 10
0.2706169776412204
 20
0.0336337282279411
 11
0.2687512969786691
 21
0.0350329887248546
 72
     1
 10
0.2687512969786696
 20
0.0350329887248547
 11
0.2633408230572721
 21
0.039137486182467
 72
     1
 10
0.2633408230572729
 20
0.0391374861824669
 11
0.2550385441089194
 21
0.0453875164020133
 72
     1
 10
0.2550385441089191
 20
0.0453875164020132
 11
0.2442175962661241
 21
0.053596511317238
 72
     1
 10
0.2442175962661235
 20
0.0535965113172379
 11
0.2314376837276472
 21
0.0632980507625037
 72
     1
 10
0.2314376837276479
 20
0.0632980507625037
 11
0.2172585106922595
 21
0.0741189986052996
 72
     1
 10
0.2172585106922598
 20
0.0741189986052996
 11
0.2019599292593419
 21
0.0856862187131167
 72
     1
 10
0.201959929259341
 20
0.0856862187131167
 11
0.1862882116939105
 21
0.0976265749534437
 72
     1
 10
0.1862882116939102
 20
0.0976265749534437
 11
0.1706164941284813
 21
0.1095669311937706
 72
     1
 10
0.1706164941284811
 20
0.1095669311937709
 11
0.1553179126955632
 21
0.1211341513015875
 72
     1
 10
0.1553179126955642
 20
0.1211341513015876
 11
0.1411387396601757
 21
0.131955099144384
 72
     1
 10
0.1411387396601755
 20
0.1319550991443839
 11
0.1284521111548274
 21
0.141749922622777
 72
     1
 10
0.1284521111548278
 20
0.1417499226227768
 11
0.117631163312031
 21
0.1499589175380016
 72
     1
 10
0.1176311633120304
 20
0.1499589175380017
 11
0.1094221683968068
 21
0.1563022317906752
 72
     1
 10
0.1094221683968062
 20
0.1563022317906754
 11
0.1041049785085351
 21
0.1604067292482882
 72
     1
 10
0.1041049785085351
 20
0.1604067292482878
 11
0.1023325818791119
 21
0.1618992737783286
 72
     1
 10
0.1023325818791116
 20
0.1618992737783289
 11
0.1043848306079176
 21
0.1636716704077524
 72
     1
 10
0.1043848306079194
 20
0.1636716704077524
 11
0.1100751566286996
 21
0.1683358720641301
 72
     1
 10
0.1100751566286986
 20
0.1683358720641301
 11
0.1189371397758159
 21
0.1757053106812067
 72
     1
 10
0.1189371397758161
 20
0.1757053106812067
 11
0.1304110758505067
 21
0.1851269980270901
 72
     1
 10
0.1304110758505059
 20
0.1851269980270902
 11
0.1439372606540007
 21
0.1963210820023967
 72
     1
 10
0.1439372606540017
 20
0.1963210820023967
 11
0.1589559899875385
 21
0.2087278584083611
 72
     1
 10
0.1589559899875379
 20
0.2087278584083611
 11
0.1750941277186041
 21
0.2220674751456017
 72
     1
 10
0.1750941277186047
 20
0.2220674751456017
 11
0.19169868561531
 21
0.2358735120484796
 72
     1
 10
0.1916986856153105
 20
0.2358735120484796
 11
0.208303243512014
 21
0.2495862649182301
 72
     1
 10
0.2083032435120131
 20
0.2495862649182304
 11
0.2244413812430811
 21
0.2628325976223432
 72
     1
 10
0.2244413812430812
 20
0.2628325976223429
 11
0.239460110576618
 21
0.2753326580614352
 72
     1
 10
0.2394601105766174
 20
0.2753326580614351
 11
0.2529862953801122
 21
0.2864334580036143
 72
     1
 10
0.2529862953801132
 20
0.2864334580036143
 11
0.2643669474216756
 21
0.2958551453494973
 72
     1
 10
0.2643669474216757
 20
0.2958551453494973
 11
0.2731356465356649
 21
0.3031312999334466
 72
     1
 10
0.273135646535664
 20
0.3031312999334466
 11
0.2788259725564443
 21
0.3077955015898243
 72
     1
 10
0.278825972556445
 20
0.3077955015898246
 11
0.2807849372521245
 21
0.3094746141861208
 72
     1
 10
0.2807849372521249
 20
0.3094746141861205
 11
0.2798520969208501
 21
0.3094746141861205
 72
     1
 10
0.2798520969208496
 20
0.3094746141861205
 11
0.2769602918938953
 21
0.3095678982192478
 72
     1
 10
0.2769602918938943
 20
0.3095678982192481
 11
0.2724826583037715
 21
0.3095678982192481
 72
     1
 10
0.2724826583037729
 20
0.3095678982192481
 11
0.2666057642167363
 21
0.3095678982192481
 72
     1
 10
0.266605764216735
 20
0.3095678982192481
 11
0.2597027457652953
 21
0.3095678982192481
 72
     1
 10
0.2597027457652956
 20
0.3095678982192481
 11
0.2519601710157094
 21
0.3095678982192481
 72
     1
 10
0.2519601710157104
 20
0.3095678982192481
 11
0.2437511761004851
 21
0.3095678982192481
 72
     1
 10
0.243751176100484
 20
0.3095678982192481
 11
0.2351690450527495
 21
0.3095678982192481
 72
     1
 10
0.2351690450527495
 20
0.3095678982192481
 11
0.2266801980381413
 21
0.3095678982192481
 72
     1
 10
0.2266801980381423
 20
0.3095678982192481
 11
0.2183779190897905
 21
0.3094746141861208
 72
     1
 10
0.2183779190897899
 20
0.3094746141861205
 11
0.2106353443402037
 21
0.3094746141861205
 72
     1
 10
0.2106353443402029
 20
0.3094746141861205
 11
0.2037323258887632
 21
0.3094746141861205
 72
     1
 10
0.203732325888764
 20
0.3094746141861205
 11
0.1978554318017273
 21
0.3094746141861205
 72
     1
 10
0.1978554318017278
 20
0.3094746141861205
 11
0.1932845141784786
 21
0.3094746141861205
 72
     1
 10
0.1932845141784787
 20
0.3094746141861205
 11
0.1903927091515244
 21
0.3094746141861205
 72
     1
 10
0.1903927091515234
 20
0.3094746141861205
 11
0.1893665847871204
 21
0.3094746141861205
 72
     1
 10
0.1893665847871206
 20
0.3094746141861205
 11
0.1879673242902067
 21
0.3077955015898243
 72
     1
 10
0.1879673242902076
 20
0.3077955015898246
 11
0.1841426789319786
 21
0.3030380159003196
 72
     1
 10
0.1841426789319787
 20
0.3030380159003192
 11
0.1780792167786874
 21
0.29576186131637
 72
     1
 10
0.1780792167786873
 20
0.29576186131637
 11
0.170243357995973
 21
0.2862468899373593
 72
     1
 10
0.170243357995973
 20
0.2862468899373593
 11
0.1610082387163447
 21
0.2750528059620528
 72
     1
 10
0.1610082387163438
 20
0.2750528059620528
 11
0.1507469950723126
 21
0.2624594614898328
 72
     1
 10
0.1507469950723133
 20
0.2624594614898328
 11
0.1396461951301336
 21
0.2491198447525922
 72
     1
 10
0.1396461951301333
 20
0.2491198447525922
 11
0.1282655430885727
 21
0.2352205238165866
 72
     1
 10
0.1282655430885726
 20
0.2352205238165868
 11
0.1168848910470102
 21
0.2214144869137089
 72
     1
 10
0.1168848910470102
 20
0.2214144869137087
 11
0.1058773751379587
 21
0.2079815861433408
 72
     1
 10
0.105877375137958
 20
0.2079815861433408
 11
0.0955228474608004
 21
0.1954815257042486
 72
     1
 10
0.0955228474608019
 20
0.1954815257042488
 11
0.0862877281811736
 21
0.1842874417289424
 72
     1
 10
0.0862877281811727
 20
0.1842874417289424
 11
0.0784518693984583
 21
0.1747724703499316
 72
     1
 10
0.0784518693984584
 20
0.1747724703499314
 11
0.0723884072451672
 21
0.1674963157659821
 72
     1
 10
0.0723884072451671
 20
0.1674963157659822
 11
0.0685637618869363
 21
0.1627388300764767
 72
     1
 10
0.0685637618869364
 20
0.1627388300764767
 11
0.0671645013900242
 21
0.1611530015133082
 72
     1
 10
0.0671645013900251
 20
0.1611530015133082
 11
0.0680040576881734
 21
0.1596604569832674
 72
     1
 10
0.0680040576881726
 20
0.1596604569832674
 11
0.0704294425494878
 21
0.1556492435587824
 72
     1
 10
0.0704294425494871
 20
0.1556492435587824
 11
0.0742540879077179
 21
0.1493059293061089
 72
     1
 10
0.0742540879077192
 20
0.1493059293061089
 11
0.0791048576303511
 21
0.1411902184240116
 72
     1
 10
0.0791048576303508
 20
0.1411902184240116
 11
0.0848884676842594
 21
0.1314886789787458
 72
     1
 10
0.0848884676842596
 20
0.1314886789787459
 11
0.0913250659700619
 21
0.1207610151690772
 72
     1
 10
0.0913250659700613
 20
0.1207610151690775
 11
0.0982280844214992
 21
0.1091937950612604
 72
     1
 10
0.0982280844214985
 20
0.1091937950612603
 11
0.1053176709391927
 21
0.0973467228540611
 72
     1
 10
0.105317670939193
 20
0.0973467228540612
 11
0.1124072574568872
 21
0.0854996506468619
 72
     1
 10
0.1124072574568871
 20
0.0854996506468617
 11
0.1193102759083267
 21
0.0739324305390446
 72
     1
 10
0.1193102759083278
 20
0.0739324305390448
 11
0.1257468741941283
 21
0.0632047667293762
 72
     1
 10
0.1257468741941277
 20
0.063204766729376
 11
0.1315304842480362
 21
0.0535032272841102
 72
     1
 10
0.1315304842480365
 20
0.0535032272841104
 11
0.1363812539706702
 21
0.0453875164020132
 72
     1
 10
0.1363812539706699
 20
0.0453875164020132
 11
0.1402058993288989
 21
0.0391374861824667
 72
     1
 10
0.1402058993288988
 20
0.0391374861824669
 11
0.1426312841902157
 21
0.0350329887248546
 72
     1
 10
0.1426312841902164
 20
0.0350329887248547
 11
0.1434708404883648
 21
0.0336337282279412
 72
     1
 10
0.143470840488364
 20
0.0336337282279411
 11
0.2706169776412211
 21
0.0336337282279411
 97
        0
 75
     0
 76
     1
 98
        1
 10
-0.3743130907707726
 20
-0.2500502867693841
1001
ACAD
1010
0.0
1020
0.0
1030
0.0
  0
HATCH
  5
6C91
330
6C8E
100
AcDbEntity
  8
Kawneer Logo-English
100
AcDbHatch
 10
0.0
 20
0.0
 30
0.0
210
0.0
220
0.0
230
1.0
  2
SOLID
 70
     1
 71
     0
 91
        1
 92
        1
 93
       18
 72
     1
 10
0.0001865656044393
 20
0.2563959993365415
 11
-0.0000000024618153
 21
0.113671428651383
 72
     1
 10
-0.0000000024618159
 20
0.1136714286513832
 11
0.0012126899688416
 21
0.1152572572145516
 72
     1
 10
0.0012126899688421
 20
0.1152572572145516
 11
0.0045709151614355
 21
0.1197348908046738
 72
     1
 10
0.004570915161435
 20
0.119734890804674
 11
0.0098881050497044
 21
0.1268244773223682
 72
     1
 10
0.0098881050497044
 20
0.1268244773223682
 11
0.0166978394680158
 21
0.1359663125688683
 72
     1
 10
0.016697839468016
 20
0.1359663125688683
 11
0.0248135503501131
 21
0.1467872604116651
 72
     1
 10
0.024813550350113
 20
0.1467872604116652
 11
0.0338621015634867
 21
0.1588209006851195
 72
     1
 10
0.0338621015634872
 20
0.1588209006851194
 11
0.0434703569756247
 21
0.1716940972567221
 72
     1
 10
0.0434703569756247
 20
0.1716940972567224
 11
0.0534517485202732
 21
0.1850337139939626
 72
     1
 10
0.0534517485202724
 20
0.1850337139939624
 11
0.0634331400649208
 21
0.1983733307312025
 72
     1
 10
0.0634331400649222
 20
0.1983733307312024
 11
0.0730413954770597
 21
0.2112465273028051
 72
     1
 10
0.0730413954770595
 20
0.2112465273028053
 11
0.0820899466904331
 21
0.2233734516093873
 72
     1
 10
0.0820899466904321
 20
0.2233734516093873
 11
0.0902056575725293
 21
0.2341943994521837
 72
     1
 10
0.0902056575725308
 20
0.2341943994521837
 11
0.0970153919908422
 21
0.2433362346986839
 72
     1
 10
0.0970153919908405
 20
0.2433362346986839
 11
0.1022392978459834
 21
0.2503325371832507
 72
     1
 10
0.1022392978459843
 20
0.2503325371832508
 11
0.1056908070717041
 21
0.2549034548065008
 72
     1
 10
0.1056908070717046
 20
0.254903454806501
 11
0.1069034995023621
 21
0.2564892833696694
 72
     1
 10
0.1069034995023625
 20
0.2564892833696695
 11
0.0001865656044399
 21
0.2563959993365418
 97
        0
 75
     0
 76
     1
 98
        1
 10
-0.3743130907707726
 20
-0.2500502867693841
1001
ACAD
1010
0.0
1020
0.0
1030
0.0
  0
HATCH
  5
6C92
330
6C8E
100
AcDbEntity
  8
Kawneer Logo-English
100
AcDbHatch
 10
0.0
 20
0.0
 30
0.0
210
0.0
220
0.0
230
1.0
  2
SOLID
 70
     1
 71
     0
 91
        2
 92
       16
 93
       76
 72
     1
 10
1.358402087941634
 20
0.1650709309046659
 11
1.358402087941634
 21
0.16796273593162
 72
     1
 10
1.358402087941634
 20
0.1679627359316202
 11
1.358402087941634
 21
0.1729067896873803
 72
     1
 10
1.358402087941634
 20
0.1729067896873803
 11
1.358402087941634
 21
0.1791568199069267
 72
     1
 10
1.358402087941634
 20
0.1791568199069267
 11
1.358402087941634
 21
0.1861531223914932
 72
     1
 10
1.358402087941634
 20
0.186153122391493
 11
1.358402087941634
 21
0.1931494248760595
 72
     1
 10
1.358402087941634
 20
0.1931494248760596
 11
1.358402087941634
 21
0.1994927391287338
 72
     1
 10
1.358402087941634
 20
0.1994927391287336
 11
1.358402087941634
 21
0.2044367928844937
 72
     1
 10
1.358402087941634
 20
0.2044367928844937
 11
1.358402087941634
 21
0.2072353138783208
 72
     1
 10
1.358402087941634
 20
0.2072353138783208
 11
1.359894632471676
 21
0.2072353138783208
 72
     1
 10
1.359894632471676
 20
0.2072353138783208
 11
1.362693153465502
 21
0.2072353138783208
 72
     1
 10
1.362693153465502
 20
0.2072353138783208
 11
1.366424514790605
 21
0.2072353138783208
 72
     1
 10
1.366424514790606
 20
0.2072353138783208
 11
1.371088716446983
 21
0.2072353138783208
 72
     1
 10
1.371088716446982
 20
0.2072353138783208
 11
1.376405906335254
 21
0.2072353138783208
 72
     1
 10
1.376405906335254
 20
0.2072353138783208
 11
1.382282800422289
 21
0.2072353138783208
 72
     1
 10
1.38228280042229
 20
0.2072353138783208
 11
1.388346262575581
 21
0.2072353138783208
 72
     1
 10
1.388346262575579
 20
0.2072353138783208
 11
1.394596292795125
 21
0.2072353138783208
 72
     1
 10
1.394596292795125
 20
0.2072353138783208
 11
1.400753038981545
 21
0.2072353138783208
 72
     1
 10
1.400753038981546
 20
0.2072353138783208
 11
1.406723217101709
 21
0.2072353138783208
 72
     1
 10
1.406723217101708
 20
0.2072353138783208
 11
1.412320259089362
 21
0.2072353138783208
 72
     1
 10
1.412320259089362
 20
0.2072353138783208
 11
1.417264312845122
 21
0.2072353138783208
 72
     1
 10
1.417264312845123
 20
0.2072353138783208
 11
1.421368810302735
 21
0.2072353138783208
 72
     1
 10
1.421368810302734
 20
0.2072353138783208
 11
1.424540467429071
 21
0.2072353138783208
 72
     1
 10
1.424540467429072
 20
0.2072353138783208
 11
1.426592716157878
 21
0.2072353138783208
 72
     1
 10
1.426592716157878
 20
0.2072353138783208
 11
1.427338988422898
 21
0.2072353138783208
 72
     1
 10
1.427338988422898
 20
0.2072353138783208
 11
1.430977065714873
 21
0.207142029845193
 72
     1
 10
1.430977065714872
 20
0.207142029845193
 11
1.434335290907465
 21
0.2068621777458102
 72
     1
 10
1.434335290907465
 20
0.2068621777458102
 11
1.435921119470633
 21
0.2066756096795552
 72
     1
 10
1.435921119470633
 20
0.206675609679555
 11
1.437413664000673
 21
0.2063957575801723
 72
     1
 10
1.437413664000674
 20
0.2063957575801723
 11
1.438906208530714
 21
0.2061159054807895
 72
     1
 10
1.438906208530714
 20
0.2061159054807898
 11
1.440398753060756
 21
0.2056494853151523
 72
     1
 10
1.440398753060756
 20
0.2056494853151521
 11
1.441704729524542
 21
0.2050897811163865
 72
     1
 10
1.441704729524542
 20
0.2050897811163866
 11
1.443010705988328
 21
0.204530076917621
 72
     1
 10
1.443010705988329
 20
0.204530076917621
 11
1.444223398418986
 21
0.2036905206194736
 72
     1
 10
1.444223398418985
 20
0.2036905206194736
 11
1.445436090849643
 21
0.2028509643213252
 72
     1
 10
1.445436090849643
 20
0.2028509643213252
 11
1.446555499247174
 21
0.2018248399569224
 72
     1
 10
1.446555499247173
 20
0.2018248399569223
 11
1.447581623611576
 21
0.2007054315593917
 72
     1
 10
1.447581623611578
 20
0.2007054315593915
 11
1.448607747975981
 21
0.1993061710624781
 72
     1
 10
1.448607747975981
 20
0.1993061710624781
 11
1.449540588307258
 21
0.1978136265324374
 72
     1
 10
1.449540588307256
 20
0.1978136265324373
 11
1.450380144605403
 21
0.1961345139361415
 72
     1
 10
1.450380144605404
 20
0.1961345139361415
 11
1.451126416870426
 21
0.1944554013398453
 72
     1
 10
1.451126416870426
 20
0.1944554013398454
 11
1.451592837036063
 21
0.1929628568098046
 72
     1
 10
1.451592837036062
 20
0.1929628568098046
 11
1.451965973168573
 21
0.1913770282466361
 72
     1
 10
1.451965973168574
 20
0.1913770282466361
 11
1.452245825267955
 21
0.1899777677497231
 72
     1
 10
1.452245825267954
 20
0.1899777677497231
 11
1.452432393334211
 21
0.188671791285937
 72
     1
 10
1.452432393334211
 20
0.1886717912859369
 11
1.452432393334211
 21
0.1874590988552789
 72
     1
 10
1.452432393334211
 20
0.1874590988552789
 11
1.452525677367338
 21
0.1863396904577482
 72
     1
 10
1.452525677367337
 20
0.1863396904577481
 11
1.452432393334211
 21
0.1844740097951972
 72
     1
 10
1.452432393334211
 20
0.1844740097951974
 11
1.452245825267955
 21
0.1827948971989012
 72
     1
 10
1.452245825267954
 20
0.1827948971989009
 11
1.451872689135445
 21
0.1810225005694773
 72
     1
 10
1.451872689135446
 20
0.1810225005694774
 11
1.451406268969809
 21
0.1794366720063093
 72
     1
 10
1.451406268969809
 20
0.1794366720063094
 11
1.450846564771043
 21
0.1779441274762682
 72
     1
 10
1.450846564771041
 20
0.1779441274762681
 11
1.450100292506021
 21
0.1764515829462274
 72
     1
 10
1.450100292506023
 20
0.1764515829462275
 11
1.449260736207875
 21
0.1750523224493141
 72
     1
 10
1.449260736207873
 20
0.1750523224493139
 11
1.448327895876597
 21
0.1737463459855283
 72
     1
 10
1.448327895876596
 20
0.1737463459855281
 11
1.44702191941281
 21
0.1723470854886151
 72
     1
 10
1.447021919412811
 20
0.1723470854886151
 11
1.445715942949025
 21
0.1711343930579568
 72
     1
 10
1.445715942949026
 20
0.1711343930579568
 11
1.444316682452114
 21
0.1700149846604262
 72
     1
 10
1.444316682452114
 20
0.1700149846604259
 11
1.442824137922072
 21
0.168988860296023
 72
     1
 10
1.442824137922072
 20
0.168988860296023
 11
1.441238309358904
 21
0.1682425880310024
 72
     1
 10
1.441238309358902
 20
0.1682425880310024
 11
1.439559196762608
 21
0.1674963157659821
 72
     1
 10
1.439559196762608
 20
0.1674963157659822
 11
1.437880084166311
 21
0.1669366115672166
 72
     1
 10
1.437880084166311
 20
0.1669366115672167
 11
1.436107687536888
 21
0.1664701914015788
 72
     1
 10
1.436107687536888
 20
0.1664701914015789
 11
1.434242006874337
 21
0.166003771235941
 72
     1
 10
1.434242006874337
 20
0.1660037712359412
 11
1.432376326211786
 21
0.1657239191365588
 72
     1
 10
1.432376326211785
 20
0.1657239191365585
 11
1.430417361516107
 21
0.1655373510703035
 72
     1
 10
1.430417361516108
 20
0.1655373510703037
 11
1.428458396820429
 21
0.1653507830040482
 72
     1
 10
1.428458396820428
 20
0.1653507830040482
 11
1.424353899362817
 21
0.1651642149377932
 72
     1
 10
1.424353899362817
 20
0.1651642149377932
 11
1.420156117872077
 21
0.1650709309046658
 72
     1
 10
1.420156117872076
 20
0.1650709309046659
 11
1.41773073301076
 21
0.1650709309046659
 72
     1
 10
1.417730733010761
 20
0.1650709309046659
 11
1.411107566658704
 21
0.1650709309046659
 72
     1
 10
1.411107566658702
 20
0.1650709309046659
 11
1.401779163345947
 21
0.1650709309046659
 72
     1
 10
1.401779163345949
 20
0.1650709309046659
 11
1.390958215503152
 21
0.1650709309046659
 72
     1
 10
1.390958215503152
 20
0.1650709309046659
 11
1.379950699594101
 21
0.1650709309046659
 72
     1
 10
1.379950699594099
 20
0.1650709309046659
 11
1.369969308049451
 21
0.1650709309046659
 72
     1
 10
1.369969308049451
 20
0.1650709309046659
 11
1.362320017332992
 21
0.1650709309046659
 72
     1
 10
1.362320017332992
 20
0.1650709309046659
 11
1.358402087941635
 21
0.1650709309046659
 97
        0
 92
        1
 93
      107
 72
     1
 10
1.443756978253348
 20
0.1485596570410883
 11
1.446928635379685
 21
0.1492126452729816
 72
     1
 10
1.446928635379685
 20
0.1492126452729817
 11
1.449540588307256
 21
0.1498656335048746
 72
     1
 10
1.449540588307256
 20
0.1498656335048745
 11
1.451872689135445
 21
0.1506119057698948
 72
     1
 10
1.451872689135446
 20
0.1506119057698946
 11
1.45401822189738
 21
0.1514514620680426
 72
     1
 10
1.45401822189738
 20
0.1514514620680425
 11
1.455883902559929
 21
0.1521977343330632
 72
     1
 10
1.455883902559929
 20
0.1521977343330631
 11
1.457563015156225
 21
0.1530372906312111
 72
     1
 10
1.457563015156225
 20
0.1530372906312111
 11
1.459148843719394
 21
0.1539701309624869
 72
     1
 10
1.459148843719394
 20
0.1539701309624866
 11
1.460641388249434
 21
0.1549029712937624
 72
     1
 10
1.460641388249434
 20
0.1549029712937622
 11
1.462133932779476
 21
0.155835811625038
 72
     1
 10
1.462133932779476
 20
0.155835811625038
 11
1.463439909243262
 21
0.1568619359894408
 72
     1
 10
1.463439909243262
 20
0.1568619359894408
 11
1.464745885707048
 21
0.1579813443869714
 72
     1
 10
1.464745885707047
 20
0.1579813443869716
 11
1.465865294104579
 21
0.1591007527845022
 72
     1
 10
1.465865294104579
 20
0.1591007527845025
 11
1.466984702502109
 21
0.1602201611820331
 72
     1
 10
1.466984702502108
 20
0.1602201611820328
 11
1.468010826866511
 21
0.1613395695795634
 72
     1
 10
1.468010826866511
 20
0.1613395695795637
 11
1.468943667197788
 21
0.1625522620102216
 72
     1
 10
1.468943667197788
 20
0.1625522620102216
 11
1.469876507529063
 21
0.1636716704077522
 72
     1
 10
1.469876507529063
 20
0.1636716704077524
 11
1.470622779794084
 21
0.1648843628384107
 72
     1
 10
1.470622779794084
 20
0.1648843628384107
 11
1.471462336092232
 21
0.1661903393021964
 72
     1
 10
1.471462336092232
 20
0.1661903393021967
 11
1.472115324324125
 21
0.1674030317328546
 72
     1
 10
1.472115324324124
 20
0.1674030317328546
 11
1.472768312556016
 21
0.1686157241635125
 72
     1
 10
1.472768312556017
 20
0.1686157241635125
 11
1.473328016754783
 21
0.1699217006272986
 72
     1
 10
1.473328016754782
 20
0.1699217006272989
 11
1.47379443692042
 21
0.1711343930579568
 72
     1
 10
1.47379443692042
 20
0.1711343930579568
 11
1.474260857086057
 21
0.1724403695217425
 72
     1
 10
1.474260857086058
 20
0.1724403695217424
 11
1.474727277251697
 21
0.1736530619524008
 72
     1
 10
1.474727277251697
 20
0.173653061952401
 11
1.475380265483589
 21
0.1760784468137175
 72
     1
 10
1.475380265483588
 20
0.1760784468137173
 11
1.475846685649225
 21
0.1785038316750338
 72
     1
 10
1.475846685649226
 20
0.1785038316750335
 11
1.476219821781737
 21
0.1808359325032223
 72
     1
 10
1.476219821781738
 20
0.1808359325032223
 11
1.47649967388112
 21
0.1830747492982838
 72
     1
 10
1.47649967388112
 20
0.1830747492982838
 11
1.476592957914248
 21
0.1851269980270901
 72
     1
 10
1.476592957914248
 20
0.1851269980270902
 11
1.476686241947374
 21
0.1870859627227688
 72
     1
 10
1.476686241947375
 20
0.1870859627227687
 11
1.476592957914249
 21
0.1888583593521923
 72
     1
 10
1.476592957914248
 20
0.1888583593521922
 11
1.476499673881119
 21
0.1906307559816158
 72
     1
 10
1.47649967388112
 20
0.1906307559816159
 11
1.476406389847991
 21
0.1924031526110394
 72
     1
 10
1.476406389847991
 20
0.1924031526110394
 11
1.476126537748608
 21
0.1940822652073352
 72
     1
 10
1.476126537748608
 20
0.1940822652073352
 11
1.475846685649226
 21
0.195761377803631
 72
     1
 10
1.475846685649226
 20
0.1957613778036309
 11
1.475566833549843
 21
0.1974404903999272
 72
     1
 10
1.475566833549843
 20
0.1974404903999272
 11
1.475100413384206
 21
0.1990263189630953
 72
     1
 10
1.475100413384205
 20
0.1990263189630952
 11
1.474633993218568
 21
0.2006121475262637
 72
     1
 10
1.474633993218568
 20
0.2006121475262639
 11
1.47416757305293
 21
0.2021046920563051
 72
     1
 10
1.474167573052932
 20
0.2021046920563049
 11
1.473514584821038
 21
0.2035972365863457
 72
     1
 10
1.473514584821037
 20
0.2035972365863459
 11
1.472954880622271
 21
0.2050897811163867
 72
     1
 10
1.472954880622272
 20
0.2050897811163866
 11
1.472208608357252
 21
0.2064890416133
 72
     1
 10
1.472208608357252
 20
0.2064890416133001
 11
1.471462336092232
 21
0.2078883021102135
 72
     1
 10
1.471462336092232
 20
0.2078883021102136
 11
1.470622779794083
 21
0.2091942785739993
 72
     1
 10
1.470622779794084
 20
0.2091942785739991
 11
1.469783223495935
 21
0.2105002550377848
 72
     1
 10
1.469783223495934
 20
0.2105002550377851
 11
1.468850383164659
 21
0.2118062315015707
 72
     1
 10
1.468850383164661
 20
0.2118062315015709
 11
1.467917542833386
 21
0.2130189239322288
 72
     1
 10
1.467917542833385
 20
0.2130189239322289
 11
1.466891418468982
 21
0.2141383323297595
 72
     1
 10
1.466891418468982
 20
0.2141383323297595
 11
1.465772010071451
 21
0.2153510247604178
 72
     1
 10
1.46577201007145
 20
0.215351024760418
 11
1.464652601673919
 21
0.2163771491248209
 72
     1
 10
1.46465260167392
 20
0.2163771491248209
 11
1.463533193276389
 21
0.2174032734892238
 72
     1
 10
1.463533193276389
 20
0.2174032734892238
 11
1.462227216812603
 21
0.2184293978536266
 72
     1
 10
1.462227216812602
 20
0.2184293978536266
 11
1.461014524381945
 21
0.2193622381849024
 72
     1
 10
1.461014524381946
 20
0.2193622381849023
 11
1.459615263885032
 21
0.2202950785161781
 72
     1
 10
1.459615263885031
 20
0.2202950785161782
 11
1.458309287421245
 21
0.2211346348143262
 72
     1
 10
1.458309287421246
 20
0.221134634814326
 11
1.456816742891206
 21
0.221974191112474
 72
     1
 10
1.456816742891206
 20
0.2219741911124738
 11
1.455417482394292
 21
0.2227204633774945
 72
     1
 10
1.455417482394291
 20
0.2227204633774944
 11
1.453831653831122
 21
0.2233734516093874
 72
     1
 10
1.453831653831123
 20
0.2233734516093873
 11
1.452339109301082
 21
0.2240264398412803
 72
     1
 10
1.452339109301082
 20
0.2240264398412803
 11
1.450659996704785
 21
0.2245861440400459
 72
     1
 10
1.450659996704787
 20
0.2245861440400457
 11
1.44907416814162
 21
0.2251458482388108
 72
     1
 10
1.449074168141619
 20
0.2251458482388109
 11
1.447301771512194
 21
0.2256122684044489
 72
     1
 10
1.447301771512194
 20
0.2256122684044488
 11
1.445249522783388
 21
0.2261719726032139
 72
     1
 10
1.445249522783388
 20
0.226171972603214
 11
1.44329055808771
 21
0.2265451087357246
 72
     1
 10
1.443290558087712
 20
0.2265451087357244
 11
1.441145025325778
 21
0.2269182448682345
 72
     1
 10
1.441145025325776
 20
0.2269182448682345
 11
1.438906208530714
 21
0.2271980969676173
 72
     1
 10
1.438906208530714
 20
0.2271980969676173
 11
1.436387539636271
 21
0.2273846650338724
 72
     1
 10
1.436387539636271
 20
0.2273846650338724
 11
1.433495734609316
 21
0.2275712331001274
 72
     1
 10
1.433495734609317
 20
0.2275712331001274
 11
1.430044225383597
 21
0.2276645171332552
 72
     1
 10
1.430044225383597
 20
0.2276645171332549
 11
1.42612629599224
 21
0.2277578011663822
 72
     1
 10
1.42612629599224
 20
0.2277578011663825
 11
1.426033011959112
 21
0.2277578011663825
 72
     1
 10
1.426033011959111
 20
0.2277578011663825
 11
1.33489451159349
 21
0.2277578011663825
 72
     1
 10
1.334894511593491
 20
0.2277578011663825
 11
1.334894511593491
 21
0.0926825211976832
 72
     1
 10
1.334894511593491
 20
0.0926825211976832
 11
1.358588656007891
 21
0.0926825211976832
 72
     1
 10
1.358588656007891
 20
0.0926825211976832
 11
1.358588656007891
 21
0.0947347699264896
 72
     1
 10
1.358588656007891
 20
0.0947347699264896
 11
1.358588656007891
 21
0.1001452438478876
 72
     1
 10
1.358588656007891
 20
0.1001452438478875
 11
1.358588656007891
 21
0.1079811026306024
 72
     1
 10
1.358588656007891
 20
0.1079811026306024
 11
1.358588656007891
 21
0.1170296538439752
 72
     1
 10
1.358588656007891
 20
0.1170296538439753
 11
1.358588656007891
 21
0.1262647731236032
 72
     1
 10
1.358588656007891
 20
0.1262647731236031
 11
1.358588656007891
 21
0.1347536201382103
 72
     1
 10
1.358588656007891
 20
0.1347536201382104
 11
1.358588656007891
 21
0.1412835024571394
 72
     1
 10
1.358588656007891
 20
0.1412835024571393
 11
1.358588656007891
 21
0.1448282957159864
 72
     1
 10
1.358588656007891
 20
0.1448282957159865
 11
1.362320017332992
 21
0.1448282957159865
 72
     1
 10
1.362320017332992
 20
0.1448282957159865
 11
1.369409603850688
 21
0.1448282957159865
 72
     1
 10
1.369409603850688
 20
0.1448282957159865
 11
1.378738007163443
 21
0.1448282957159865
 72
     1
 10
1.378738007163443
 20
0.1448282957159865
 11
1.388999250807475
 21
0.1448282957159865
 72
     1
 10
1.388999250807473
 20
0.1448282957159865
 11
1.399260494451505
 21
0.1448282957159865
 72
     1
 10
1.399260494451506
 20
0.1448282957159865
 11
1.408215761631749
 21
0.1448282957159865
 72
     1
 10
1.408215761631748
 20
0.1448282957159865
 11
1.414745643950677
 21
0.1448282957159865
 72
     1
 10
1.414745643950678
 20
0.1448282957159865
 11
1.41773073301076
 21
0.1448282957159865
 72
     1
 10
1.417730733010761
 20
0.1448282957159865
 11
1.420062833838949
 21
0.1420297747221594
 72
     1
 10
1.420062833838949
 20
0.1420297747221597
 11
1.425193455660966
 21
0.1359663125688683
 72
     1
 10
1.425193455660965
 20
0.1359663125688683
 11
1.432283042178659
 21
0.1275707495873888
 72
     1
 10
1.432283042178659
 20
0.1275707495873886
 11
1.440305469027628
 21
0.1180557782083779
 72
     1
 10
1.440305469027629
 20
0.1180557782083781
 11
1.448234611843471
 21
0.1087273748956225
 72
     1
 10
1.448234611843471
 20
0.1087273748956225
 11
1.455044346261782
 21
0.1006116640135252
 72
     1
 10
1.455044346261782
 20
0.1006116640135252
 11
1.459895115984414
 21
0.0948280539596167
 72
     1
 10
1.459895115984414
 20
0.0948280539596169
 11
1.461760796646965
 21
0.0926825211976832
 72
     1
 10
1.461760796646967
 20
0.0926825211976832
 11
1.49254452757906
 21
0.0926825211976832
 72
     1
 10
1.492544527579059
 20
0.0926825211976832
 11
1.490678846916508
 21
0.0948280539596169
 72
     1
 10
1.490678846916508
 20
0.0948280539596169
 11
1.48564150912762
 21
0.100518379980398
 72
     1
 10
1.48564150912762
 20
0.1005183799803981
 11
1.478458638576797
 21
0.1088206589287502
 72
     1
 10
1.478458638576798
 20
0.1088206589287502
 11
1.470063075595318
 21
0.1183356303077609
 72
     1
 10
1.470063075595317
 20
0.118335630307761
 11
1.461480944547582
 21
0.1282237378192818
 72
     1
 10
1.461480944547582
 20
0.1282237378192818
 11
1.453551801731739
 21
0.1372722890326546
 72
     1
 10
1.45355180173174
 20
0.1372722890326546
 11
1.447395055545323
 21
0.1444551595834761
 72
     1
 10
1.447395055545323
 20
0.1444551595834759
 11
1.443756978253349
 21
0.1485596570410882
 97
        0
 75
     0
 76
     1
 98
        1
 10
-0.3743130907707726
 20
-0.2500502867693841
1001
ACAD
1010
0.0
1020
0.0
1030
0.0
  0
HATCH
  5
6C93
330
6C8E
100
AcDbEntity
  8
Kawneer Logo-English
100
AcDbHatch
 10
0.0
 20
0.0
 30
0.0
210
0.0
220
0.0
230
1.0
  2
SOLID
 70
     1
 71
     0
 91
        1
 92
        1
 93
       87
 72
     1
 10
1.205602841678699
 20
0.1525708704655737
 11
1.207468522341251
 21
0.1525708704655737
 72
     1
 10
1.207468522341252
 20
0.1525708704655737
 11
1.211199883666355
 21
0.1525708704655737
 72
     1
 10
1.211199883666355
 20
0.1525708704655737
 11
1.216517073554626
 21
0.1525708704655737
 72
     1
 10
1.216517073554626
 20
0.1525708704655737
 11
1.223046955873555
 21
0.1525708704655737
 72
     1
 10
1.223046955873553
 20
0.1525708704655737
 11
1.230602962556885
 21
0.1525708704655737
 72
     1
 10
1.230602962556885
 20
0.1525708704655737
 11
1.238998525538365
 21
0.1525708704655737
 72
     1
 10
1.238998525538365
 20
0.1525708704655737
 11
1.247767224652354
 21
0.1525708704655737
 72
     1
 10
1.247767224652355
 20
0.1525708704655737
 11
1.256815775865728
 21
0.1525708704655737
 72
     1
 10
1.256815775865729
 20
0.1525708704655737
 11
1.265771043045974
 21
0.1525708704655737
 72
     1
 10
1.265771043045973
 20
0.1525708704655737
 11
1.274446458126836
 21
0.1525708704655737
 72
     1
 10
1.274446458126837
 20
0.1525708704655737
 11
1.282562169008935
 21
0.1525708704655737
 72
     1
 10
1.282562169008935
 20
0.1525708704655737
 11
1.289745039559756
 21
0.1525708704655737
 72
     1
 10
1.289745039559755
 20
0.1525708704655737
 11
1.295808501713046
 21
0.1525708704655737
 72
     1
 10
1.295808501713046
 20
0.1525708704655737
 11
1.300472703369423
 21
0.1525708704655737
 72
     1
 10
1.300472703369423
 20
0.1525708704655737
 11
1.303457792429505
 21
0.1525708704655737
 72
     1
 10
1.303457792429505
 20
0.1525708704655737
 11
1.304483916793908
 21
0.1525708704655737
 72
     1
 10
1.304483916793908
 20
0.1525708704655737
 11
1.304483916793908
 21
0.1730000737205081
 72
     1
 10
1.304483916793908
 20
0.1730000737205078
 11
1.303457792429505
 21
0.1730000737205078
 72
     1
 10
1.303457792429505
 20
0.1730000737205078
 11
1.300472703369423
 21
0.1730000737205078
 72
     1
 10
1.300472703369423
 20
0.1730000737205078
 11
1.295808501713045
 21
0.1730000737205078
 72
     1
 10
1.295808501713046
 20
0.1730000737205078
 11
1.289745039559754
 21
0.1730000737205078
 72
     1
 10
1.289745039559755
 20
0.1730000737205078
 11
1.282562169008934
 21
0.1730000737205078
 72
     1
 10
1.282562169008935
 20
0.1730000737205078
 11
1.274446458126837
 21
0.1730000737205078
 72
     1
 10
1.274446458126837
 20
0.1730000737205078
 11
1.265771043045975
 21
0.1730000737205078
 72
     1
 10
1.265771043045973
 20
0.1730000737205078
 11
1.256815775865728
 21
0.1730000737205078
 72
     1
 10
1.256815775865729
 20
0.1730000737205078
 11
1.247767224652355
 21
0.1730000737205078
 72
     1
 10
1.247767224652355
 20
0.1730000737205078
 11
1.238998525538365
 21
0.1730000737205078
 72
     1
 10
1.238998525538365
 20
0.1730000737205078
 11
1.230602962556885
 21
0.1730000737205078
 72
     1
 10
1.230602962556885
 20
0.1730000737205078
 11
1.223046955873553
 21
0.1730000737205078
 72
     1
 10
1.223046955873553
 20
0.1730000737205078
 11
1.216517073554625
 21
0.1730000737205078
 72
     1
 10
1.216517073554626
 20
0.1730000737205078
 11
1.211199883666355
 21
0.1730000737205078
 72
     1
 10
1.211199883666355
 20
0.1730000737205078
 11
1.207468522341252
 21
0.1730000737205078
 72
     1
 10
1.207468522341252
 20
0.1730000737205078
 11
1.205602841678701
 21
0.1730000737205078
 72
     1
 10
1.205602841678699
 20
0.1730000737205078
 11
1.205602841678699
 21
0.1754254585818243
 72
     1
 10
1.205602841678699
 20
0.1754254585818245
 11
1.205602841678699
 21
0.1794366720063095
 72
     1
 10
1.205602841678699
 20
0.1794366720063094
 11
1.205602841678699
 21
0.1843807257620694
 72
     1
 10
1.205602841678699
 20
0.1843807257620694
 11
1.205602841678699
 21
0.1898844837165951
 72
     1
 10
1.205602841678699
 20
0.1898844837165951
 11
1.205602841678699
 21
0.1952949576379935
 72
     1
 10
1.205602841678699
 20
0.1952949576379937
 11
1.205602841678699
 21
0.2003322954268815
 72
     1
 10
1.205602841678699
 20
0.2003322954268814
 11
1.205602841678699
 21
0.2042502248182386
 72
     1
 10
1.205602841678699
 20
0.2042502248182386
 11
1.205602841678699
 21
0.206675609679555
 72
     1
 10
1.205602841678699
 20
0.206675609679555
 11
1.207468522341251
 21
0.206675609679555
 72
     1
 10
1.207468522341252
 20
0.206675609679555
 11
1.211293167699483
 21
0.206675609679555
 72
     1
 10
1.211293167699483
 20
0.206675609679555
 11
1.21670364162088
 21
0.206675609679555
 72
     1
 10
1.216703641620879
 20
0.206675609679555
 11
1.223420092006063
 21
0.206675609679555
 72
     1
 10
1.223420092006064
 20
0.206675609679555
 11
1.231255950788778
 21
0.206675609679555
 72
     1
 10
1.231255950788778
 20
0.206675609679555
 11
1.239744797803386
 21
0.206675609679555
 72
     1
 10
1.239744797803385
 20
0.206675609679555
 11
1.248886633049885
 21
0.206675609679555
 72
     1
 10
1.248886633049885
 20
0.206675609679555
 11
1.258121752329513
 21
0.206675609679555
 72
     1
 10
1.258121752329514
 20
0.206675609679555
 11
1.267356871609143
 21
0.206675609679555
 72
     1
 10
1.267356871609142
 20
0.206675609679555
 11
1.276218854756259
 21
0.206675609679555
 72
     1
 10
1.276218854756259
 20
0.206675609679555
 11
1.284521133704611
 21
0.206675609679555
 72
     1
 10
1.284521133704611
 20
0.206675609679555
 11
1.291890572321688
 21
0.206675609679555
 72
     1
 10
1.291890572321688
 20
0.206675609679555
 11
1.298140602541234
 21
0.206675609679555
 72
     1
 10
1.298140602541234
 20
0.206675609679555
 11
1.30289808823074
 21
0.206675609679555
 72
     1
 10
1.30289808823074
 20
0.206675609679555
 11
1.305976461323949
 21
0.206675609679555
 72
     1
 10
1.305976461323949
 20
0.206675609679555
 11
1.30709586972148
 21
0.206675609679555
 72
     1
 10
1.307095869721479
 20
0.206675609679555
 11
1.307095869721479
 21
0.2277578011663822
 72
     1
 10
1.307095869721479
 20
0.2277578011663825
 11
1.304577200827036
 21
0.2277578011663825
 72
     1
 10
1.304577200827037
 20
0.2277578011663825
 11
1.182188549363684
 21
0.2277578011663825
 72
     1
 10
1.182188549363684
 20
0.2277578011663825
 11
1.182188549363684
 21
0.0926825211976832
 72
     1
 10
1.182188549363684
 20
0.0926825211976832
 11
1.311853355410986
 21
0.0926825211976832
 72
     1
 10
1.311853355410985
 20
0.0926825211976832
 11
1.311853355410985
 21
0.113671428651383
 72
     1
 10
1.311853355410985
 20
0.1136714286513832
 11
1.310733947013454
 21
0.1136714286513832
 72
     1
 10
1.310733947013455
 20
0.1136714286513832
 11
1.307469005853991
 21
0.1136714286513832
 72
     1
 10
1.307469005853991
 20
0.1136714286513832
 11
1.302431668065102
 21
0.1136714286513832
 72
     1
 10
1.302431668065103
 20
0.1136714286513832
 11
1.295901785746174
 21
0.1136714286513832
 72
     1
 10
1.295901785746174
 20
0.1136714286513832
 11
1.288159210996586
 21
0.1136714286513832
 72
     1
 10
1.288159210996587
 20
0.1136714286513832
 11
1.279483795915724
 21
0.1136714286513832
 72
     1
 10
1.279483795915723
 20
0.1136714286513832
 11
1.270155392602968
 21
0.1136714286513832
 72
     1
 10
1.270155392602969
 20
0.1136714286513832
 11
1.260547137190832
 21
0.1136714286513832
 72
     1
 10
1.260547137190831
 20
0.1136714286513832
 11
1.250752313712437
 21
0.1136714286513832
 72
     1
 10
1.250752313712437
 20
0.1136714286513832
 11
1.241330626366554
 21
0.1136714286513832
 72
     1
 10
1.241330626366555
 20
0.1136714286513832
 11
1.23237535918631
 21
0.1136714286513832
 72
     1
 10
1.232375359186308
 20
0.1136714286513832
 11
1.224166364271082
 21
0.1136714286513832
 72
     1
 10
1.224166364271083
 20
0.1136714286513832
 11
1.217170061786517
 21
0.1136714286513832
 72
     1
 10
1.217170061786517
 20
0.1136714286513832
 11
1.211479735765737
 21
0.1136714286513832
 72
     1
 10
1.211479735765737
 20
0.1136714286513832
 11
1.20756180637438
 21
0.1136714286513832
 72
     1
 10
1.207561806374379
 20
0.1136714286513832
 11
1.2056028416787
 21
0.1136714286513832
 72
     1
 10
1.205602841678699
 20
0.1136714286513832
 11
1.205602841678699
 21
0.1163766656120825
 72
     1
 10
1.205602841678699
 20
0.1163766656120823
 11
1.205602841678699
 21
0.1209475832353323
 72
     1
 10
1.205602841678699
 20
0.1209475832353325
 11
1.205602841678699
 21
0.1267311932892411
 72
     1
 10
1.205602841678699
 20
0.1267311932892408
 11
1.205602841678699
 21
0.1330745075419143
 72
     1
 10
1.205602841678699
 20
0.1330745075419144
 11
1.205602841678699
 21
0.1395111058277156
 72
     1
 10
1.205602841678699
 20
0.1395111058277158
 11
1.205602841678699
 21
0.1452947158816239
 72
     1
 10
1.205602841678699
 20
0.145294715881624
 11
1.205602841678699
 21
0.1498656335048746
 72
     1
 10
1.205602841678699
 20
0.1498656335048745
 11
1.205602841678699
 21
0.1525708704655738
 97
        0
 75
     0
 76
     1
 98
        1
 10
-0.3743130907707726
 20
-0.2500502867693841
1001
ACAD
1010
0.0
1020
0.0
1030
0.0
  0
HATCH
  5
6C94
330
6C8E
100
AcDbEntity
  8
Kawneer Logo-English
100
AcDbHatch
 10
0.0
 20
0.0
 30
0.0
210
0.0
220
0.0
230
1.0
  2
SOLID
 70
     1
 71
     0
 91
        1
 92
        1
 93
       87
 72
     1
 10
1.049352086190046
 20
0.1525708704655737
 11
1.051217766852597
 21
0.1525708704655737
 72
     1
 10
1.051217766852596
 20
0.1525708704655737
 11
1.054949128177699
 21
0.1525708704655737
 72
     1
 10
1.0549491281777
 20
0.1525708704655737
 11
1.060173034032843
 21
0.1525708704655737
 72
     1
 10
1.060173034032843
 20
0.1525708704655737
 11
1.0667962003849
 21
0.1525708704655737
 72
     1
 10
1.0667962003849
 20
0.1525708704655737
 11
1.074352207068231
 21
0.1525708704655737
 72
     1
 10
1.074352207068232
 20
0.1525708704655737
 11
1.082747770049711
 21
0.1525708704655737
 72
     1
 10
1.082747770049711
 20
0.1525708704655737
 11
1.0915164691637
 21
0.1525708704655737
 72
     1
 10
1.091516469163701
 20
0.1525708704655737
 11
1.100565020377075
 21
0.1525708704655737
 72
     1
 10
1.100565020377073
 20
0.1525708704655737
 11
1.109520287557319
 21
0.1525708704655737
 72
     1
 10
1.10952028755732
 20
0.1525708704655737
 11
1.118195702638183
 21
0.1525708704655737
 72
     1
 10
1.118195702638182
 20
0.1525708704655737
 11
1.126218129487151
 21
0.1525708704655737
 72
     1
 10
1.126218129487152
 20
0.1525708704655737
 11
1.133401000037974
 21
0.1525708704655737
 72
     1
 10
1.133401000037974
 20
0.1525708704655737
 11
1.139557746224391
 21
0.1525708704655737
 72
     1
 10
1.139557746224392
 20
0.1525708704655737
 11
1.14422194788077
 21
0.1525708704655737
 72
     1
 10
1.144221947880769
 20
0.1525708704655737
 11
1.147207036940851
 21
0.1525708704655737
 72
     1
 10
1.147207036940852
 20
0.1525708704655737
 11
1.148233161305255
 21
0.1525708704655737
 72
     1
 10
1.148233161305255
 20
0.1525708704655737
 11
1.148233161305255
 21
0.1730000737205081
 72
     1
 10
1.148233161305255
 20
0.1730000737205078
 11
1.147207036940852
 21
0.1730000737205078
 72
     1
 10
1.147207036940852
 20
0.1730000737205078
 11
1.14422194788077
 21
0.1730000737205078
 72
     1
 10
1.144221947880769
 20
0.1730000737205078
 11
1.139557746224391
 21
0.1730000737205078
 72
     1
 10
1.139557746224392
 20
0.1730000737205078
 11
1.133494284071101
 21
0.1730000737205078
 72
     1
 10
1.133494284071101
 20
0.1730000737205078
 11
1.126218129487152
 21
0.1730000737205078
 72
     1
 10
1.126218129487152
 20
0.1730000737205078
 11
1.118195702638183
 21
0.1730000737205078
 72
     1
 10
1.118195702638182
 20
0.1730000737205078
 11
1.10952028755732
 21
0.1730000737205078
 72
     1
 10
1.10952028755732
 20
0.1730000737205078
 11
1.100565020377074
 21
0.1730000737205078
 72
     1
 10
1.100565020377073
 20
0.1730000737205078
 11
1.0915164691637
 21
0.1730000737205078
 72
     1
 10
1.091516469163701
 20
0.1730000737205078
 11
1.082747770049712
 21
0.1730000737205078
 72
     1
 10
1.082747770049711
 20
0.1730000737205078
 11
1.074352207068231
 21
0.1730000737205078
 72
     1
 10
1.074352207068232
 20
0.1730000737205078
 11
1.0667962003849
 21
0.1730000737205078
 72
     1
 10
1.0667962003849
 20
0.1730000737205078
 11
1.060173034032843
 21
0.1730000737205078
 72
     1
 10
1.060173034032843
 20
0.1730000737205078
 11
1.054949128177701
 21
0.1730000737205078
 72
     1
 10
1.0549491281777
 20
0.1730000737205078
 11
1.051217766852597
 21
0.1730000737205078
 72
     1
 10
1.051217766852596
 20
0.1730000737205078
 11
1.049352086190045
 21
0.1730000737205078
 72
     1
 10
1.049352086190046
 20
0.1730000737205078
 11
1.049352086190046
 21
0.1754254585818243
 72
     1
 10
1.049352086190046
 20
0.1754254585818245
 11
1.049352086190046
 21
0.1794366720063095
 72
     1
 10
1.049352086190046
 20
0.1794366720063094
 11
1.049352086190046
 21
0.1843807257620694
 72
     1
 10
1.049352086190046
 20
0.1843807257620694
 11
1.049352086190046
 21
0.1898844837165951
 72
     1
 10
1.049352086190046
 20
0.1898844837165951
 11
1.049352086190046
 21
0.1952949576379935
 72
     1
 10
1.049352086190046
 20
0.1952949576379937
 11
1.049352086190046
 21
0.2003322954268815
 72
     1
 10
1.049352086190046
 20
0.2003322954268814
 11
1.049352086190046
 21
0.2042502248182386
 72
     1
 10
1.049352086190046
 20
0.2042502248182386
 11
1.049352086190046
 21
0.206675609679555
 72
     1
 10
1.049352086190046
 20
0.206675609679555
 11
1.051217766852597
 21
0.206675609679555
 72
     1
 10
1.051217766852596
 20
0.206675609679555
 11
1.055042412210825
 21
0.206675609679555
 72
     1
 10
1.055042412210827
 20
0.206675609679555
 11
1.060452886132226
 21
0.206675609679555
 72
     1
 10
1.060452886132225
 20
0.206675609679555
 11
1.067169336517409
 21
0.206675609679555
 72
     1
 10
1.06716933651741
 20
0.206675609679555
 11
1.075005195300124
 21
0.206675609679555
 72
     1
 10
1.075005195300123
 20
0.206675609679555
 11
1.083494042314731
 21
0.206675609679555
 72
     1
 10
1.083494042314732
 20
0.206675609679555
 11
1.092542593528105
 21
0.206675609679555
 72
     1
 10
1.092542593528106
 20
0.206675609679555
 11
1.10187099684086
 21
0.206675609679555
 72
     1
 10
1.101870996840861
 20
0.206675609679555
 11
1.111106116120489
 21
0.206675609679555
 72
     1
 10
1.111106116120488
 20
0.206675609679555
 11
1.119968099267605
 21
0.206675609679555
 72
     1
 10
1.119968099267605
 20
0.206675609679555
 11
1.128270378215957
 21
0.206675609679555
 72
     1
 10
1.128270378215957
 20
0.206675609679555
 11
1.135639816833034
 21
0.206675609679555
 72
     1
 10
1.135639816833034
 20
0.206675609679555
 11
1.14188984705258
 21
0.206675609679555
 72
     1
 10
1.141889847052581
 20
0.206675609679555
 11
1.146647332742086
 21
0.206675609679555
 72
     1
 10
1.146647332742086
 20
0.206675609679555
 11
1.149725705835295
 21
0.206675609679555
 72
     1
 10
1.149725705835296
 20
0.206675609679555
 11
1.150845114232827
 21
0.206675609679555
 72
     1
 10
1.150845114232826
 20
0.206675609679555
 11
1.150845114232826
 21
0.2277578011663822
 72
     1
 10
1.150845114232826
 20
0.2277578011663825
 11
1.148326445338383
 21
0.2277578011663825
 72
     1
 10
1.148326445338383
 20
0.2277578011663825
 11
1.025937793875031
 21
0.2277578011663825
 72
     1
 10
1.025937793875032
 20
0.2277578011663825
 11
1.025937793875032
 21
0.0926825211976832
 72
     1
 10
1.025937793875032
 20
0.0926825211976832
 11
1.155602599922332
 21
0.0926825211976832
 72
     1
 10
1.155602599922332
 20
0.0926825211976832
 11
1.155602599922332
 21
0.113671428651383
 72
     1
 10
1.155602599922332
 20
0.1136714286513832
 11
1.154483191524801
 21
0.1136714286513832
 72
     1
 10
1.154483191524799
 20
0.1136714286513832
 11
1.151218250365336
 21
0.1136714286513832
 72
     1
 10
1.151218250365338
 20
0.1136714286513832
 11
1.146180912576449
 21
0.1136714286513832
 72
     1
 10
1.146180912576449
 20
0.1136714286513832
 11
1.13965103025752
 21
0.1136714286513832
 72
     1
 10
1.13965103025752
 20
0.1136714286513832
 11
1.131908455507932
 21
0.1136714286513832
 72
     1
 10
1.131908455507931
 20
0.1136714286513832
 11
1.12323304042707
 21
0.1136714286513832
 72
     1
 10
1.123233040427071
 20
0.1136714286513832
 11
1.113904637114314
 21
0.1136714286513832
 72
     1
 10
1.113904637114314
 20
0.1136714286513832
 11
1.104296381702177
 21
0.1136714286513832
 72
     1
 10
1.104296381702177
 20
0.1136714286513832
 11
1.094501558223783
 21
0.1136714286513832
 72
     1
 10
1.094501558223784
 20
0.1136714286513832
 11
1.085079870877901
 21
0.1136714286513832
 72
     1
 10
1.085079870877899
 20
0.1136714286513832
 11
1.076124603697654
 21
0.1136714286513832
 72
     1
 10
1.076124603697655
 20
0.1136714286513832
 11
1.067915608782429
 21
0.1136714286513832
 72
     1
 10
1.067915608782429
 20
0.1136714286513832
 11
1.060919306297863
 21
0.1136714286513832
 72
     1
 10
1.060919306297863
 20
0.1136714286513832
 11
1.055228980277083
 21
0.1136714286513832
 72
     1
 10
1.055228980277082
 20
0.1136714286513832
 11
1.051311050885725
 21
0.1136714286513832
 72
     1
 10
1.051311050885726
 20
0.1136714286513832
 11
1.049352086190046
 21
0.1136714286513832
 72
     1
 10
1.049352086190046
 20
0.1136714286513832
 11
1.049352086190046
 21
0.1163766656120825
 72
     1
 10
1.049352086190046
 20
0.1163766656120823
 11
1.049352086190046
 21
0.1209475832353323
 72
     1
 10
1.049352086190046
 20
0.1209475832353325
 11
1.049352086190046
 21
0.1267311932892411
 72
     1
 10
1.049352086190046
 20
0.1267311932892408
 11
1.049352086190046
 21
0.1330745075419143
 72
     1
 10
1.049352086190046
 20
0.1330745075419144
 11
1.049352086190046
 21
0.1395111058277156
 72
     1
 10
1.049352086190046
 20
0.1395111058277158
 11
1.049352086190046
 21
0.1452947158816239
 72
     1
 10
1.049352086190046
 20
0.145294715881624
 11
1.049352086190046
 21
0.1498656335048746
 72
     1
 10
1.049352086190046
 20
0.1498656335048745
 11
1.049352086190046
 21
0.1525708704655738
 97
        0
 75
     0
 76
     1
 98
        1
 10
-0.3743130907707726
 20
-0.2500502867693841
1001
ACAD
1010
0.0
1020
0.0
1030
0.0
  0
HATCH
  5
6C95
330
6C8E
100
AcDbEntity
  8
Kawneer Logo-English
100
AcDbHatch
 10
0.0
 20
0.0
 30
0.0
210
0.0
220
0.0
230
1.0
  2
SOLID
 70
     1
 71
     0
 91
        1
 92
        1
 93
       42
 72
     1
 10
0.9725793269260698
 20
0.2277578011663825
 11
0.9725793269260698
 21
0.1354998924032311
 72
     1
 10
0.9725793269260698
 20
0.1354998924032311
 11
0.9729524630585808
 21
0.1264513411898582
 72
     1
 10
0.9729524630585796
 20
0.1264513411898583
 11
0.9729524630585796
 21
0.1255185008585825
 72
     1
 10
0.9729524630585796
 20
0.1255185008585824
 11
0.9731390311248343
 21
0.1238393882622866
 72
     1
 10
0.9731390311248349
 20
0.1238393882622866
 11
0.9717397706279211
 21
0.1254252168254551
 72
     1
 10
0.97173977062792
 20
0.1254252168254551
 11
0.9710867823960281
 21
0.1262647731236031
 72
     1
 10
0.9710867823960294
 20
0.1262647731236031
 11
0.9641837639445897
 21
0.1339140638400625
 72
     1
 10
0.9641837639445899
 20
0.1339140638400624
 11
0.8755639324734129
 21
0.2277578011663823
 72
     1
 10
0.8755639324734115
 20
0.2277578011663825
 11
0.8529891964565429
 21
0.2277578011663825
 72
     1
 10
0.8529891964565434
 20
0.2277578011663825
 11
0.8529891964565434
 21
0.0926825211976832
 72
     1
 10
0.8529891964565434
 20
0.0926825211976832
 11
0.8756572165065401
 21
0.0926825211976832
 72
     1
 10
0.875657216506541
 20
0.0926825211976832
 11
0.875657216506541
 21
0.1927762887435495
 72
     1
 10
0.875657216506541
 20
0.1927762887435495
 11
0.875657216506541
 21
0.1931494248760597
 72
     1
 10
0.875657216506541
 20
0.1931494248760596
 11
0.8755639324734129
 21
0.193988981174208
 72
     1
 10
0.8755639324734115
 20
0.1939889811742079
 11
0.8754706484402849
 21
0.1952949576379935
 72
     1
 10
0.8754706484402859
 20
0.1952949576379937
 11
0.8753773644071577
 21
0.1967875021680344
 72
     1
 10
0.875377364407158
 20
0.1967875021680343
 11
0.8755639324734126
 21
0.1965076500686515
 72
     1
 10
0.8755639324734115
 20
0.1965076500686517
 11
0.8756572165065396
 21
0.1963210820023967
 72
     1
 10
0.875657216506541
 20
0.1963210820023967
 11
0.8764967728046894
 21
0.1954815257042487
 72
     1
 10
0.8764967728046887
 20
0.1954815257042488
 11
0.8781758854009835
 21
0.1936158450416976
 72
     1
 10
0.8781758854009842
 20
0.1936158450416973
 11
0.8797617139641527
 21
0.1917501643791464
 72
     1
 10
0.879761713964152
 20
0.1917501643791466
 11
0.8805079862291723
 21
0.1909106080809982
 72
     1
 10
0.8805079862291727
 20
0.190910608080998
 11
0.8816273946267036
 21
0.1897911996834678
 72
     1
 10
0.8816273946267028
 20
0.1897911996834681
 11
0.884519199653657
 21
0.1867128265902584
 72
     1
 10
0.8845191996536581
 20
0.1867128265902582
 11
0.8891834013100353
 21
0.1818620568676254
 72
     1
 10
0.889183401310035
 20
0.1818620568676252
 11
0.8951535794301982
 21
0.1756120266480794
 72
     1
 10
0.8951535794301985
 20
0.1756120266480794
 11
0.9021498819147662
 21
0.1681493039978751
 72
     1
 10
0.9021498819147669
 20
0.1681493039978752
 11
0.9099857406974814
 21
0.1598470250495227
 72
     1
 10
0.9099857406974813
 20
0.1598470250495225
 11
0.9183813036789613
 21
0.1509850419024051
 72
     1
 10
0.9183813036789612
 20
0.1509850419024052
 11
0.9271500027929521
 21
0.1418432066559046
 72
     1
 10
0.9271500027929509
 20
0.1418432066559046
 11
0.9358254178738118
 21
0.1326080873762767
 72
     1
 10
0.9358254178738132
 20
0.1326080873762767
 11
0.9442209808552931
 21
0.1237461042291589
 72
     1
 10
0.9442209808552931
 20
0.1237461042291589
 11
0.9520568396380092
 21
0.1154438252808068
 72
     1
 10
0.9520568396380092
 20
0.1154438252808068
 11
0.9590531421225751
 21
0.1079811026306025
 72
     1
 10
0.959053142122574
 20
0.1079811026306024
 11
0.9650233202427372
 21
0.101731072411056
 72
     1
 10
0.9650233202427376
 20
0.101731072411056
 11
0.9695942378659868
 21
0.0968803026884232
 72
     1
 10
0.9695942378659871
 20
0.096880302688423
 11
0.9725793269260696
 21
0.0938019295952138
 72
     1
 10
0.9725793269260698
 20
0.093801929595214
 11
0.9736054512904727
 21
0.0926825211976834
 72
     1
 10
0.9736054512904726
 20
0.0926825211976832
 11
0.9952473469760661
 21
0.0926825211976832
 72
     1
 10
0.9952473469760651
 20
0.0926825211976832
 11
0.9952473469760651
 21
0.2277578011663825
 72
     1
 10
0.9952473469760651
 20
0.2277578011663825
 11
0.9927286780816201
 21
0.2277578011663825
 72
     1
 10
0.9927286780816203
 20
0.2277578011663825
 11
0.9725793269260686
 21
0.2277578011663825
 97
        0
 75
     0
 76
     1
 98
        1
 10
-0.3743130907707726
 20
-0.2500502867693841
1001
ACAD
1010
0.0
1020
0.0
1030
0.0
  0
HATCH
  5
6C96
330
6C8E
100
AcDbEntity
  8
Kawneer Logo-English
100
AcDbHatch
 10
0.0
 20
0.0
 30
0.0
210
0.0
220
0.0
230
1.0
  2
SOLID
 70
     1
 71
     0
 91
        2
 92
       16
 93
       32
 72
     1
 10
0.5269615006757409
 20
0.144641727649731
 11
0.5290137494045469
 21
0.148652941074216
 72
     1
 10
0.5290137494045464
 20
0.1486529410742159
 11
0.5322786905640116
 21
0.1551828233931449
 72
     1
 10
0.532278690564012
 20
0.1551828233931452
 11
0.5364764720547521
 21
0.1633918183083696
 72
     1
 10
0.5364764720547526
 20
0.1633918183083696
 11
0.5409541056448736
 21
0.1722538014554874
 72
     1
 10
0.5409541056448726
 20
0.1722538014554873
 11
0.545338455201869
 21
0.1808359325032223
 72
     1
 10
0.5453384552018701
 20
0.1808359325032223
 11
0.5490698165269726
 21
0.1882053711202994
 72
     1
 10
0.549069816526973
 20
0.1882053711202996
 11
0.5515884854214162
 21
0.1932427089091875
 72
     1
 10
0.5515884854214148
 20
0.1932427089091872
 11
0.5526146097858177
 21
0.1952016736048658
 72
     1
 10
0.5526146097858194
 20
0.1952016736048658
 11
0.552801177852074
 21
0.195761377803631
 72
     1
 10
0.5528011778520723
 20
0.1957613778036309
 11
0.5533608820508379
 21
0.1970673542674166
 72
     1
 10
0.5533608820508378
 20
0.1970673542674169
 11
0.5542004383489863
 21
0.1990263189630955
 72
     1
 10
0.5542004383489872
 20
0.1990263189630952
 11
0.5550399946471356
 21
0.2012651357581567
 72
     1
 10
0.5550399946471352
 20
0.2012651357581567
 11
0.5555064148127727
 21
0.2001457273606265
 72
     1
 10
0.5555064148127729
 20
0.2001457273606264
 11
0.5560661190115385
 21
0.198933034929968
 72
     1
 10
0.5560661190115379
 20
0.198933034929968
 11
0.5567191072434298
 21
0.197533774433055
 72
     1
 10
0.5567191072434304
 20
0.197533774433055
 11
0.5574653795084506
 21
0.1959479458698865
 72
     1
 10
0.557465379508451
 20
0.1959479458698865
 11
0.5583049358065995
 21
0.1942688332735902
 72
     1
 10
0.5583049358065986
 20
0.1942688332735903
 11
0.5606370366347874
 21
0.1896046316172126
 72
     1
 10
0.5606370366347871
 20
0.1896046316172126
 11
0.5639952618273804
 21
0.1828881812320289
 72
     1
 10
0.5639952618273814
 20
0.1828881812320287
 11
0.5680064752518651
 21
0.1748657543830587
 72
     1
 10
0.5680064752518637
 20
0.1748657543830589
 11
0.57239082480886
 21
0.1661903393021966
 72
     1
 10
0.5723908248088612
 20
0.1661903393021967
 11
0.5765886062996012
 21
0.1577947763207168
 72
     1
 10
0.5765886062996
 20
0.1577947763207165
 11
0.5803199676247008
 21
0.1503320536705122
 72
     1
 10
0.5803199676247015
 20
0.1503320536705122
 11
0.5831184886185295
 21
0.144641727649731
 72
     1
 10
0.5831184886185295
 20
0.144641727649731
 11
0.5791072751940441
 21
0.144641727649731
 72
     1
 10
0.5791072751940436
 20
0.144641727649731
 11
0.5724841088419869
 21
0.144641727649731
 72
     1
 10
0.5724841088419872
 20
0.144641727649731
 11
0.5641818298936356
 21
0.144641727649731
 72
     1
 10
0.5641818298936352
 20
0.144641727649731
 11
0.5550399946471351
 21
0.144641727649731
 72
     1
 10
0.5550399946471352
 20
0.144641727649731
 11
0.5458981594006351
 21
0.144641727649731
 72
     1
 10
0.5458981594006352
 20
0.144641727649731
 11
0.5375958804522815
 21
0.144641727649731
 72
     1
 10
0.5375958804522814
 20
0.144641727649731
 11
0.5310659981333528
 21
0.144641727649731
 72
     1
 10
0.5310659981333524
 20
0.144641727649731
 11
0.5269615006757405
 21
0.144641727649731
 97
        0
 92
        1
 93
      141
 72
     1
 10
0.5656743744236757
 20
0.2277578011663825
 11
0.544405614870593
 21
0.2277578011663825
 72
     1
 10
0.544405614870593
 20
0.2277578011663825
 11
0.4748157261574382
 21
0.0934287934627039
 72
     1
 10
0.4748157261574378
 20
0.0934287934627039
 11
0.4729500454948865
 21
0.0955743262246376
 72
     1
 10
0.4729500454948874
 20
0.0955743262246376
 11
0.4699649564348049
 21
0.0991191194834847
 72
     1
 10
0.4699649564348043
 20
0.0991191194834847
 11
0.4661403110765752
 21
0.1036900371067346
 72
     1
 10
0.4661403110765754
 20
0.1036900371067347
 11
0.4615693934533244
 21
0.1091005110281331
 72
     1
 10
0.461569393453325
 20
0.109100511028133
 11
0.456345487598182
 21
0.1152572572145517
 72
     1
 10
0.4563454875981812
 20
0.1152572572145516
 11
0.4506551615774008
 21
0.1219737075997353
 72
     1
 10
0.4506551615774015
 20
0.1219737075997354
 11
0.4447782674903648
 21
0.1290632941174296
 72
     1
 10
0.4447782674903636
 20
0.1290632941174296
 11
0.4387148053370722
 21
0.1362461646682511
 72
     1
 10
0.4387148053370727
 20
0.1362461646682512
 11
0.4326513431837832
 21
0.1433357511859454
 72
     1
 10
0.4326513431837844
 20
0.1433357511859453
 11
0.4268677331298759
 21
0.1502387696373844
 72
     1
 10
0.4268677331298756
 20
0.1502387696373844
 11
0.4214572592084763
 21
0.1566753679231857
 72
     1
 10
0.4214572592084754
 20
0.1566753679231858
 11
0.4165132054527153
 21
0.1625522620102216
 72
     1
 10
0.4165132054527163
 20
0.1625522620102216
 11
0.4123154239619763
 21
0.1674963157659821
 72
     1
 10
0.4123154239619753
 20
0.1674963157659822
 11
0.4088639147362555
 21
0.1715075291904667
 72
     1
 10
0.4088639147362568
 20
0.1715075291904669
 11
0.4065318139080681
 21
0.1743993342174211
 72
     1
 10
0.4065318139080665
 20
0.1743993342174211
 11
0.405319121477409
 21
0.1757985947143345
 72
     1
 10
0.4053191214774104
 20
0.1757985947143345
 11
0.4067183819743243
 21
0.1769180031118651
 72
     1
 10
0.4067183819743235
 20
0.1769180031118651
 11
0.4094236189350213
 21
0.1788769678075437
 72
     1
 10
0.4094236189350218
 20
0.1788769678075437
 11
0.4132482642932526
 21
0.1816754888013702
 72
     1
 10
0.4132482642932525
 20
0.1816754888013703
 11
0.4179124659496298
 21
0.1852202820602174
 72
     1
 10
0.417912465949629
 20
0.1852202820602174
 11
0.4232296558379
 21
0.189138211451575
 72
     1
 10
0.4232296558379001
 20
0.1891382114515751
 11
0.4291065499249351
 21
0.1935225610085696
 72
     1
 10
0.4291065499249367
 20
0.1935225610085698
 11
0.4352632961113562
 21
0.1981867626649482
 72
     1
 10
0.4352632961113554
 20
0.1981867626649479
 11
0.4416066103640296
 21
0.2028509643213252
 72
     1
 10
0.4416066103640293
 20
0.2028509643213252
 11
0.4479499246167016
 21
0.2076084500108307
 72
     1
 10
0.4479499246167018
 20
0.2076084500108307
 11
0.4540133867699932
 21
0.2120860836009535
 72
     1
 10
0.4540133867699927
 20
0.2120860836009535
 11
0.4596104287576467
 21
0.2162838650916932
 72
     1
 10
0.4596104287576468
 20
0.216283865091693
 11
0.4646477665465351
 21
0.2200152264167952
 72
     1
 10
0.464647766546535
 20
0.2200152264167951
 11
0.4689388320704013
 21
0.223186883543132
 72
     1
 10
0.4689388320704016
 20
0.2231868835431323
 11
0.4721104891967386
 21
0.2256122684044488
 72
     1
 10
0.4721104891967376
 20
0.2256122684044488
 11
0.4742560219586717
 21
0.2271980969676172
 72
     1
 10
0.4742560219586727
 20
0.2271980969676173
 11
0.475002294223693
 21
0.2277578011663825
 72
     1
 10
0.4750022942236929
 20
0.2277578011663825
 11
0.4674462875403612
 21
0.2277578011663825
 72
     1
 10
0.4674462875403611
 20
0.2277578011663825
 11
0.4395543616352215
 21
0.2277578011663825
 72
     1
 10
0.439554361635222
 20
0.2277578011663825
 11
0.4386215213039473
 21
0.2270115289013622
 72
     1
 10
0.4386215213039466
 20
0.2270115289013622
 11
0.4359162843432469
 21
0.2250525642056836
 72
     1
 10
0.4359162843432465
 20
0.2250525642056836
 11
0.4318117868856346
 21
0.2220674751456017
 72
     1
 10
0.4318117868856351
 20
0.2220674751456017
 11
0.4264013129642376
 21
0.2180562617211167
 72
     1
 10
0.4264013129642379
 20
0.2180562617211168
 11
0.4200579987115638
 21
0.2132987760316117
 72
     1
 10
0.4200579987115641
 20
0.2132987760316114
 11
0.4128751281607416
 21
0.2079815861433408
 72
     1
 10
0.4128751281607408
 20
0.2079815861433408
 11
0.4051325534111546
 21
0.20229126012256
 72
     1
 10
0.4051325534111552
 20
0.20229126012256
 11
0.397016842529058
 21
0.1963210820023964
 72
     1
 10
0.3970168425290583
 20
0.1963210820023967
 11
0.3889011316469611
 21
0.1903509038822331
 72
     1
 10
0.3889011316469611
 20
0.190350903882233
 11
0.3808787047979902
 21
0.1844740097951972
 72
     1
 10
0.3808787047979898
 20
0.1844740097951974
 11
0.3733226981146581
 21
0.1787836837744166
 72
     1
 10
0.373322698114658
 20
0.1787836837744166
 11
0.3663263956300919
 21
0.173653061952401
 72
     1
 10
0.3663263956300931
 20
0.173653061952401
 11
0.3601696494436735
 21
0.169082144329151
 72
     1
 10
0.3601696494436726
 20
0.1690821443291508
 11
0.3550390276216579
 21
0.1653507830040483
 72
     1
 10
0.3550390276216584
 20
0.1653507830040482
 11
0.3513076662965558
 21
0.1625522620102218
 72
     1
 10
0.3513076662965551
 20
0.1625522620102216
 11
0.3490688495014928
 21
0.1609664334470531
 72
     1
 10
0.3490688495014926
 20
0.1609664334470531
 11
0.3490688495014926
 21
0.1631119662089868
 72
     1
 10
0.3490688495014926
 20
0.1631119662089868
 11
0.3490688495014926
 21
0.1662836233353237
 72
     1
 10
0.3490688495014926
 20
0.1662836233353238
 11
0.3490688495014926
 21
0.1702948367598088
 72
     1
 10
0.3490688495014926
 20
0.1702948367598088
 11
0.3490688495014926
 21
0.1749590384161865
 72
     1
 10
0.3490688495014926
 20
0.1749590384161865
 11
0.3490688495014926
 21
0.1801829442713294
 72
     1
 10
0.3490688495014926
 20
0.1801829442713296
 11
0.3490688495014926
 21
0.185779986258983
 72
     1
 10
0.3490688495014926
 20
0.1857799862589829
 11
0.3490688495014926
 21
0.1916568803460187
 72
     1
 10
0.3490688495014926
 20
0.1916568803460186
 11
0.3490688495014926
 21
0.1975337744330549
 72
     1
 10
0.3490688495014926
 20
0.197533774433055
 11
0.3490688495014926
 21
0.2033173844869632
 72
     1
 10
0.3490688495014926
 20
0.2033173844869631
 11
0.3490688495014926
 21
0.2088211424414888
 72
     1
 10
0.3490688495014926
 20
0.2088211424414888
 11
0.3490688495014926
 21
0.2139517642635044
 72
     1
 10
0.3490688495014926
 20
0.2139517642635044
 11
0.3490688495014926
 21
0.2185226818867544
 72
     1
 10
0.3490688495014926
 20
0.2185226818867545
 11
0.3490688495014926
 21
0.2222540432118567
 72
     1
 10
0.3490688495014926
 20
0.2222540432118567
 11
0.3490688495014926
 21
0.2252391322719387
 72
     1
 10
0.3490688495014926
 20
0.2252391322719387
 11
0.3490688495014926
 21
0.2271048129344895
 72
     1
 10
0.3490688495014926
 20
0.2271048129344895
 11
0.3490688495014926
 21
0.2277578011663825
 72
     1
 10
0.3490688495014926
 20
0.2277578011663825
 11
0.3258411252527322
 21
0.2277578011663825
 72
     1
 10
0.3258411252527336
 20
0.2277578011663825
 11
0.3258411252527336
 21
0.0926825211976832
 72
     1
 10
0.3258411252527336
 20
0.0926825211976832
 11
0.3486957133689848
 21
0.0926825211976832
 72
     1
 10
0.3486957133689845
 20
0.0926825211976832
 11
0.3486957133689845
 21
0.0943616337939795
 72
     1
 10
0.3486957133689845
 20
0.0943616337939795
 11
0.3486957133689845
 21
0.0988392673841017
 72
     1
 10
0.3486957133689845
 20
0.0988392673841017
 11
0.3486957133689845
 21
0.1051825816367752
 72
     1
 10
0.3486957133689845
 20
0.1051825816367753
 11
0.3486957133689845
 21
0.1125520202538523
 72
     1
 10
0.3486957133689845
 20
0.1125520202538524
 11
0.3486957133689845
 21
0.1200147429040567
 72
     1
 10
0.3486957133689845
 20
0.1200147429040567
 11
0.3486957133689845
 21
0.1267311932892408
 72
     1
 10
0.3486957133689845
 20
0.1267311932892408
 11
0.3486957133689845
 21
0.1317685310781287
 72
     1
 10
0.3486957133689845
 20
0.1317685310781289
 11
0.3486957133689845
 21
0.1342871999725727
 72
     1
 10
0.3486957133689845
 20
0.1342871999725725
 11
0.3507479620977905
 21
0.1356864604694859
 72
     1
 10
0.35074796209779
 20
0.1356864604694859
 11
0.3548524595554018
 21
0.1387648335626952
 72
     1
 10
0.3548524595554015
 20
0.1387648335626952
 11
0.3605427855761835
 21
0.1428693310203079
 72
     1
 10
0.3605427855761842
 20
0.1428693310203079
 11
0.3668860998288565
 21
0.1476268167098129
 72
     1
 10
0.3668860998288568
 20
0.1476268167098129
 11
0.373322698114659
 21
0.1522910183661906
 72
     1
 10
0.373322698114658
 20
0.1522910183661908
 11
0.3791995922016947
 21
0.1565820838900582
 72
     1
 10
0.3791995922016946
 20
0.1565820838900582
 11
0.3836772257918156
 21
0.1599403090826502
 72
     1
 10
0.3836772257918159
 20
0.1599403090826503
 11
0.386195894686261
 21
0.1618059897452011
 72
     1
 10
0.3861958946862609
 20
0.1618059897452011
 11
0.3873153030837921
 21
0.1604067292482882
 72
     1
 10
0.3873153030837915
 20
0.1604067292482878
 11
0.3894608358457238
 21
0.1577947763207163
 72
     1
 10
0.3894608358457248
 20
0.1577947763207165
 11
0.3925392089389353
 21
0.1541566990287417
 72
     1
 10
0.3925392089389348
 20
0.1541566990287417
 11
0.396457138330292
 21
0.149492497372364
 72
     1
 10
0.3964571383302933
 20
0.149492497372364
 11
0.4009347719204161
 21
0.1442685915172211
 72
     1
 10
0.4009347719204146
 20
0.1442685915172209
 11
0.4057855416430466
 21
0.138391697430185
 72
     1
 10
0.4057855416430463
 20
0.1383916974301853
 11
0.4109161634650628
 21
0.1322349512437666
 72
     1
 10
0.410916163465064
 20
0.1322349512437666
 11
0.4162333533533335
 21
0.1259849210242201
 72
     1
 10
0.4162333533533334
 20
0.1259849210242201
 11
0.4215505432416044
 21
0.1196416067715466
 72
     1
 10
0.4215505432416045
 20
0.1196416067715466
 11
0.4265878810304927
 21
0.113671428651383
 72
     1
 10
0.4265878810304931
 20
0.1136714286513832
 11
0.4312520826868704
 21
0.1079811026306024
 72
     1
 10
0.4312520826868696
 20
0.1079811026306024
 11
0.4355431482107378
 21
0.1029437648417141
 72
     1
 10
0.435543148210738
 20
0.1029437648417139
 11
0.4390879414695842
 21
0.0987459833509739
 72
     1
 10
0.4390879414695843
 20
0.0987459833509741
 11
0.4417931784302841
 21
0.0954810421915098
 72
     1
 10
0.4417931784302845
 20
0.0954810421915096
 11
0.4435655750597076
 21
0.0934287934627037
 72
     1
 10
0.4435655750597074
 20
0.0934287934627039
 11
0.4442185632915993
 21
0.0926825211976832
 72
     1
 10
0.4442185632915985
 20
0.0926825211976832
 11
0.4743493059918004
 21
0.0926825211976832
 72
     1
 10
0.4743493059918001
 20
0.0926825211976832
 11
0.4753754303562029
 21
0.0926825211976832
 72
     1
 10
0.4753754303562033
 20
0.0926825211976832
 11
0.5008419714000258
 21
0.0926825211976832
 72
     1
 10
0.5008419714000265
 20
0.0926825211976832
 11
0.5014949596319184
 21
0.0939884976614689
 72
     1
 10
0.501494959631919
 20
0.0939884976614688
 11
0.5031740722282155
 21
0.0973467228540609
 72
     1
 10
0.503174072228215
 20
0.0973467228540612
 11
0.5055061730564038
 21
0.1021042085435666
 72
     1
 10
0.505506173056403
 20
0.1021042085435665
 11
0.5083046940502291
 21
0.1077012505312196
 72
     1
 10
0.5083046940502292
 20
0.1077012505312194
 11
0.5111032150440553
 21
0.1134848605851279
 72
     1
 10
0.5111032150440549
 20
0.1134848605851281
 11
0.5137151679716264
 21
0.1186154824071433
 72
     1
 10
0.5137151679716277
 20
0.1186154824071433
 11
0.5156741326673071
 21
0.1226266958316283
 72
     1
 10
0.5156741326673076
 20
0.122626695831628
 11
0.5167002570317104
 21
0.1247722285935621
 72
     1
 10
0.5167002570317103
 20
0.1247722285935622
 11
0.5180062334954961
 21
0.1247722285935622
 72
     1
 10
0.5180062334954961
 20
0.1247722285935622
 11
0.5207114704561957
 21
0.1247722285935622
 72
     1
 10
0.5207114704561944
 20
0.1247722285935622
 11
0.5246293998475517
 21
0.1247722285935622
 72
     1
 10
0.5246293998475525
 20
0.1247722285935622
 11
0.5295734536033125
 21
0.1247722285935622
 72
     1
 10
0.5295734536033115
 20
0.1247722285935622
 11
0.5352637796240919
 21
0.1247722285935622
 72
     1
 10
0.5352637796240929
 20
0.1247722285935622
 11
0.5415138098436386
 21
0.1247722285935622
 72
     1
 10
0.5415138098436394
 20
0.1247722285935622
 11
0.5482302602288245
 21
0.1247722285935622
 72
     1
 10
0.5482302602288236
 20
0.1247722285935622
 11
0.5551332786802616
 21
0.1247722285935622
 72
     1
 10
0.5551332786802608
 20
0.1247722285935622
 11
0.5620362971317004
 21
0.1247722285935622
 72
     1
 10
0.5620362971317015
 20
0.1247722285935622
 11
0.5687527475168847
 21
0.1247722285935622
 72
     1
 10
0.5687527475168839
 20
0.1247722285935622
 11
0.5750027777364317
 21
0.1247722285935622
 72
     1
 10
0.5750027777364322
 20
0.1247722285935622
 11
0.5806931037572126
 21
0.1247722285935622
 72
     1
 10
0.5806931037572119
 20
0.1247722285935622
 11
0.585637157512972
 21
0.1247722285935622
 72
     1
 10
0.5856371575129727
 20
0.1247722285935622
 11
0.5895550869043299
 21
0.1247722285935622
 72
     1
 10
0.5895550869043289
 20
0.1247722285935622
 11
0.5922603238650286
 21
0.1247722285935622
 72
     1
 10
0.5922603238650291
 20
0.1247722285935622
 11
0.5935663003288148
 21
0.1247722285935622
 72
     1
 10
0.5935663003288148
 20
0.1247722285935622
 11
0.5945924246932176
 21
0.1226266958316281
 72
     1
 10
0.5945924246932175
 20
0.122626695831628
 11
0.5965513893888953
 21
0.1186154824071431
 72
     1
 10
0.5965513893888957
 20
0.1186154824071433
 11
0.5991633423164672
 21
0.1134848605851281
 72
     1
 10
0.5991633423164667
 20
0.1134848605851281
 11
0.6019618633102946
 21
0.1077012505312196
 72
     1
 10
0.6019618633102959
 20
0.1077012505312194
 11
0.604760384304122
 21
0.1021042085435664
 72
     1
 10
0.6047603843041221
 20
0.1021042085435665
 11
0.6070924851323109
 21
0.0973467228540611
 72
     1
 10
0.6070924851323101
 20
0.0973467228540612
 11
0.6087715977286067
 21
0.0939884976614691
 72
     1
 10
0.6087715977286062
 20
0.0939884976614688
 11
0.609424585960498
 21
0.0926825211976832
 72
     1
 10
0.6094245859604986
 20
0.0926825211976832
 11
0.6363836715343633
 21
0.0926825211976832
 72
     1
 10
0.6363836715343641
 20
0.0926825211976832
 11
0.5671669189537184
 21
0.2277578011663825
 72
     1
 10
0.5671669189537179
 20
0.2277578011663825
 11
0.5656743744236758
 21
0.2277578011663825
 97
        0
 75
     0
 76
     1
 98
        1
 10
-0.3743130907707726
 20
-0.2500502867693841
1001
ACAD
1010
0.0
1020
0.0
1030
0.0
  0
HATCH
  5
6C97
330
6C8E
100
AcDbEntity
  8
Kawneer Logo-English
100
AcDbHatch
 10
0.0
 20
0.0
 30
0.0
210
0.0
220
0.0
230
1.0
  2
SOLID
 70
     1
 71
     0
 91
        1
 92
        1
 93
       69
 72
     1
 10
0.8092389849197205
 20
0.2277578011663825
 11
0.778921674153266
 21
0.1309289747799811
 72
     1
 10
0.778921674153267
 20
0.1309289747799809
 11
0.7781754018882468
 21
0.1287834420180468
 72
     1
 10
0.7781754018882468
 20
0.1287834420180467
 11
0.7776156976894812
 21
0.1270110453886236
 72
     1
 10
0.7776156976894813
 20
0.1270110453886237
 11
0.7771492775238438
 21
0.1253319327923275
 72
     1
 10
0.7771492775238436
 20
0.1253319327923274
 11
0.7766828573582045
 21
0.1238393882622867
 72
     1
 10
0.7766828573582046
 20
0.1238393882622866
 11
0.7764030052588217
 21
0.1248655126266895
 72
     1
 10
0.776403005258822
 20
0.1248655126266896
 11
0.7761231531594392
 21
0.1259849210242202
 72
     1
 10
0.7761231531594391
 20
0.1259849210242201
 11
0.7759365850931844
 21
0.1268244773223681
 72
     1
 10
0.7759365850931843
 20
0.1268244773223682
 11
0.7758433010600562
 21
0.1271976134548783
 72
     1
 10
0.7758433010600552
 20
0.1271976134548783
 11
0.7755634489606744
 21
0.1280371697530267
 72
     1
 10
0.775563448960674
 20
0.1280371697530267
 11
0.7750970287950349
 21
0.1291565781505569
 72
     1
 10
0.7750970287950363
 20
0.1291565781505568
 11
0.773977620397507
 21
0.1323282352768938
 72
     1
 10
0.7739776203975062
 20
0.1323282352768939
 11
0.7721119397349549
 21
0.1372722890326544
 72
     1
 10
0.7721119397349554
 20
0.1372722890326546
 11
0.7697798389067666
 21
0.1436156032853281
 72
     1
 10
0.769779838906767
 20
0.1436156032853281
 11
0.7670746019460673
 21
0.1511716099686602
 72
     1
 10
0.7670746019460668
 20
0.15117160996866
 11
0.7639962288528581
 21
0.1595671729501399
 72
     1
 10
0.7639962288528582
 20
0.15956717295014
 11
0.7606380036602665
 21
0.1686157241635125
 72
     1
 10
0.7606380036602652
 20
0.1686157241635125
 11
0.7572797784676718
 21
0.1778508434431408
 72
     1
 10
0.7572797784676726
 20
0.1778508434431408
 11
0.753921553275081
 21
0.187179246755896
 72
     1
 10
0.7539215532750814
 20
0.1871792467558961
 11
0.7505633280824898
 21
0.1962277979692689
 72
     1
 10
0.7505633280824902
 20
0.1962277979692689
 11
0.7474849549892814
 21
0.2046233609507488
 72
     1
 10
0.7474849549892797
 20
0.2046233609507488
 11
0.74477971802858
 21
0.2121793676340809
 72
     1
 10
0.7447797180285814
 20
0.2121793676340809
 11
0.7424476172003926
 21
0.2185226818867544
 72
     1
 10
0.7424476172003929
 20
0.2185226818867545
 11
0.7405819365378416
 21
0.2234667356425151
 72
     1
 10
0.7405819365378408
 20
0.2234667356425151
 11
0.7394625281403098
 21
0.2266383927688516
 72
     1
 10
0.7394625281403103
 20
0.2266383927688516
 11
0.7390893920078009
 21
0.2277578011663822
 72
     1
 10
0.7390893920078004
 20
0.2277578011663825
 11
0.7191266089185034
 21
0.2277578011663825
 72
     1
 10
0.7191266089185029
 20
0.2277578011663825
 11
0.6843316645619254
 21
0.1336342117406798
 72
     1
 10
0.6843316645619267
 20
0.1336342117406795
 11
0.6832122561643957
 21
0.130649122680598
 72
     1
 10
0.6832122561643961
 20
0.1306491226805981
 11
0.6823726998662476
 21
0.1282237378192816
 72
     1
 10
0.6823726998662468
 20
0.1282237378192818
 11
0.6817197116343549
 21
0.1260782050573481
 72
     1
 10
0.6817197116343552
 20
0.1260782050573481
 11
0.6811600074355896
 21
0.1241192403616695
 72
     1
 10
0.6811600074355884
 20
0.1241192403616695
 11
0.6808801553362055
 21
0.1250520806929446
 72
     1
 10
0.6808801553362059
 20
0.1250520806929445
 11
0.6805070192036949
 21
0.1261714890904751
 72
     1
 10
0.680507019203696
 20
0.1261714890904752
 11
0.6802271671043131
 21
0.1272908974880058
 72
     1
 10
0.680227167104313
 20
0.1272908974880061
 11
0.6798540309718037
 21
0.1286901579849195
 72
     1
 10
0.6798540309718031
 20
0.1286901579849194
 11
0.6794808948392922
 21
0.12980956638245
 72
     1
 10
0.6794808948392932
 20
0.1298095663824503
 11
0.6784547704748904
 21
0.1328879394756595
 72
     1
 10
0.67845477047489
 20
0.1328879394756595
 11
0.6769622259448497
 21
0.1378319932314196
 72
     1
 10
0.6769622259448496
 20
0.1378319932314196
 11
0.6750032612491701
 21
0.1441753074840938
 72
     1
 10
0.6750032612491697
 20
0.1441753074840937
 11
0.6725778763878547
 21
0.1516380301342981
 72
     1
 10
0.6725778763878556
 20
0.1516380301342981
 11
0.6699659234602841
 21
0.160033593115778
 72
     1
 10
0.6699659234602829
 20
0.160033593115778
 11
0.6671674024664549
 21
0.168988860296023
 72
     1
 10
0.6671674024664554
 20
0.168988860296023
 11
0.6642755974395012
 21
0.1782239795756509
 72
     1
 10
0.6642755974395019
 20
0.178223979575651
 11
0.6613837924125477
 21
0.1874590988552789
 72
     1
 10
0.6613837924125466
 20
0.1874590988552789
 11
0.6585852714187205
 21
0.1964143660355239
 72
     1
 10
0.6585852714187204
 20
0.1964143660355237
 11
0.6559733184911489
 21
0.2047166449838762
 72
     1
 10
0.6559733184911494
 20
0.2047166449838765
 11
0.6536412176629606
 21
0.2122726516672082
 72
     1
 10
0.6536412176629614
 20
0.2122726516672082
 11
0.6515889689341538
 21
0.2186159659198823
 72
     1
 10
0.6515889689341537
 20
0.2186159659198821
 11
0.6500964244041133
 21
0.2234667356425149
 72
     1
 10
0.6500964244041132
 20
0.2234667356425151
 11
0.6490703000397104
 21
0.2266383927688516
 72
     1
 10
0.6490703000397105
 20
0.2266383927688516
 11
0.6487904479403276
 21
0.2277578011663822
 72
     1
 10
0.648790447940328
 20
0.2277578011663825
 11
0.6237903270621445
 21
0.2277578011663825
 72
     1
 10
0.6237903270621437
 20
0.2277578011663825
 11
0.6676338226320932
 21
0.0926825211976832
 72
     1
 10
0.6676338226320926
 20
0.0926825211976832
 11
0.6922608073777669
 21
0.0926825211976832
 72
     1
 10
0.6922608073777666
 20
0.0926825211976832
 11
0.726029627369941
 21
0.1855001341596003
 72
     1
 10
0.7260296273699423
 20
0.1855001341596003
 11
0.7269624677012189
 21
0.1882986551534267
 72
     1
 10
0.7269624677012177
 20
0.1882986551534266
 11
0.7278020239993661
 21
0.1906307559816158
 72
     1
 10
0.727802023999367
 20
0.1906307559816159
 11
0.7284550122312589
 21
0.1927762887435496
 72
     1
 10
0.7284550122312581
 20
0.1927762887435495
 11
0.7290147164300237
 21
0.1947352534392281
 72
     1
 10
0.7290147164300232
 20
0.1947352534392282
 11
0.7298542727281716
 21
0.192216584544784
 72
     1
 10
0.729854272728173
 20
0.1922165845447839
 11
0.7306938290263214
 21
0.1894180635509575
 72
     1
 10
0.7306938290263206
 20
0.1894180635509575
 11
0.7318132374238499
 21
0.1863396904577483
 72
     1
 10
0.7318132374238511
 20
0.1863396904577481
 11
0.7331192138876387
 21
0.1827016131657736
 72
     1
 10
0.7331192138876382
 20
0.1827016131657737
 11
0.7654887733828987
 21
0.0926825211976834
 72
     1
 10
0.7654887733828986
 20
0.0926825211976832
 11
0.7895560539298075
 21
0.0926825211976832
 72
     1
 10
0.7895560539298075
 20
0.0926825211976832
 11
0.8341458217647785
 21
0.2277578011663825
 72
     1
 10
0.8341458217647783
 20
0.2277578011663825
 11
0.830601028505932
 21
0.2277578011663825
 72
     1
 10
0.8306010285059324
 20
0.2277578011663825
 11
0.8092389849197216
 21
0.2277578011663825
 97
        0
 75
     0
 76
     1
 98
        1
 10
-0.3743130907707726
 20
-0.2500502867693841
1001
ACAD
1010
0.0
1020
0.0
1030
0.0
  0
ENDBLK
  5
6C9B
330
6C8E
100
AcDbEntity
  8
0
100
AcDbBlockEnd
  0
ENDSEC
  0
SECTION
  2
ENTITIES
  0
MTEXT
  5
2082
330
17
100
AcDbEntity
  8
0
 62
     2
100
AcDbMText
 10
30.23123147980852
 20
3.183507392846408
 30
0.0
 40
0.375
 41
11.91800541288839
 71
     2
 72
     5
  1
DETAIL SCALE: 1" = 1"
 73
     1
 44
1.0
1001
ACAD
1000
MTEXTBEGIN
1070
    73
1070
     1
1070
    44
1040
1.0
1070
    74
1070
     0
1000
MTEXTEND
  0
LINE
  5
2085
330
17
100
AcDbEntity
  8
0
100
AcDbLine
 10
0.0
 20
0.0
 30
0.0
 11
0.0
 21
36.9901922988268
 31
0.0
  0
LINE
  5
2088
330
17
100
AcDbEntity
  8
0
100
AcDbLine
 10
0.0
 20
0.0
 30
0.0
 11
60.40181834353598
 21
0.0
 31
0.0
  0
MTEXT
  5
2099
330
17
100
AcDbEntity
  8
0
 62
     2
100
AcDbMText
 10
30.23123147980852
 20
6.750496155296716
 30
0.0
 40
0.5
 41
28.8577097324378
 71
     2
 72
     5
  1
TRIFAB™ VG 451 FRAMING SYSTEM\PMULTI PLANE - STICK ASSEMBLY WITH STD. RECEPTOR TRANSITION MULLIONS\P(1" INFILL)
 73
     1
 44
1.0
1001
ACAD
1000
MTEXTBEGIN
1070
    73
1070
     1
1070
    44
1040
1.0
1070
    74
1070
     0
1000
MTEXTEND
1000
ACAD_MTEXT_DEFINED_HEIGHT_BEGIN
1070
    46
1040
3.181446111869031
1000
ACAD_MTEXT_DEFINED_HEIGHT_END
  0
TEXT
  5
5AF5
330
17
100
AcDbEntity
  8
0
  6
Continuous
 62
     7
100
AcDbText
 10
16.20925860272696
 20
25.38165669093228
 30
0.0
 40
0.375
  1
FRONT TO BACK VERTICAL
 72
     1
 11
19.6876010311035
 21
25.38165669093228
 31
0.0
100
AcDbText
  0
TEXT
  5
5B0B
330
17
100
AcDbEntity
  8
0
  6
Continuous
 62
     7
100
AcDbText
 10
26.76419550012047
 20
25.38165669093228
 30
0.0
 40
0.375
  1
BACK TO FRONT VERTICAL
 72
     1
 11
30.242537928497
 21
25.38165669093228
 31
0.0
100
AcDbText
  0
TEXT
  5
5D45
330
17
100
AcDbEntity
  8
0
  6
Continuous
 62
     7
100
AcDbText
 10
15.79092944279518
 20
11.732970864388
 30
0.0
 40
0.375
  1
CENTER TO FRONT VERTICAL
 72
     1
 11
19.63288885616489
 21
11.732970864388
 31
0.0
100
AcDbText
  0
TEXT
  5
5D46
330
17
100
AcDbEntity
  8
0
  6
Continuous
 62
     7
100
AcDbText
 10
37.16717415585187
 20
25.38165669093228
 30
0.0
 40
0.375
  1
FRONT TO CENTER VERTICAL
 72
     1
 11
41.00913356922158
 21
25.38165669093228
 31
0.0
100
AcDbText
  0
TEXT
  5
5D4C
330
17
100
AcDbEntity
  8
0
  6
Continuous
 62
     7
100
AcDbText
 10
26.51427591628045
 20
11.732970864388
 30
0.0
 40
0.375
  1
CENTER TO BACK VERTICAL
 72
     1
 11
30.16745633919996
 21
11.732970864388
 31
0.0
100
AcDbText
  0
TEXT
  5
614B
330
17
100
AcDbEntity
  8
0
  6
Continuous
 62
     7
100
AcDbText
 10
37.22932675329597
 20
11.732970864388
 30
0.0
 40
0.375
  1
BACK TO CENTER VERTICAL
 72
     1
 11
40.88250717621548
 21
11.732970864388
 31
0.0
100
AcDbText
  0
LWPOLYLINE
  5
6432
330
17
100
AcDbEntity
  8
R-SWTS-DET1
100
AcDbPolyline
 90
        6
 70
     0
 43
0.0
 10
27.11362755340289
 20
19.82008779095184
 10
27.11362755340289
 20
17.17009779095185
 10
26.91364755340289
 20
17.12007779095184
 10
27.31362755340289
 20
17.02009779095184
 10
27.11362755340289
 20
16.97009779095185
 10
27.11362755340289
 20
14.32008779095184
  0
LWPOLYLINE
  5
6433
330
17
100
AcDbEntity
  8
R-SWTS-DET1
100
AcDbPolyline
 90
        6
 70
     0
 43
0.0
 10
33.1136475534029
 20
14.32008779095184
 10
33.1136375534029
 20
16.95430096384835
 10
33.31361755340291
 20
17.00432096384835
 10
32.9136375534029
 20
17.10430096384835
 10
33.1136375534029
 20
17.15430096384835
 10
33.1136475534029
 20
19.82008779095184
  0
LINE
  5
6434
330
17
100
AcDbEntity
  8
R-SWTS-DET1
100
AcDbLine
 10
33.11364660429526
 20
14.57010297578612
 30
0.0
 11
27.1136275534029
 21
14.57008779095184
 31
0.0
  0
LINE
  5
6435
330
17
100
AcDbEntity
  8
R-SWTS-DET1
100
AcDbLine
 10
31.1136375534029
 20
14.82008779095184
 30
0.0
 11
33.1136475534029
 21
14.82008779095184
 31
0.0
  0
LINE
  5
6436
330
17
100
AcDbEntity
  8
R-SWTS-DET1
100
AcDbLine
 10
29.1136375534029
 20
14.82008779095184
 30
0.0
 11
27.1136275534029
 21
14.82008779095184
 31
0.0
  0
LINE
  5
6437
330
17
100
AcDbEntity
  8
R-SWTS-DET1
100
AcDbLine
 10
33.1136466155372
 20
19.57007278596712
 30
0.0
 11
27.11362755340289
 21
19.57008779095184
 31
0.0
  0
LINE
  5
6438
330
17
100
AcDbEntity
  8
R-SWTS-DET1
100
AcDbLine
 10
31.11363755340289
 20
19.32008779095184
 30
0.0
 11
33.11364755340289
 21
19.32008779095184
 31
0.0
  0
LINE
  5
6439
330
17
100
AcDbEntity
  8
R-SWTS-DET1
100
AcDbLine
 10
29.11363755340289
 20
19.32008779095184
 30
0.0
 11
27.11362755340289
 21
19.32008779095184
 31
0.0
  0
TEXT
  5
643A
330
17
100
AcDbEntity
  8
PART_NUMBERS
100
AcDbText
 10
27.2864596102935
 20
20.07110922709526
 30
0.0
 40
0.25
  1
451VG052 SHALLOW POCKET MULLION
100
AcDbText
  0
TEXT
  5
643B
330
17
100
AcDbEntity
  8
PART_NUMBERS
100
AcDbText
 10
27.2864596102935
 20
20.57110922709526
 30
0.0
 40
0.25
  1
451CG028 DEEP POCKET FILLER
100
AcDbText
  0
LWPOLYLINE
  5
643C
330
17
100
AcDbEntity
  8
R-SWTS-DET1
100
AcDbPolyline
 90
      133
 70
     1
 43
0.0
 10
31.1136375534029
 20
19.17543965434379
 10
31.0111375534029
 20
19.13940935131349
 10
31.0111375534029
 20
19.16840935131349
 10
30.9394375534029
 20
19.16840935131349
 42
0.1989123673796512
 10
30.92175988387323
 20
19.16108702084315
 10
30.8551375534029
 20
19.09440935131349
 10
30.8551375534029
 20
19.05245935131349
 42
0.3541185725306985
 10
30.87097931958654
 20
19.03289639929881
 10
30.9731375534029
 20
19.01045935131348
 10
31.0111375534029
 20
19.01045935131348
 10
31.0111375534029
 20
19.03945935131348
 10
31.0231375534029
 20
19.03945935131348
 42
-0.4142135623730951
 10
31.0431375534029
 20
19.01945935131348
 10
31.0431375534029
 20
18.99045935131348
 42
-0.4142135623730951
 10
31.0231375534029
 20
18.97045935131348
 10
30.8211425534029
 20
18.97045935131348
 42
-0.4142135623730951
 10
30.78313755340289
 20
19.00846435131348
 10
30.8051375534029
 20
19.00846435131348
 10
30.8051375534029
 20
19.07046435131348
 10
30.78313755340289
 20
19.07046435131348
 10
30.78313755340289
 20
19.12524040741159
 42
-0.1989018846181274
 10
30.79045917085489
 20
19.14291736389416
 10
30.84385528542619
 20
19.19631778612743
 42
0.6681640521692886
 10
30.82971257938779
 20
19.23045935131349
 10
30.67363755340291
 20
19.23045935131349
 42
0.4142135623730928
 10
30.61363755340291
 20
19.17045935131349
 10
30.6136375534029
 20
18.35428859373772
 10
30.6036375534029
 20
18.34428859373772
 10
30.6136375534029
 20
18.33428859373772
 10
30.6136375534029
 20
18.10428859373772
 10
30.6036375534029
 20
18.09428859373772
 10
30.6136375534029
 20
18.08428859373772
 10
30.6136375534029
 20
17.59445435131349
 42
0.4142135623730951
 10
30.7136375534029
 20
17.49445435131349
 10
30.7801375534029
 20
17.49445435131349
 42
0.4142135623730951
 10
30.8051375534029
 20
17.51945435131349
 10
30.8051375534029
 20
17.55645435131349
 10
30.78313755340289
 20
17.55645435131349
 42
-0.4142135623730951
 10
30.8211425534029
 20
17.59445935131349
 10
31.0231375534029
 20
17.59445935131349
 42
-0.4142135623730951
 10
31.0431375534029
 20
17.57445935131348
 10
31.0431375534029
 20
17.54545935131349
 42
-0.4142135623730951
 10
31.0231375534029
 20
17.52545935131348
 10
31.0111375534029
 20
17.52545935131349
 10
31.0111375534029
 20
17.55445935131349
 10
30.9731375534029
 20
17.55445935131349
 10
30.87097931958654
 20
17.53202230332816
 42
0.3541185725306792
 10
30.8551375534029
 20
17.51245935131349
 10
30.8551375534029
 20
17.47050935131349
 10
30.92175988387323
 20
17.40383168178382
 42
0.1989123673796507
 10
30.9394375534029
 20
17.39650935131349
 10
31.0111375534029
 20
17.39650935131349
 10
31.0111375534029
 20
17.42550935131349
 10
31.1136375534029
 20
17.38947904828318
 10
31.1136375534029
 20
17.25445935131349
 10
31.1136375534029
 20
14.82045935131349
 10
29.11363755340289
 20
14.82045935131349
 10
29.11363755340289
 20
15.27446026367692
 10
29.19363755340289
 20
15.27446026367692
 10
29.1936375534029
 20
15.38246026367692
 42
-0.4142135623730951
 10
29.25563755340289
 20
15.44446026367692
 10
29.27363755340289
 20
15.44446026367692
 10
29.27363755340289
 20
15.25646026367692
 42
-0.4142135623730951
 10
29.21163755340289
 20
15.19446026367691
 10
29.19363755340289
 20
15.19446026367692
 10
29.19363755340289
 20
14.97045935131349
 42
0.4142135623730929
 10
29.25363755340289
 20
14.91045935131349
 10
30.9736375534029
 20
14.91045935131349
 42
0.4142135623730951
 10
31.0336375534029
 20
14.97045935131349
 10
31.0336375534029
 20
15.66895935131348
 42
0.4142135623730951
 10
31.0236375534029
 20
15.67895935131348
 10
31.0236375534029
 20
16.02295935131347
 42
0.4142135623730951
 10
31.0336375534029
 20
16.03295935131347
 10
31.0336375534029
 20
16.59995935131349
 42
0.4142135623730951
 10
31.0236375534029
 20
16.60995935131349
 10
31.0236375534029
 20
16.95395935131348
 42
0.4142135623730951
 10
31.0336375534029
 20
16.96395935131348
 10
31.0336375534029
 20
17.24650935131348
 42
0.4142135623730951
 10
30.9636375534029
 20
17.31650935131349
 10
30.94358212415431
 20
17.31650935131349
 42
-0.1990202627215682
 10
30.86930509545817
 20
17.34729396875655
 10
30.80805932264167
 20
17.40859061465767
 42
0.1990202627215676
 10
30.79391131717574
 20
17.41445435131349
 10
30.7036375534029
 20
17.41445435131349
 42
-0.4142135623730951
 10
30.5336375534029
 20
17.58445435131349
 10
30.5336375534029
 20
17.86328859373772
 42
0.4142135623731081
 10
30.5136375534029
 20
17.88328859373772
 10
30.30863755340289
 20
17.88328859373772
 42
-0.4142135623731173
 10
30.23863755340289
 20
17.95328859373772
 10
30.2386375534029
 20
18.09428859373771
 10
30.3041375534029
 20
18.0942885937377
 42
-0.9999999999999998
 10
30.3041375534029
 20
18.06328859373771
 10
30.3036375534029
 20
18.06328859373771
 42
0.4142135623730951
 10
30.2886375534029
 20
18.04828859373771
 10
30.2886375534029
 20
17.96828859373771
 42
0.4142135623730976
 10
30.3036375534029
 20
17.95328859373771
 10
30.5186375534029
 20
17.95328859373771
 42
0.4142135623730938
 10
30.5336375534029
 20
17.96828859373771
 10
30.5336375534029
 20
18.04829269237371
 42
0.4190234982698207
 10
30.51839165176355
 20
18.06329067665106
 42
-1.00823086916291
 10
30.51813755340289
 20
18.09428859373771
 10
30.5336375534029
 20
18.09428859373772
 10
30.5336375534029
 20
18.34428859373772
 10
30.51813755340289
 20
18.34428859373772
 42
-0.9999999999999998
 10
30.51813755340289
 20
18.37528859373771
 10
30.5186375534029
 20
18.37528859373771
 42
0.4142135623730951
 10
30.5336375534029
 20
18.39028859373771
 10
30.5336375534029
 20
18.47028859373772
 42
0.4142135623730938
 10
30.5186375534029
 20
18.48528859373772
 10
30.3036375534029
 20
18.48528859373772
 42
0.4142135623730951
 10
30.2886375534029
 20
18.47028859373773
 10
30.2886375534029
 20
18.39028449510173
 42
0.4190234982697588
 10
30.30388345504225
 20
18.37528651082438
 42
-1.008230869162782
 10
30.3041375534029
 20
18.34428859373773
 10
30.2386375534029
 20
18.34428859373773
 10
30.23863755340289
 20
18.48528859373772
 42
-0.4142135623731173
 10
30.30863755340289
 20
18.55528859373773
 10
30.51363755340291
 20
18.55528859373772
 42
0.4142135623730887
 10
30.53363755340291
 20
18.57528859373772
 10
30.53363755340291
 20
19.17045935131348
 42
0.4142135623730951
 10
30.47363755340291
 20
19.23045935131349
 10
29.25363755340289
 20
19.23045935131349
 42
0.4142135623730971
 10
29.19363755340289
 20
19.17045935131349
 10
29.19363755340289
 20
18.9464602636769
 10
29.21163755340289
 20
18.94646026367691
 42
-0.4142135623730951
 10
29.27363755340289
 20
18.88446026367691
 10
29.27363755340289
 20
18.69646026367692
 10
29.25563755340289
 20
18.69646026367692
 42
-0.4142135623730951
 10
29.1936375534029
 20
18.75846026367691
 10
29.1936375534029
 20
18.86646026367692
 10
29.11363755340289
 20
18.86646026367692
 10
29.11363755340289
 20
19.32045935131348
 10
31.1136375534029
 20
19.32045935131348
  0
LWPOLYLINE
  5
643D
330
17
100
AcDbEntity
  8
R-SWTS-DET1
100
AcDbPolyline
 90
       98
 70
     1
 43
0.0
 10
29.35629578721926
 20
16.32010074296652
 42
-0.3541185725306761
 10
29.37213755340291
 20
16.30053779095184
 10
29.37213755340291
 20
16.25858779095184
 10
29.30551522293257
 20
16.19191012142218
 42
-0.1989123673796582
 10
29.28783755340291
 20
16.18458779095184
 10
29.21613755340291
 20
16.18458779095184
 10
29.21613755340291
 20
16.21358779095184
 10
29.11363755340291
 20
16.17755748792154
 10
29.11363755340291
 20
15.27508779095184
 10
29.19363755340291
 20
15.27508779095184
 10
29.19363755340291
 20
15.44508779095184
 10
29.27963755340291
 20
15.44508779095184
 10
29.27963755340291
 20
15.38308779095184
 10
29.49663755340291
 20
15.46208779095184
 42
1.003724381894511
 10
29.47263755340291
 20
15.52758779095183
 10
29.36013919734662
 20
15.48658839007799
 42
-0.5183857430387555
 10
29.33329145797388
 20
15.50523358394884
 42
0.4120800626174657
 10
29.31329198937087
 20
15.52508779095184
 10
29.21363755340291
 20
15.52508779095184
 42
-0.4142135623730951
 10
29.19363755340291
 20
15.54508779095184
 10
29.19363755340291
 20
15.66908779095184
 42
-0.4142135623730951
 10
29.20363755340291
 20
15.67908779095184
 10
29.20363755340291
 20
15.84108779095184
 10
29.19363755340291
 20
15.85108779095184
 10
29.20363755340291
 20
15.86108779095184
 10
29.20363755340291
 20
16.02308779095183
 42
-0.4142135623730951
 10
29.19363755340291
 20
16.03308779095184
 10
29.19363755340291
 20
16.03458779095184
 42
-0.4142135623730951
 10
29.26363755340291
 20
16.10458779095185
 10
29.2936929826515
 20
16.10458779095185
 42
0.1990202627215674
 10
29.36797001134764
 20
16.13537240839491
 10
29.42927073851694
 20
16.19672405429601
 42
-0.1990202627215459
 10
29.44341874398287
 20
16.20258779095183
 10
30.02363755340291
 20
16.20258779095184
 42
0.4142135623730888
 10
30.19363755340291
 20
16.37258779095185
 10
30.19363755340291
 20
17.76758779095183
 42
0.4142135623730889
 10
30.02363755340291
 20
17.93758779095183
 10
29.44341874398287
 20
17.93758779095184
 42
-0.1990202627215466
 10
29.42927073851694
 20
17.94345152760767
 10
29.36797001134764
 20
18.00480317350877
 42
0.1990202627215655
 10
29.2936929826515
 20
18.03558779095183
 10
29.26363755340291
 20
18.03558779095183
 42
-0.4142135623730951
 10
29.19363755340291
 20
18.10558779095183
 10
29.19363755340291
 20
18.10708779095184
 42
-0.4142135623730951
 10
29.20363755340291
 20
18.11708779095184
 10
29.20363755340291
 20
18.27908779095184
 10
29.19363755340291
 20
18.28908779095185
 10
29.20363755340291
 20
18.29908779095184
 10
29.20363755340291
 20
18.46108779095185
 42
-0.4142135623730951
 10
29.19363755340291
 20
18.47108779095184
 10
29.19363755340291
 20
18.59508779095184
 42
-0.4142135623730951
 10
29.21363755340291
 20
18.61508779095184
 10
29.31329198937092
 20
18.61508779095184
 42
0.4120800626174634
 10
29.33329145797388
 20
18.63494199795484
 42
-0.5183857430387571
 10
29.36013919734662
 20
18.65358719182569
 10
29.47263755340291
 20
18.61258779095184
 42
1.003724381894516
 10
29.49663755340291
 20
18.67808779095184
 10
29.27963755340291
 20
18.75708779095184
 10
29.27963755340291
 20
18.69508779095184
 10
29.19363755340291
 20
18.69508779095184
 10
29.19363755340291
 20
18.86508779095184
 10
29.11363755340291
 20
18.86508779095184
 10
29.11363755340291
 20
17.96261809398214
 10
29.21613755340291
 20
17.92658779095184
 10
29.21613755340291
 20
17.95558779095184
 10
29.28783755340291
 20
17.95558779095184
 42
-0.1989123673796506
 10
29.30551522293257
 20
17.9482654604815
 10
29.37213755340291
 20
17.88158779095184
 10
29.37213755340291
 20
17.83963779095184
 42
-0.3541185725306762
 10
29.35629578721926
 20
17.82007483893716
 10
29.25413755340291
 20
17.79763779095184
 10
29.21613755340291
 20
17.79763779095184
 10
29.21613755340291
 20
17.82663779095184
 10
29.20413755340291
 20
17.82663779095184
 42
0.4142135623730951
 10
29.18413755340291
 20
17.80663779095184
 10
29.18413755340291
 20
17.77763779095184
 42
0.4142135623730951
 10
29.20413755340291
 20
17.75763779095184
 10
29.40613255340291
 20
17.75763779095184
 42
0.4142135623730951
 10
29.44413755340291
 20
17.79564279095184
 10
29.42213755340291
 20
17.79564279095184
 10
29.42213755340291
 20
17.83758779095184
 42
-0.4142135623731212
 10
29.44213755340291
 20
17.85758779095185
 10
30.01363755340291
 20
17.85758779095183
 42
-0.4142135623730898
 10
30.11363755340291
 20
17.75758779095184
 10
30.1136375534029
 20
16.38258779095184
 42
-0.4142135623730898
 10
30.01363755340291
 20
16.28258779095185
 10
29.44213755340291
 20
16.28258779095183
 42
-0.4142135623730951
 10
29.42213755340291
 20
16.30258779095183
 10
29.42213755340291
 20
16.34453279095184
 10
29.44413755340291
 20
16.34453279095184
 42
0.4142135623730951
 10
29.40613255340291
 20
16.38253779095184
 10
29.20413755340291
 20
16.38253779095184
 42
0.4142135623730951
 10
29.18413755340291
 20
16.36253779095184
 10
29.18413755340291
 20
16.33353779095184
 42
0.4142135623730951
 10
29.20413755340291
 20
16.31353779095184
 10
29.21613755340291
 20
16.31353779095184
 10
29.21613755340291
 20
16.34253779095184
 10
29.25413755340291
 20
16.34253779095184
  0
LINE
  5
643E
330
17
100
AcDbEntity
  8
R-SWTS-DET3
100
AcDbLine
 10
29.4886375534029
 20
17.56919617841698
 30
0.0
 11
27.1136375534029
 21
17.56919617841698
 31
0.0
  0
LINE
  5
643F
330
17
100
AcDbEntity
  8
R-SWTS-DET3
100
AcDbLine
 10
29.4886375534029
 20
17.31919617841698
 30
0.0
 11
27.1136375534029
 21
17.31919617841698
 31
0.0
  0
LINE
  5
6440
330
17
100
AcDbEntity
  8
R-SWTS-DET3
100
AcDbLine
 10
29.4886375534029
 20
16.81919617841698
 30
0.0
 11
27.1136375534029
 21
16.81919617841698
 31
0.0
  0
LINE
  5
6441
330
17
100
AcDbEntity
  8
R-SWTS-DET3
100
AcDbLine
 10
29.4886375534029
 20
16.56919617841698
 30
0.0
 11
27.1136375534029
 21
16.56919617841698
 31
0.0
  0
LINE
  5
6442
330
17
100
AcDbEntity
  8
R-SWTS-DET2
100
AcDbLine
 10
29.1136375534029
 20
18.08649989287182
 30
0.0
 11
27.1136375534029
 21
18.08649989287182
 31
0.0
  0
LINE
  5
6443
330
17
100
AcDbEntity
  8
R-SWTS-DET2
100
AcDbLine
 10
29.1136375534029
 20
16.05189246396214
 30
0.0
 11
27.1136375534029
 21
16.05189246396214
 31
0.0
  0
LINE
  5
6444
330
17
100
AcDbEntity
  8
R-SWTS-DET3
100
AcDbLine
 10
29.4886375534029
 20
17.56919617841698
 30
0.0
 11
29.4886375534029
 21
16.56919617841698
 31
0.0
  0
LINE
  5
6445
330
17
100
AcDbEntity
  8
R-SWTS-DET3
100
AcDbLine
 10
29.2386375534029
 20
17.31919617841698
 30
0.0
 11
29.2386375534029
 21
16.81919617841698
 31
0.0
  0
LINE
  5
6446
330
17
100
AcDbEntity
  8
R-SWTS-DET3
100
AcDbLine
 10
30.73863755340291
 20
18.78201773877863
 30
0.0
 11
33.1136375534029
 21
18.78201773877863
 31
0.0
  0
LINE
  5
6447
330
17
100
AcDbEntity
  8
R-SWTS-DET3
100
AcDbLine
 10
30.73863755340291
 20
18.53201773877863
 30
0.0
 11
33.1136375534029
 21
18.53201773877863
 31
0.0
  0
LINE
  5
6448
330
17
100
AcDbEntity
  8
R-SWTS-DET3
100
AcDbLine
 10
30.73863755340291
 20
18.03201773877863
 30
0.0
 11
33.1136375534029
 21
18.03201773877863
 31
0.0
  0
LINE
  5
6449
330
17
100
AcDbEntity
  8
R-SWTS-DET3
100
AcDbLine
 10
30.73863755340291
 20
17.78201773877863
 30
0.0
 11
33.1136375534029
 21
17.78201773877863
 31
0.0
  0
LINE
  5
644A
330
17
100
AcDbEntity
  8
R-SWTS-DET2
100
AcDbLine
 10
31.11363755340291
 20
19.29932145323347
 30
0.0
 11
33.11363755340291
 21
19.29932145323347
 31
0.0
  0
LINE
  5
644B
330
17
100
AcDbEntity
  8
R-SWTS-DET2
100
AcDbLine
 10
31.11363755340291
 20
17.26471402432379
 30
0.0
 11
33.11363755340291
 21
17.26471402432379
 31
0.0
  0
LINE
  5
644C
330
17
100
AcDbEntity
  8
R-SWTS-DET3
100
AcDbLine
 10
30.73863755340291
 20
18.78201773877863
 30
0.0
 11
30.73863755340291
 21
17.78201773877863
 31
0.0
  0
LINE
  5
644D
330
17
100
AcDbEntity
  8
R-SWTS-DET3
100
AcDbLine
 10
30.98863755340291
 20
18.53201773877863
 30
0.0
 11
30.98863755340291
 21
18.03201773877863
 31
0.0
  0
LWPOLYLINE
  5
644E
330
17
100
AcDbEntity
  8
R-SWTS-DET2
100
AcDbPolyline
 90
       31
 70
     1
 43
0.0
 10
30.99963552523846
 20
19.15550633463243
 10
31.00450982583642
 20
19.12868980809349
 10
31.11174442351817
 20
19.16281993221462
 10
31.11661872239686
 20
19.22376658287469
 10
31.11363755340291
 20
19.29932145323347
 10
31.14464709602414
 20
19.28923091167516
 42
-0.1257100272134179
 10
31.1963894236178
 20
19.0572395096531
 42
0.2260837189018228
 10
31.2461072822619
 20
18.90365394922149
 10
31.35704790042225
 20
18.8080986395618
 42
-0.6449762263124317
 10
31.34530655794859
 20
18.78216434754362
 10
31.21606962231921
 20
18.78374408457167
 42
-0.1518691569180708
 10
31.17163446796995
 20
18.800096861168
 10
31.11170868870147
 20
18.83860004946325
 42
0.0293454671788447
 10
31.05982604550885
 20
18.85599493866615
 10
30.93803203567181
 20
18.87322522824968
 42
0.6538117075652882
 10
30.93104529870644
 20
18.85298441734682
 10
31.09629421619637
 20
18.80889267012449
 42
-0.8886355728344963
 10
31.09423278529698
 20
18.78374408457167
 10
30.95998716490432
 20
18.78374408457167
 42
-0.0642046489364144
 10
30.77137090819704
 20
18.8261765464811
 42
-0.6896355001773956
 10
30.77137090819704
 20
18.9287852768692
 42
-0.0703560868358924
 10
30.95998716490432
 20
18.97001773877863
 10
31.05568997523795
 20
18.97001773877863
 10
31.05568997523795
 20
19.04336449675522
 10
31.00207267553744
 20
19.06530529157269
 10
30.99719837665875
 20
19.02629943365921
 10
30.96064112733184
 20
19.06042955985122
 10
30.93870677807955
 20
19.02873729951994
 10
30.88508948009832
 20
19.08968395225089
 10
30.95089252785518
 20
19.1457548711895
 10
30.96064112733184
 20
19.12137621051129
  0
LWPOLYLINE
  5
644F
330
17
100
AcDbEntity
  8
R-SWTS-DET2
100
AcDbPolyline
 90
       31
 70
     1
 43
0.0
 10
30.99963552523846
 20
17.40852914292483
 10
31.00450982583642
 20
17.43534566946377
 10
31.11174442351817
 20
17.40121554534264
 10
31.11661872239686
 20
17.34026889468257
 10
31.11363755340291
 20
17.26471402432379
 10
31.14464709602414
 20
17.2748045658821
 42
0.1257100272134179
 10
31.1963894236178
 20
17.50679596790416
 42
-0.2260837189018228
 10
31.2461072822619
 20
17.66038152833577
 10
31.35704790042225
 20
17.75593683799546
 42
0.6449762263124317
 10
31.34530655794859
 20
17.78187113001364
 10
31.21606962231921
 20
17.78029139298559
 42
0.1518691569180708
 10
31.17163446796995
 20
17.76393861638926
 10
31.11170868870147
 20
17.72543542809401
 42
-0.0293454671788447
 10
31.05982604550885
 20
17.70804053889111
 10
30.93803203567181
 20
17.69081024930759
 42
-0.6538117075652882
 10
30.93104529870644
 20
17.71105106021044
 10
31.09629421619637
 20
17.75514280743277
 42
0.8886355728344963
 10
31.09423278529698
 20
17.78029139298559
 10
30.95998716490432
 20
17.78029139298559
 42
0.0642046489364144
 10
30.77137090819704
 20
17.73785893107617
 42
0.6896355001773956
 10
30.77137090819704
 20
17.63525020068806
 42
0.0703560868358924
 10
30.95998716490432
 20
17.59401773877863
 10
31.05568997523795
 20
17.59401773877863
 10
31.05568997523795
 20
17.52067098080204
 10
31.00207267553744
 20
17.49873018598457
 10
30.99719837665875
 20
17.53773604389805
 10
30.96064112733184
 20
17.50360591770604
 10
30.93870677807955
 20
17.53529817803732
 10
30.88508948009832
 20
17.47435152530637
 10
30.95089252785518
 20
17.41828060636776
 10
30.96064112733184
 20
17.44265926704597
  0
LWPOLYLINE
  5
6450
330
17
100
AcDbEntity
  8
R-SWTS-DET2
100
AcDbPolyline
 90
       31
 70
     1
 43
0.0
 10
29.22763958156735
 20
17.94268477427078
 10
29.22276528096939
 20
17.91586824773184
 10
29.11553068328764
 20
17.94999837185297
 10
29.11065638440895
 20
18.01094502251304
 10
29.1136375534029
 20
18.08649989287182
 10
29.08262801078166
 20
18.0764093513135
 42
0.1257100272134179
 10
29.03088568318801
 20
17.84441794929145
 42
-0.2260837189018228
 10
28.98116782454391
 20
17.69083238885984
 10
28.87022720638356
 20
17.59527707920015
 42
0.6449762263124317
 10
28.88196854885722
 20
17.56934278718197
 10
29.0112054844866
 20
17.57092252421002
 42
0.1518691569180708
 10
29.05564063883586
 20
17.58727530080635
 10
29.11556641810434
 20
17.6257784891016
 42
-0.0293454671788447
 10
29.16744906129696
 20
17.6431733783045
 10
29.289243071134
 20
17.66040366788802
 42
-0.6538117075652882
 10
29.29622980809936
 20
17.64016285698517
 10
29.13098089060945
 20
17.59607110976284
 42
0.8886355728344963
 10
29.13304232150883
 20
17.57092252421002
 10
29.26728794190149
 20
17.57092252421002
 42
0.0642046489364144
 10
29.45590419860878
 20
17.61335498611944
 42
0.6896355001773956
 10
29.45590419860878
 20
17.71596371650755
 42
0.0703560868358924
 10
29.26728794190149
 20
17.75719617841698
 10
29.17158513156786
 20
17.75719617841698
 10
29.17158513156786
 20
17.83054293639357
 10
29.22520243126837
 20
17.85248373121104
 10
29.23007673014706
 20
17.81347787329756
 10
29.26663397947397
 20
17.84760799948957
 10
29.28856832872626
 20
17.81591573915829
 10
29.3421856267075
 20
17.87686239188924
 10
29.27638257895063
 20
17.93293331082784
 10
29.26663397947397
 20
17.90855465014964
  0
LWPOLYLINE
  5
6451
330
17
100
AcDbEntity
  8
R-SWTS-DET2
100
AcDbPolyline
 90
       31
 70
     1
 43
0.0
 10
29.22763958156735
 20
16.19570758256318
 10
29.22276528096939
 20
16.22252410910212
 10
29.11553068328764
 20
16.18839398498099
 10
29.11065638440895
 20
16.12744733432092
 10
29.1136375534029
 20
16.05189246396214
 10
29.08262801078167
 20
16.06198300552045
 42
-0.1257100272134179
 10
29.03088568318801
 20
16.29397440754251
 42
0.2260837189018228
 10
28.98116782454391
 20
16.44755996797412
 10
28.87022720638356
 20
16.54311527763381
 42
-0.6449762263124317
 10
28.88196854885722
 20
16.56904956965199
 10
29.0112054844866
 20
16.56746983262394
 42
-0.1518691569180708
 10
29.05564063883586
 20
16.55111705602761
 10
29.11556641810434
 20
16.51261386773236
 42
0.0293454671788447
 10
29.16744906129696
 20
16.49521897852946
 10
29.289243071134
 20
16.47798868894593
 42
0.6538117075652882
 10
29.29622980809936
 20
16.49822949984879
 10
29.13098089060945
 20
16.54232124707112
 42
-0.8886355728344963
 10
29.13304232150883
 20
16.56746983262394
 10
29.26728794190149
 20
16.56746983262394
 42
-0.0642046489364144
 10
29.45590419860878
 20
16.52503737071451
 42
-0.6896355001773956
 10
29.45590419860878
 20
16.42242864032641
 42
-0.0703560868358924
 10
29.26728794190149
 20
16.38119617841698
 10
29.17158513156786
 20
16.38119617841698
 10
29.17158513156786
 20
16.30784942044039
 10
29.22520243126837
 20
16.28590862562292
 10
29.23007673014706
 20
16.3249144835364
 10
29.26663397947397
 20
16.29078435734438
 10
29.28856832872626
 20
16.32247661767567
 10
29.3421856267075
 20
16.26152996494472
 10
29.27638257895063
 20
16.20545904600611
 10
29.26663397947397
 20
16.22983770668431
  0
LINE
  5
6452
330
17
100
AcDbEntity
  8
R-ANNO-DIMS
  6
Continuous
100
AcDbLine
 10
29.1136375534029
 20
13.94308596622499
 30
0.0
 11
29.1136375534029
 21
12.88808596622499
 31
0.0
  0
LINE
  5
6453
330
17
100
AcDbEntity
  8
R-ANNO-DIMS
  6
Continuous
100
AcDbLine
 10
28.8636375534029
 20
13.06808596622499
 30
0.0
 11
27.3636275534029
 21
13.06808596622499
 31
0.0
  0
SOLID
  5
6454
330
17
100
AcDbEntity
  8
R-ANNO-DIMS
  6
Continuous
100
AcDbTrace
 10
28.8636375534029
 20
13.10975263289165
 30
0.0
 11
28.8636375534029
 21
13.02641929955832
 31
0.0
 12
29.1136375534029
 22
13.06808596622499
 32
0.0
 13
29.1136375534029
 23
13.06808596622499
 33
0.0
  0
SOLID
  5
6455
330
17
100
AcDbEntity
  8
R-ANNO-DIMS
  6
Continuous
100
AcDbTrace
 10
27.3636275534029
 20
13.10975263289165
 30
0.0
 11
27.3636275534029
 21
13.02641929955832
 31
0.0
 12
27.1136275534029
 22
13.06808596622499
 32
0.0
 13
27.1136275534029
 23
13.06808596622499
 33
0.0
  0
MTEXT
  5
6456
330
17
100
AcDbEntity
  8
R-ANNO-DIMS
  6
Continuous
100
AcDbMText
 10
28.1136325534029
 20
13.29308596622499
 30
0.0
 40
0.25
 41
0.0
 71
     5
 72
     1
  1
\A1;DLO
 73
     1
 44
1.0
1001
ACAD
1000
MTEXTBEGIN
1070
    73
1070
     1
1070
    44
1040
1.0
1070
    74
1070
     0
1000
MTEXTEND
  0
LINE
  5
6457
330
17
100
AcDbEntity
  8
R-ANNO-DIMS
  6
Continuous
100
AcDbLine
 10
29.1136375534029
 20
14.44308596622499
 30
0.0
 11
29.1136375534029
 21
12.88808596622499
 31
0.0
  0
LINE
  5
6458
330
17
100
AcDbEntity
  8
R-ANNO-DIMS
  6
Continuous
100
AcDbLine
 10
31.1136375534029
 20
14.44308596622499
 30
0.0
 11
31.1136375534029
 21
12.88808596622499
 31
0.0
  0
LINE
  5
6459
330
17
100
AcDbEntity
  8
R-ANNO-DIMS
  6
Continuous
100
AcDbLine
 10
29.3636375534029
 20
13.06808596622499
 30
0.0
 11
30.8636375534029
 21
13.06808596622499
 31
0.0
  0
SOLID
  5
645A
330
17
100
AcDbEntity
  8
R-ANNO-DIMS
  6
Continuous
100
AcDbTrace
 10
29.3636375534029
 20
13.10975263289165
 30
0.0
 11
29.3636375534029
 21
13.02641929955832
 31
0.0
 12
29.1136375534029
 22
13.06808596622499
 32
0.0
 13
29.1136375534029
 23
13.06808596622499
 33
0.0
  0
SOLID
  5
645B
330
17
100
AcDbEntity
  8
R-ANNO-DIMS
  6
Continuous
100
AcDbTrace
 10
30.8636375534029
 20
13.10975263289165
 30
0.0
 11
30.8636375534029
 21
13.02641929955832
 31
0.0
 12
31.1136375534029
 22
13.06808596622499
 32
0.0
 13
31.1136375534029
 23
13.06808596622499
 33
0.0
  0
MTEXT
  5
645C
330
17
100
AcDbEntity
  8
R-ANNO-DIMS
  6
Continuous
100
AcDbMText
 10
30.1136375534029
 20
13.29308596622499
 30
0.0
 40
0.25
 41
0.0
 71
     5
 72
     1
  1
\A1;2"
 73
     1
 44
1.0
1001
ACAD
1000
MTEXTBEGIN
1070
    73
1070
     1
1070
    44
1040
1.0
1070
    74
1070
     0
1000
MTEXTEND
  0
LINE
  5
645D
330
17
100
AcDbEntity
  8
R-ANNO-DIMS
  6
Continuous
100
AcDbLine
 10
31.1136375534029
 20
14.44308596622499
 30
0.0
 11
31.1136375534029
 21
12.88808596622499
 31
0.0
  0
LINE
  5
645E
330
17
100
AcDbEntity
  8
R-ANNO-DIMS
  6
Continuous
100
AcDbLine
 10
31.3636375534029
 20
13.06808596622499
 30
0.0
 11
32.8636475534029
 21
13.06808596622499
 31
0.0
  0
SOLID
  5
645F
330
17
100
AcDbEntity
  8
R-ANNO-DIMS
  6
Continuous
100
AcDbTrace
 10
31.3636375534029
 20
13.10975263289165
 30
0.0
 11
31.3636375534029
 21
13.02641929955832
 31
0.0
 12
31.1136375534029
 22
13.06808596622499
 32
0.0
 13
31.1136375534029
 23
13.06808596622499
 33
0.0
  0
SOLID
  5
6460
330
17
100
AcDbEntity
  8
R-ANNO-DIMS
  6
Continuous
100
AcDbTrace
 10
32.8636475534029
 20
13.10975263289165
 30
0.0
 11
32.8636475534029
 21
13.02641929955832
 31
0.0
 12
33.1136475534029
 22
13.06808596622499
 32
0.0
 13
33.1136475534029
 23
13.06808596622499
 33
0.0
  0
MTEXT
  5
6461
330
17
100
AcDbEntity
  8
R-ANNO-DIMS
  6
Continuous
100
AcDbMText
 10
32.1136425534029
 20
13.29308596622499
 30
0.0
 40
0.25
 41
0.0
 71
     5
 72
     1
  1
\A1;DLO
 73
     1
 44
1.0
1001
ACAD
1000
MTEXTBEGIN
1070
    73
1070
     1
1070
    44
1040
1.0
1070
    74
1070
     0
1000
MTEXTEND
  0
LWPOLYLINE
  5
6462
330
17
100
AcDbEntity
  8
R-SWTS-DET1
100
AcDbPolyline
 90
        6
 70
     0
 43
0.0
 10
16.39157914956244
 20
19.82010279593656
 10
16.39157914956244
 20
17.17011279593657
 10
16.19159914956244
 20
17.12009279593656
 10
16.59157914956244
 20
17.02011279593656
 10
16.39157914956244
 20
16.97011279593656
 10
16.39157914956244
 20
14.32010279593656
  0
LWPOLYLINE
  5
6463
330
17
100
AcDbEntity
  8
R-SWTS-DET1
100
AcDbPolyline
 90
        6
 70
     0
 43
0.0
 10
22.39159914956246
 20
14.32010279593656
 10
22.39158914956246
 20
16.95431596883306
 10
22.59156914956246
 20
17.00433596883307
 10
22.19158914956246
 20
17.10431596883307
 10
22.39158914956246
 20
17.15431596883307
 10
22.39159914956246
 20
19.82010279593656
  0
LINE
  5
6464
330
17
100
AcDbEntity
  8
R-SWTS-DET1
100
AcDbLine
 10
22.39159820045482
 20
14.57011798077084
 30
0.0
 11
16.39157914956245
 21
14.57010279593656
 31
0.0
  0
LINE
  5
6465
330
17
100
AcDbEntity
  8
R-SWTS-DET1
100
AcDbLine
 10
20.39158914956245
 20
14.82010279593656
 30
0.0
 11
22.39159914956246
 21
14.82010279593656
 31
0.0
  0
LINE
  5
6466
330
17
100
AcDbEntity
  8
R-SWTS-DET1
100
AcDbLine
 10
18.39158914956245
 20
14.82010279593656
 30
0.0
 11
16.39157914956245
 21
14.82010279593656
 31
0.0
  0
LINE
  5
6467
330
17
100
AcDbEntity
  8
R-SWTS-DET1
100
AcDbLine
 10
22.39159821169675
 20
19.57008779095184
 30
0.0
 11
16.39157914956244
 21
19.57010279593656
 31
0.0
  0
LINE
  5
6468
330
17
100
AcDbEntity
  8
R-SWTS-DET1
100
AcDbLine
 10
20.39158914956245
 20
19.32010279593656
 30
0.0
 11
22.39159914956245
 21
19.32010279593656
 31
0.0
  0
LINE
  5
6469
330
17
100
AcDbEntity
  8
R-SWTS-DET1
100
AcDbLine
 10
18.39158914956244
 20
19.32010279593656
 30
0.0
 11
16.39157914956244
 21
19.32010279593656
 31
0.0
  0
TEXT
  5
646A
330
17
100
AcDbEntity
  8
PART_NUMBERS
100
AcDbText
 10
16.56441120645306
 20
20.07112423207998
 30
0.0
 40
0.25
  1
451VG052 SHALLOW POCKET MULLION
100
AcDbText
  0
TEXT
  5
646B
330
17
100
AcDbEntity
  8
PART_NUMBERS
100
AcDbText
 10
16.56441120645306
 20
20.57112423207998
 30
0.0
 40
0.25
  1
451CG028 DEEP POCKET FILLER
100
AcDbText
  0
LWPOLYLINE
  5
646C
330
17
100
AcDbEntity
  8
R-SWTS-DET1
100
AcDbPolyline
 90
      133
 70
     1
 43
0.0
 10
20.39158914956245
 20
14.96296770747489
 10
20.28908914956245
 20
14.99899801050519
 10
20.28908914956245
 20
14.96999801050519
 10
20.21738914956245
 20
14.96999801050519
 42
-0.1989123673796512
 10
20.19971148003278
 20
14.97732034097553
 10
20.13308914956245
 20
15.04399801050519
 10
20.13308914956245
 20
15.08594801050519
 42
-0.3541185725306985
 10
20.14893091574609
 20
15.10551096251987
 10
20.25108914956245
 20
15.12794801050519
 10
20.28908914956245
 20
15.12794801050519
 10
20.28908914956245
 20
15.09894801050519
 10
20.30108914956245
 20
15.09894801050519
 42
0.4142135623730951
 10
20.32108914956245
 20
15.11894801050519
 10
20.32108914956245
 20
15.14794801050519
 42
0.4142135623730951
 10
20.30108914956245
 20
15.16794801050519
 10
20.09909414956245
 20
15.16794801050519
 42
0.4142135623730951
 10
20.06108914956245
 20
15.12994301050519
 10
20.08308914956245
 20
15.12994301050519
 10
20.08308914956245
 20
15.06794301050519
 10
20.06108914956245
 20
15.06794301050519
 10
20.06108914956245
 20
15.01316695440708
 42
0.1989018846181274
 10
20.06841076701444
 20
14.99548999792452
 10
20.12180688158574
 20
14.94208957569124
 42
-0.6681640521692886
 10
20.10766417554734
 20
14.90794801050519
 10
19.95158914956246
 20
14.90794801050519
 42
-0.4142135623730928
 10
19.89158914956246
 20
14.96794801050519
 10
19.89158914956245
 20
15.78411876808096
 10
19.88158914956245
 20
15.79411876808096
 10
19.89158914956245
 20
15.80411876808096
 10
19.89158914956245
 20
16.03411876808096
 10
19.88158914956245
 20
16.04411876808096
 10
19.89158914956245
 20
16.05411876808096
 10
19.89158914956245
 20
16.54395301050519
 42
-0.4142135623730951
 10
19.99158914956245
 20
16.64395301050519
 10
20.05808914956245
 20
16.64395301050519
 42
-0.4142135623730951
 10
20.08308914956245
 20
16.61895301050519
 10
20.08308914956245
 20
16.58195301050519
 10
20.06108914956245
 20
16.58195301050519
 42
0.4142135623730951
 10
20.09909414956245
 20
16.54394801050519
 10
20.30108914956245
 20
16.54394801050519
 42
0.4142135623730951
 10
20.32108914956245
 20
16.56394801050519
 10
20.32108914956245
 20
16.59294801050519
 42
0.4142135623730951
 10
20.30108914956245
 20
16.61294801050519
 10
20.28908914956245
 20
16.61294801050519
 10
20.28908914956245
 20
16.58394801050519
 10
20.25108914956245
 20
16.58394801050519
 10
20.14893091574609
 20
16.60638505849052
 42
-0.3541185725306792
 10
20.13308914956245
 20
16.62594801050519
 10
20.13308914956245
 20
16.66789801050519
 10
20.19971148003278
 20
16.73457568003485
 42
-0.1989123673796507
 10
20.21738914956245
 20
16.74189801050519
 10
20.28908914956245
 20
16.74189801050519
 10
20.28908914956245
 20
16.71289801050519
 10
20.39158914956245
 20
16.74892831353549
 10
20.39158914956245
 20
16.88394801050519
 10
20.39158914956245
 20
19.31794801050519
 10
18.39158914956244
 20
19.31794801050519
 10
18.39158914956244
 20
18.86394709814176
 10
18.47158914956244
 20
18.86394709814176
 10
18.47158914956245
 20
18.75594709814176
 42
0.4142135623730951
 10
18.53358914956244
 20
18.69394709814175
 10
18.55158914956244
 20
18.69394709814176
 10
18.55158914956245
 20
18.88194709814175
 42
0.4142135623730951
 10
18.48958914956244
 20
18.94394709814176
 10
18.47158914956244
 20
18.94394709814175
 10
18.47158914956244
 20
19.16794801050519
 42
-0.4142135623730929
 10
18.53158914956244
 20
19.22794801050519
 10
20.25158914956245
 20
19.22794801050519
 42
-0.4142135623730951
 10
20.31158914956245
 20
19.16794801050519
 10
20.31158914956245
 20
18.4694480105052
 42
-0.4142135623730951
 10
20.30158914956246
 20
18.45944801050519
 10
20.30158914956246
 20
18.11544801050521
 42
-0.4142135623730951
 10
20.31158914956245
 20
18.10544801050521
 10
20.31158914956245
 20
17.53844801050518
 42
-0.4142135623730951
 10
20.30158914956246
 20
17.52844801050518
 10
20.30158914956246
 20
17.1844480105052
 42
-0.4142135623730951
 10
20.31158914956245
 20
17.1744480105052
 10
20.31158914956245
 20
16.89189801050519
 42
-0.4142135623730951
 10
20.24158914956245
 20
16.82189801050519
 10
20.22153372031386
 20
16.82189801050519
 42
0.1990202627215682
 10
20.14725669161772
 20
16.79111339306213
 10
20.08601091880122
 20
16.72981674716101
 42
-0.1990202627215676
 10
20.07186291333529
 20
16.72395301050519
 10
19.98158914956245
 20
16.72395301050519
 42
0.4142135623730951
 10
19.81158914956245
 20
16.55395301050519
 10
19.81158914956245
 20
16.27511876808096
 42
-0.4142135623731081
 10
19.79158914956245
 20
16.25511876808096
 10
19.58658914956244
 20
16.25511876808096
 42
0.4142135623731173
 10
19.51658914956244
 20
16.18511876808096
 10
19.51658914956245
 20
16.04411876808097
 10
19.58208914956245
 20
16.04411876808097
 42
0.9999999999999998
 10
19.58208914956245
 20
16.07511876808096
 10
19.58158914956245
 20
16.07511876808096
 42
-0.4142135623730951
 10
19.56658914956245
 20
16.09011876808096
 10
19.56658914956245
 20
16.17011876808096
 42
-0.4142135623730976
 10
19.58158914956245
 20
16.18511876808096
 10
19.79658914956245
 20
16.18511876808096
 42
-0.4142135623730938
 10
19.81158914956245
 20
16.17011876808096
 10
19.81158914956245
 20
16.09011466944497
 42
-0.4190234982698207
 10
19.7963432479231
 20
16.07511668516762
 42
1.00823086916291
 10
19.79608914956244
 20
16.04411876808097
 10
19.81158914956245
 20
16.04411876808096
 10
19.81158914956245
 20
15.79411876808096
 10
19.79608914956244
 20
15.79411876808096
 42
0.9999999999999998
 10
19.79608914956244
 20
15.76311876808096
 10
19.79658914956245
 20
15.76311876808096
 42
-0.4142135623730951
 10
19.81158914956245
 20
15.74811876808096
 10
19.81158914956245
 20
15.66811876808095
 42
-0.4142135623730938
 10
19.79658914956245
 20
15.65311876808095
 10
19.58158914956245
 20
15.65311876808095
 42
-0.4142135623730951
 10
19.56658914956245
 20
15.66811876808095
 10
19.56658914956245
 20
15.74812286671694
 42
-0.4190234982697588
 10
19.5818350512018
 20
15.7631208509943
 42
1.008230869162782
 10
19.58208914956245
 20
15.79411876808094
 10
19.51658914956245
 20
15.79411876808095
 10
19.51658914956244
 20
15.65311876808095
 42
0.4142135623731173
 10
19.58658914956244
 20
15.58311876808095
 10
19.79158914956246
 20
15.58311876808095
 42
-0.4142135623730887
 10
19.81158914956246
 20
15.56311876808095
 10
19.81158914956246
 20
14.96794801050519
 42
-0.4142135623730951
 10
19.75158914956246
 20
14.90794801050519
 10
18.53158914956244
 20
14.90794801050519
 42
-0.4142135623730971
 10
18.47158914956244
 20
14.96794801050519
 10
18.47158914956244
 20
15.19194709814177
 10
18.48958914956244
 20
15.19194709814177
 42
0.4142135623730951
 10
18.55158914956244
 20
15.25394709814177
 10
18.55158914956245
 20
15.44194709814176
 10
18.53358914956244
 20
15.44194709814176
 42
0.4142135623730951
 10
18.47158914956245
 20
15.37994709814176
 10
18.47158914956245
 20
15.27194709814176
 10
18.39158914956244
 20
15.27194709814176
 10
18.39158914956244
 20
14.81794801050519
 10
20.39158914956245
 20
14.81794801050519
  0
LWPOLYLINE
  5
646D
330
17
100
AcDbEntity
  8
R-SWTS-DET1
100
AcDbPolyline
 90
       98
 70
     1
 43
0.0
 10
18.63424738337881
 20
16.32011574795123
 42
-0.3541185725306761
 10
18.65008914956246
 20
16.30055279593656
 10
18.65008914956246
 20
16.25860279593656
 10
18.58346681909212
 20
16.1919251264069
 42
-0.1989123673796582
 10
18.56578914956246
 20
16.18460279593656
 10
18.49408914956246
 20
16.18460279593656
 10
18.49408914956246
 20
16.21360279593656
 10
18.39158914956246
 20
16.17757249290626
 10
18.39158914956246
 20
15.27510279593656
 10
18.47158914956246
 20
15.27510279593656
 10
18.47158914956246
 20
15.44510279593656
 10
18.55758914956246
 20
15.44510279593655
 10
18.55758914956246
 20
15.38310279593656
 10
18.77458914956246
 20
15.46210279593656
 42
1.003724381894511
 10
18.75058914956246
 20
15.52760279593655
 10
18.63809079350617
 20
15.48660339506271
 42
-0.5183857430387555
 10
18.61124305413343
 20
15.50524858893356
 42
0.4120800626174657
 10
18.59124358553042
 20
15.52510279593656
 10
18.49158914956246
 20
15.52510279593656
 42
-0.4142135623730951
 10
18.47158914956246
 20
15.54510279593656
 10
18.47158914956246
 20
15.66910279593655
 42
-0.4142135623730951
 10
18.48158914956246
 20
15.67910279593655
 10
18.48158914956246
 20
15.84110279593655
 10
18.47158914956246
 20
15.85110279593655
 10
18.48158914956246
 20
15.86110279593655
 10
18.48158914956246
 20
16.02310279593655
 42
-0.4142135623730951
 10
18.47158914956246
 20
16.03310279593656
 10
18.47158914956246
 20
16.03460279593656
 42
-0.4142135623730951
 10
18.54158914956246
 20
16.10460279593656
 10
18.57164457881105
 20
16.10460279593656
 42
0.1990202627215674
 10
18.64592160750719
 20
16.13538741337962
 10
18.70722233467649
 20
16.19673905928073
 42
-0.1990202627215459
 10
18.72137034014242
 20
16.20260279593655
 10
19.30158914956246
 20
16.20260279593656
 42
0.4142135623730888
 10
19.47158914956246
 20
16.37260279593656
 10
19.47158914956246
 20
17.76760279593655
 42
0.4142135623730889
 10
19.30158914956246
 20
17.93760279593655
 10
18.72137034014242
 20
17.93760279593656
 42
-0.1990202627215466
 10
18.70722233467649
 20
17.94346653259238
 10
18.64592160750719
 20
18.00481817849349
 42
0.1990202627215655
 10
18.57164457881105
 20
18.03560279593655
 10
18.54158914956246
 20
18.03560279593655
 42
-0.4142135623730951
 10
18.47158914956246
 20
18.10560279593655
 10
18.47158914956246
 20
18.10710279593656
 42
-0.4142135623730951
 10
18.48158914956246
 20
18.11710279593656
 10
18.48158914956246
 20
18.27910279593656
 10
18.47158914956246
 20
18.28910279593656
 10
18.48158914956246
 20
18.29910279593656
 10
18.48158914956246
 20
18.46110279593656
 42
-0.4142135623730951
 10
18.47158914956246
 20
18.47110279593656
 10
18.47158914956246
 20
18.59510279593656
 42
-0.4142135623730951
 10
18.49158914956246
 20
18.61510279593656
 10
18.59124358553047
 20
18.61510279593656
 42
0.4120800626174634
 10
18.61124305413343
 20
18.63495700293956
 42
-0.5183857430387571
 10
18.63809079350617
 20
18.65360219681041
 10
18.75058914956246
 20
18.61260279593656
 42
1.003724381894516
 10
18.77458914956246
 20
18.67810279593656
 10
18.55758914956246
 20
18.75710279593656
 10
18.55758914956246
 20
18.69510279593656
 10
18.47158914956246
 20
18.69510279593656
 10
18.47158914956246
 20
18.86510279593656
 10
18.39158914956246
 20
18.86510279593656
 10
18.39158914956246
 20
17.96263309896685
 10
18.49408914956246
 20
17.92660279593656
 10
18.49408914956246
 20
17.95560279593656
 10
18.56578914956246
 20
17.95560279593656
 42
-0.1989123673796506
 10
18.58346681909212
 20
17.94828046546622
 10
18.65008914956246
 20
17.88160279593656
 10
18.65008914956246
 20
17.83965279593656
 42
-0.3541185725306762
 10
18.63424738337881
 20
17.82008984392188
 10
18.53208914956246
 20
17.79765279593656
 10
18.49408914956246
 20
17.79765279593656
 10
18.49408914956246
 20
17.82665279593655
 10
18.48208914956246
 20
17.82665279593655
 42
0.4142135623730951
 10
18.46208914956246
 20
17.80665279593655
 10
18.46208914956246
 20
17.77765279593656
 42
0.4142135623730951
 10
18.48208914956246
 20
17.75765279593656
 10
18.68408414956246
 20
17.75765279593656
 42
0.4142135623730951
 10
18.72208914956246
 20
17.79565779593655
 10
18.70008914956246
 20
17.79565779593655
 10
18.70008914956246
 20
17.83760279593656
 42
-0.4142135623731212
 10
18.72008914956246
 20
17.85760279593656
 10
19.29158914956246
 20
17.85760279593655
 42
-0.4142135623730898
 10
19.39158914956246
 20
17.75760279593655
 10
19.39158914956245
 20
16.38260279593656
 42
-0.4142135623730898
 10
19.29158914956246
 20
16.28260279593656
 10
18.72008914956246
 20
16.28260279593655
 42
-0.4142135623730951
 10
18.70008914956246
 20
16.30260279593655
 10
18.70008914956246
 20
16.34454779593656
 10
18.72208914956246
 20
16.34454779593656
 42
0.4142135623730951
 10
18.68408414956246
 20
16.38255279593656
 10
18.48208914956246
 20
16.38255279593656
 42
0.4142135623730951
 10
18.46208914956246
 20
16.36255279593656
 10
18.46208914956246
 20
16.33355279593656
 42
0.4142135623730951
 10
18.48208914956246
 20
16.31355279593656
 10
18.49408914956246
 20
16.31355279593656
 10
18.49408914956246
 20
16.34255279593656
 10
18.53208914956246
 20
16.34255279593656
  0
LINE
  5
646E
330
17
100
AcDbEntity
  8
R-SWTS-DET3
100
AcDbLine
 10
18.76658914956245
 20
17.5692111834017
 30
0.0
 11
16.39158914956245
 21
17.5692111834017
 31
0.0
  0
LINE
  5
646F
330
17
100
AcDbEntity
  8
R-SWTS-DET3
100
AcDbLine
 10
18.76658914956245
 20
17.3192111834017
 30
0.0
 11
16.39158914956245
 21
17.3192111834017
 31
0.0
  0
LINE
  5
6470
330
17
100
AcDbEntity
  8
R-SWTS-DET3
100
AcDbLine
 10
18.76658914956245
 20
16.8192111834017
 30
0.0
 11
16.39158914956245
 21
16.8192111834017
 31
0.0
  0
LINE
  5
6471
330
17
100
AcDbEntity
  8
R-SWTS-DET3
100
AcDbLine
 10
18.76658914956245
 20
16.5692111834017
 30
0.0
 11
16.39158914956245
 21
16.5692111834017
 31
0.0
  0
LINE
  5
6472
330
17
100
AcDbEntity
  8
R-SWTS-DET2
100
AcDbLine
 10
18.39158914956245
 20
18.08651489785654
 30
0.0
 11
16.39158914956245
 21
18.08651489785654
 31
0.0
  0
LINE
  5
6473
330
17
100
AcDbEntity
  8
R-SWTS-DET2
100
AcDbLine
 10
18.39158914956245
 20
16.05190746894685
 30
0.0
 11
16.39158914956245
 21
16.05190746894685
 31
0.0
  0
LINE
  5
6474
330
17
100
AcDbEntity
  8
R-SWTS-DET3
100
AcDbLine
 10
18.76658914956245
 20
17.5692111834017
 30
0.0
 11
18.76658914956245
 21
16.5692111834017
 31
0.0
  0
LINE
  5
6475
330
17
100
AcDbEntity
  8
R-SWTS-DET3
100
AcDbLine
 10
18.51658914956245
 20
17.3192111834017
 30
0.0
 11
18.51658914956245
 21
16.8192111834017
 31
0.0
  0
LINE
  5
6476
330
17
100
AcDbEntity
  8
R-SWTS-DET3
100
AcDbLine
 10
20.01658914956246
 20
15.35638962304004
 30
0.0
 11
22.39158914956246
 21
15.35638962304005
 31
0.0
  0
LINE
  5
6477
330
17
100
AcDbEntity
  8
R-SWTS-DET3
100
AcDbLine
 10
20.01658914956246
 20
15.60638962304004
 30
0.0
 11
22.39158914956246
 21
15.60638962304005
 31
0.0
  0
LINE
  5
6478
330
17
100
AcDbEntity
  8
R-SWTS-DET3
100
AcDbLine
 10
20.01658914956246
 20
16.10638962304005
 30
0.0
 11
22.39158914956246
 21
16.10638962304005
 31
0.0
  0
LINE
  5
6479
330
17
100
AcDbEntity
  8
R-SWTS-DET3
100
AcDbLine
 10
20.01658914956246
 20
16.35638962304005
 30
0.0
 11
22.39158914956246
 21
16.35638962304005
 31
0.0
  0
LINE
  5
647A
330
17
100
AcDbEntity
  8
R-SWTS-DET2
100
AcDbLine
 10
20.39158914956246
 20
14.8390859085852
 30
0.0
 11
22.39158914956246
 21
14.8390859085852
 31
0.0
  0
LINE
  5
647B
330
17
100
AcDbEntity
  8
R-SWTS-DET2
100
AcDbLine
 10
20.39158914956246
 20
16.87369333749489
 30
0.0
 11
22.39158914956246
 21
16.87369333749489
 31
0.0
  0
LINE
  5
647C
330
17
100
AcDbEntity
  8
R-SWTS-DET3
100
AcDbLine
 10
20.01658914956246
 20
15.35638962304004
 30
0.0
 11
20.01658914956246
 21
16.35638962304005
 31
0.0
  0
LINE
  5
647D
330
17
100
AcDbEntity
  8
R-SWTS-DET3
100
AcDbLine
 10
20.26658914956246
 20
15.60638962304004
 30
0.0
 11
20.26658914956246
 21
16.10638962304005
 31
0.0
  0
LWPOLYLINE
  5
647E
330
17
100
AcDbEntity
  8
R-SWTS-DET2
100
AcDbPolyline
 90
       31
 70
     1
 43
0.0
 10
20.27758712139801
 20
14.98290102718625
 10
20.28246142199598
 20
15.00971755372519
 10
20.38969601967773
 20
14.97558742960405
 10
20.39457031855642
 20
14.91464077894398
 10
20.39158914956246
 20
14.8390859085852
 10
20.4225986921837
 20
14.84917645014352
 42
0.1257100272134179
 10
20.47434101977735
 20
15.08116785216557
 42
-0.2260837189018228
 10
20.52405887842145
 20
15.23475341259718
 10
20.63499949658181
 20
15.33030872225687
 42
0.6449762263124317
 10
20.62325815410815
 20
15.35624301427506
 10
20.49402121847876
 20
15.354663277247
 42
0.1518691569180708
 10
20.4495860641295
 20
15.33831050065067
 10
20.38966028486103
 20
15.29980731235542
 42
-0.0293454671788447
 10
20.3377776416684
 20
15.28241242315252
 10
20.21598363183136
 20
15.265182133569
 42
-0.6538117075652882
 10
20.208996894866
 20
15.28542294447186
 10
20.37424581235592
 20
15.32951469169418
 42
0.8886355728344963
 10
20.37218438145653
 20
15.354663277247
 10
20.23793876106387
 20
15.354663277247
 42
0.0642046489364144
 10
20.04932250435659
 20
15.31223081533758
 42
0.6896355001773956
 10
20.04932250435659
 20
15.20962208494947
 42
0.0703560868358924
 10
20.23793876106387
 20
15.16838962304005
 10
20.33364157139751
 20
15.16838962304005
 10
20.33364157139751
 20
15.09504286506346
 10
20.28002427169699
 20
15.07310207024599
 10
20.2751499728183
 20
15.11210792815946
 10
20.23859272349139
 20
15.07797780196745
 10
20.2166583742391
 20
15.10967006229873
 10
20.16304107625787
 20
15.04872340956778
 10
20.22884412401474
 20
14.99265249062918
 10
20.23859272349139
 20
15.01703115130738
  0
LWPOLYLINE
  5
647F
330
17
100
AcDbEntity
  8
R-SWTS-DET2
100
AcDbPolyline
 90
       31
 70
     1
 43
0.0
 10
20.27758712139801
 20
16.72987821889384
 10
20.28246142199598
 20
16.70306169235491
 10
20.38969601967773
 20
16.73719181647604
 10
20.39457031855642
 20
16.79813846713611
 10
20.39158914956246
 20
16.87369333749489
 10
20.4225986921837
 20
16.86360279593657
 42
-0.1257100272134179
 10
20.47434101977735
 20
16.63161139391451
 42
0.2260837189018228
 10
20.52405887842145
 20
16.47802583348291
 10
20.63499949658181
 20
16.38247052382322
 42
-0.6449762263124317
 10
20.62325815410814
 20
16.35653623180503
 10
20.49402121847876
 20
16.35811596883308
 42
-0.1518691569180708
 10
20.4495860641295
 20
16.37446874542941
 10
20.38966028486102
 20
16.41297193372467
 42
0.0293454671788447
 10
20.3377776416684
 20
16.43036682292757
 10
20.21598363183136
 20
16.44759711251109
 42
0.6538117075652882
 10
20.208996894866
 20
16.42735630160823
 10
20.37424581235592
 20
16.38326455438591
 42
-0.8886355728344963
 10
20.37218438145653
 20
16.35811596883308
 10
20.23793876106387
 20
16.35811596883308
 42
-0.0642046489364144
 10
20.04932250435659
 20
16.40054843074251
 42
-0.6896355001773956
 10
20.04932250435659
 20
16.50315716113062
 42
-0.0703560868358924
 10
20.23793876106387
 20
16.54438962304005
 10
20.33364157139751
 20
16.54438962304005
 10
20.33364157139751
 20
16.61773638101663
 10
20.28002427169699
 20
16.6396771758341
 10
20.2751499728183
 20
16.60067131792063
 10
20.23859272349139
 20
16.63480144411264
 10
20.2166583742391
 20
16.60310918378136
 10
20.16304107625787
 20
16.66405583651231
 10
20.22884412401474
 20
16.72012675545091
 10
20.23859272349139
 20
16.69574809477271
  0
LWPOLYLINE
  5
6480
330
17
100
AcDbEntity
  8
R-SWTS-DET2
100
AcDbPolyline
 90
       31
 70
     1
 43
0.0
 10
18.5055911777269
 20
17.94269977925549
 10
18.50071687712894
 20
17.91588325271655
 10
18.39348227944719
 20
17.95001337683769
 10
18.3886079805685
 20
18.01096002749776
 10
18.39158914956245
 20
18.08651489785654
 10
18.36057960694121
 20
18.07642435629822
 42
0.1257100272134179
 10
18.30883727934756
 20
17.84443295427617
 42
-0.2260837189018228
 10
18.25911942070346
 20
17.69084739384456
 10
18.14817880254311
 20
17.59529208418487
 42
0.6449762263124317
 10
18.15992014501677
 20
17.56935779216668
 10
18.28915708064615
 20
17.57093752919473
 42
0.1518691569180708
 10
18.33359223499541
 20
17.58729030579107
 10
18.39351801426389
 20
17.62579349408632
 42
-0.0293454671788447
 10
18.44540065745651
 20
17.64318838328922
 10
18.56719466729355
 20
17.66041867287274
 42
-0.6538117075652882
 10
18.57418140425892
 20
17.64017786196988
 10
18.408932486769
 20
17.59608611474756
 42
0.8886355728344963
 10
18.41099391766838
 20
17.57093752919473
 10
18.54523953806104
 20
17.57093752919473
 42
0.0642046489364144
 10
18.73385579476833
 20
17.61336999110416
 42
0.6896355001773956
 10
18.73385579476833
 20
17.71597872149227
 42
0.0703560868358924
 10
18.54523953806104
 20
17.75721118340169
 10
18.44953672772741
 20
17.75721118340169
 10
18.44953672772741
 20
17.83055794137829
 10
18.50315402742792
 20
17.85249873619575
 10
18.50802832630661
 20
17.81349287828228
 10
18.54458557563352
 20
17.84762300447429
 10
18.56651992488581
 20
17.81593074414301
 10
18.62013722286705
 20
17.87687739687396
 10
18.55433417511018
 20
17.93294831581256
 10
18.54458557563352
 20
17.90856965513436
  0
LWPOLYLINE
  5
6481
330
17
100
AcDbEntity
  8
R-SWTS-DET2
100
AcDbPolyline
 90
       31
 70
     1
 43
0.0
 10
18.5055911777269
 20
16.1957225875479
 10
18.50071687712894
 20
16.22253911408684
 10
18.39348227944719
 20
16.1884089899657
 10
18.3886079805685
 20
16.12746233930564
 10
18.39158914956245
 20
16.05190746894685
 10
18.36057960694122
 20
16.06199801050517
 42
-0.1257100272134179
 10
18.30883727934756
 20
16.29398941252723
 42
0.2260837189018228
 10
18.25911942070346
 20
16.44757497295884
 10
18.14817880254311
 20
16.54313028261853
 42
-0.6449762263124317
 10
18.15992014501677
 20
16.56906457463671
 10
18.28915708064615
 20
16.56748483760866
 42
-0.1518691569180708
 10
18.33359223499541
 20
16.55113206101233
 10
18.39351801426389
 20
16.51262887271707
 42
0.0293454671788447
 10
18.44540065745651
 20
16.49523398351418
 10
18.56719466729355
 20
16.47800369393065
 42
0.6538117075652882
 10
18.57418140425892
 20
16.49824450483351
 10
18.408932486769
 20
16.54233625205583
 42
-0.8886355728344963
 10
18.41099391766838
 20
16.56748483760866
 10
18.54523953806104
 20
16.56748483760866
 42
-0.0642046489364144
 10
18.73385579476833
 20
16.52505237569923
 42
-0.6896355001773956
 10
18.73385579476833
 20
16.42244364531112
 42
-0.0703560868358924
 10
18.54523953806104
 20
16.3812111834017
 10
18.44953672772741
 20
16.3812111834017
 10
18.44953672772741
 20
16.30786442542511
 10
18.50315402742792
 20
16.28592363060764
 10
18.50802832630661
 20
16.32492948852112
 10
18.54458557563352
 20
16.2907993623291
 10
18.56651992488581
 20
16.32249162266038
 10
18.62013722286705
 20
16.26154496992944
 10
18.55433417511018
 20
16.20547405099083
 10
18.54458557563352
 20
16.22985271166903
  0
LINE
  5
6482
330
17
100
AcDbEntity
  8
R-ANNO-DIMS
  6
Continuous
100
AcDbLine
 10
18.39158914956245
 20
13.9431009712097
 30
0.0
 11
18.39158914956245
 21
12.8881009712097
 31
0.0
  0
LINE
  5
6483
330
17
100
AcDbEntity
  8
R-ANNO-DIMS
  6
Continuous
100
AcDbLine
 10
18.14158914956245
 20
13.0681009712097
 30
0.0
 11
16.64157914956245
 21
13.0681009712097
 31
0.0
  0
SOLID
  5
6484
330
17
100
AcDbEntity
  8
R-ANNO-DIMS
  6
Continuous
100
AcDbTrace
 10
18.14158914956245
 20
13.10976763787637
 30
0.0
 11
18.14158914956245
 21
13.02643430454304
 31
0.0
 12
18.39158914956245
 22
13.0681009712097
 32
0.0
 13
18.39158914956245
 23
13.0681009712097
 33
0.0
  0
SOLID
  5
6485
330
17
100
AcDbEntity
  8
R-ANNO-DIMS
  6
Continuous
100
AcDbTrace
 10
16.64157914956245
 20
13.10976763787637
 30
0.0
 11
16.64157914956245
 21
13.02643430454304
 31
0.0
 12
16.39157914956245
 22
13.0681009712097
 32
0.0
 13
16.39157914956245
 23
13.0681009712097
 33
0.0
  0
MTEXT
  5
6486
330
17
100
AcDbEntity
  8
R-ANNO-DIMS
  6
Continuous
100
AcDbMText
 10
17.39158414956245
 20
13.2931009712097
 30
0.0
 40
0.25
 41
0.0
 71
     5
 72
     1
  1
\A1;DLO
 73
     1
 44
1.0
1001
ACAD
1000
MTEXTBEGIN
1070
    73
1070
     1
1070
    44
1040
1.0
1070
    74
1070
     0
1000
MTEXTEND
  0
LINE
  5
6487
330
17
100
AcDbEntity
  8
R-ANNO-DIMS
  6
Continuous
100
AcDbLine
 10
18.39158914956245
 20
14.4431009712097
 30
0.0
 11
18.39158914956245
 21
12.8881009712097
 31
0.0
  0
LINE
  5
6488
330
17
100
AcDbEntity
  8
R-ANNO-DIMS
  6
Continuous
100
AcDbLine
 10
20.39158914956245
 20
14.4431009712097
 30
0.0
 11
20.39158914956245
 21
12.8881009712097
 31
0.0
  0
LINE
  5
6489
330
17
100
AcDbEntity
  8
R-ANNO-DIMS
  6
Continuous
100
AcDbLine
 10
18.64158914956245
 20
13.0681009712097
 30
0.0
 11
20.14158914956245
 21
13.0681009712097
 31
0.0
  0
SOLID
  5
648A
330
17
100
AcDbEntity
  8
R-ANNO-DIMS
  6
Continuous
100
AcDbTrace
 10
18.64158914956245
 20
13.10976763787637
 30
0.0
 11
18.64158914956245
 21
13.02643430454304
 31
0.0
 12
18.39158914956245
 22
13.0681009712097
 32
0.0
 13
18.39158914956245
 23
13.0681009712097
 33
0.0
  0
SOLID
  5
648B
330
17
100
AcDbEntity
  8
R-ANNO-DIMS
  6
Continuous
100
AcDbTrace
 10
20.14158914956245
 20
13.10976763787637
 30
0.0
 11
20.14158914956245
 21
13.02643430454304
 31
0.0
 12
20.39158914956245
 22
13.0681009712097
 32
0.0
 13
20.39158914956245
 23
13.0681009712097
 33
0.0
  0
MTEXT
  5
648C
330
17
100
AcDbEntity
  8
R-ANNO-DIMS
  6
Continuous
100
AcDbMText
 10
19.39158914956245
 20
13.2931009712097
 30
0.0
 40
0.25
 41
0.0
 71
     5
 72
     1
  1
\A1;2"
 73
     1
 44
1.0
1001
ACAD
1000
MTEXTBEGIN
1070
    73
1070
     1
1070
    44
1040
1.0
1070
    74
1070
     0
1000
MTEXTEND
  0
LINE
  5
648D
330
17
100
AcDbEntity
  8
R-ANNO-DIMS
  6
Continuous
100
AcDbLine
 10
20.39158914956245
 20
14.4431009712097
 30
0.0
 11
20.39158914956245
 21
12.8881009712097
 31
0.0
  0
LINE
  5
648E
330
17
100
AcDbEntity
  8
R-ANNO-DIMS
  6
Continuous
100
AcDbLine
 10
20.64158914956245
 20
13.0681009712097
 30
0.0
 11
22.14159914956246
 21
13.0681009712097
 31
0.0
  0
SOLID
  5
648F
330
17
100
AcDbEntity
  8
R-ANNO-DIMS
  6
Continuous
100
AcDbTrace
 10
20.64158914956245
 20
13.10976763787637
 30
0.0
 11
20.64158914956245
 21
13.02643430454304
 31
0.0
 12
20.39158914956245
 22
13.0681009712097
 32
0.0
 13
20.39158914956245
 23
13.0681009712097
 33
0.0
  0
SOLID
  5
6490
330
17
100
AcDbEntity
  8
R-ANNO-DIMS
  6
Continuous
100
AcDbTrace
 10
22.14159914956246
 20
13.10976763787637
 30
0.0
 11
22.14159914956246
 21
13.02643430454304
 31
0.0
 12
22.39159914956246
 22
13.0681009712097
 32
0.0
 13
22.39159914956246
 23
13.0681009712097
 33
0.0
  0
MTEXT
  5
6491
330
17
100
AcDbEntity
  8
R-ANNO-DIMS
  6
Continuous
100
AcDbMText
 10
21.39159414956246
 20
13.2931009712097
 30
0.0
 40
0.25
 41
0.0
 71
     5
 72
     1
  1
\A1;DLO
 73
     1
 44
1.0
1001
ACAD
1000
MTEXTBEGIN
1070
    73
1070
     1
1070
    44
1040
1.0
1070
    74
1070
     0
1000
MTEXTEND
  0
LWPOLYLINE
  5
6492
330
17
100
AcDbEntity
  8
R-SWTS-DET1
100
AcDbPolyline
 90
        6
 70
     0
 43
0.0
 10
43.59261693903634
 20
14.30778743951522
 10
43.59261693903634
 20
16.95777743951521
 10
43.79259693903633
 20
17.00779743951521
 10
43.39261693903633
 20
17.10777743951522
 10
43.59261693903634
 20
17.15777743951521
 10
43.59261693903634
 20
19.80778743951522
  0
LWPOLYLINE
  5
6493
330
17
100
AcDbEntity
  8
R-SWTS-DET1
100
AcDbPolyline
 90
        6
 70
     0
 43
0.0
 10
37.59259693903633
 20
19.80778743951522
 10
37.59259693903633
 20
17.15779743951522
 10
37.39261693903632
 20
17.10777743951522
 10
37.79259693903634
 20
17.00779743951521
 10
37.59259693903633
 20
16.95779743951522
 10
37.59259693903633
 20
14.30778743951522
  0
LINE
  5
6494
330
17
100
AcDbEntity
  8
R-SWTS-DET1
100
AcDbLine
 10
43.59261693903634
 20
14.57007278596713
 30
0.0
 11
37.59259693903633
 21
14.57007278596713
 31
0.0
  0
LINE
  5
6495
330
17
100
AcDbEntity
  8
R-SWTS-DET1
100
AcDbLine
 10
41.59260693903633
 20
14.82007278596713
 30
0.0
 11
43.59261693903634
 21
14.82007278596713
 31
0.0
  0
LINE
  5
6496
330
17
100
AcDbEntity
  8
R-SWTS-DET1
100
AcDbLine
 10
43.59261693903634
 20
19.57007278596712
 30
0.0
 11
37.59259693903632
 21
19.57007278596712
 31
0.0
  0
LINE
  5
6497
330
17
100
AcDbEntity
  8
R-SWTS-DET1
100
AcDbLine
 10
39.59260693903632
 20
19.32007278596713
 30
0.0
 11
37.59259693903632
 21
19.32007278596713
 31
0.0
  0
LINE
  5
6498
330
17
100
AcDbEntity
  8
R-SWTS-DET1
100
AcDbLine
 10
41.59260693903632
 20
19.32007278596713
 30
0.0
 11
43.59261693903632
 21
19.32007278596713
 31
0.0
  0
LINE
  5
6499
330
17
100
AcDbEntity
  8
R-SWTS-DET1
100
AcDbLine
 10
39.59260693903632
 20
14.82007278596713
 30
0.0
 11
37.59259693903633
 21
14.82007278596713
 31
0.0
  0
TEXT
  5
649A
330
17
100
AcDbEntity
  8
PART_NUMBERS
100
AcDbText
 10
37.76542899592694
 20
20.05933311886616
 30
0.0
 40
0.25
  1
451VG001 MULLION
100
AcDbText
  0
TEXT
  5
649B
330
17
100
AcDbEntity
  8
PART_NUMBERS
100
AcDbText
 10
37.76542899592694
 20
20.55933311886616
 30
0.0
 40
0.25
  1
451CG002 POCKET FILLER
100
AcDbText
  0
LWPOLYLINE
  5
649C
330
17
100
AcDbEntity
  8
R-SWTS-DET1
100
AcDbPolyline
 90
      148
 70
     1
 43
0.0
 10
40.67260693903635
 20
17.97161369309939
 10
40.67260693903635
 20
18.04813093960697
 42
-0.3242050878081617
 10
40.6829348078888
 20
18.0623847528
 42
0.8529632016673883
 10
40.67810693903635
 20
18.0926136930994
 10
40.67260693903635
 20
18.0926136930994
 10
40.67260693903635
 20
18.34261369309941
 10
40.67810693903635
 20
18.34261369309941
 42
0.8529632016668454
 10
40.6829348078888
 20
18.37284263339875
 42
-0.3242050878078117
 10
40.67260693903635
 20
18.38709644659172
 10
40.67260693903635
 20
18.4636136930994
 42
-0.4142135623731015
 10
40.69260693903634
 20
18.48361369309941
 10
40.89760693903634
 20
18.48361369309941
 42
-0.4142135623730951
 10
40.91760693903634
 20
18.4636136930994
 10
40.91760693903634
 20
18.38861369309941
 42
-0.4142135623730951
 10
40.90260693903634
 20
18.37361369309941
 10
40.90210693903634
 20
18.37361369309941
 42
0.9999999999999998
 10
40.90210693903634
 20
18.34261369309941
 10
40.96760693903634
 20
18.34261369309941
 10
40.96760693903635
 20
18.4836136930994
 42
0.4142135623731173
 10
40.89760693903635
 20
18.55361369309941
 10
40.69260693903634
 20
18.55361369309941
 42
-0.414213562373108
 10
40.67260693903634
 20
18.57361369309941
 10
40.67260693903635
 20
19.16878445067517
 42
-0.4142135623730906
 10
40.73260693903634
 20
19.22878445067517
 10
41.45260693903634
 20
19.22878445067517
 42
-0.4142135623730897
 10
41.51260693903634
 20
19.16878445067517
 10
41.51260693903634
 20
18.94478536303859
 10
41.49460693903634
 20
18.94478536303859
 42
0.4142135623730951
 10
41.43260693903634
 20
18.88278536303858
 10
41.43260693903633
 20
18.6947853630386
 10
41.45060693903634
 20
18.6947853630386
 42
0.4142135623730951
 10
41.51260693903633
 20
18.75678536303859
 10
41.51260693903633
 20
18.8647853630386
 10
41.59260693903634
 20
18.8647853630386
 10
41.59260693903634
 20
19.31878445067517
 10
39.59260693903635
 20
19.31878445067517
 10
39.59260693903635
 20
19.17376475370547
 10
39.69510693903635
 20
19.13773445067516
 10
39.69510693903635
 20
19.16673445067516
 10
39.76887921984391
 20
19.16673445067516
 42
-0.1990202627215749
 10
39.78302722530984
 20
19.16087071401934
 10
39.85110693903634
 20
19.09273445067516
 10
39.85110693903634
 20
19.05078491828886
 42
-0.3522182948120313
 10
39.83539728676624
 20
19.03125051488469
 10
39.73310693903635
 20
19.00878445067516
 10
39.69510693903635
 20
19.00878445067516
 10
39.69510693903635
 20
19.03778445067516
 10
39.68310693903634
 20
19.03778445067516
 42
0.4142135623730951
 10
39.66310693903634
 20
19.01778445067516
 10
39.66310693903634
 20
18.98878445067516
 42
0.4142135623730951
 10
39.68310693903634
 20
18.96878445067516
 10
39.88510193903635
 20
18.96878445067516
 42
0.4142135623730882
 10
39.92310693903635
 20
19.00678945067516
 10
39.90110693903634
 20
19.00678945067516
 10
39.90110693903634
 20
19.06878945067516
 10
39.92310693903635
 20
19.06878945067516
 10
39.92310693903635
 20
19.12563645644699
 42
0.198901884618123
 10
39.91724964507475
 20
19.13977802163304
 10
39.86238920701304
 20
19.19464288548912
 42
-0.6681640521692715
 10
39.87653191305144
 20
19.22878445067517
 10
40.53260693903633
 20
19.22878445067517
 42
-0.4142135623730928
 10
40.59260693903634
 20
19.16878445067517
 10
40.59260693903634
 20
18.3526136930994
 10
40.60260693903635
 20
18.3426136930994
 10
40.59260693903634
 20
18.3326136930994
 10
40.59260693903634
 20
18.1026136930994
 10
40.60260693903635
 20
18.0926136930994
 10
40.59260693903634
 20
18.0826136930994
 10
40.59260693903635
 20
17.59277945067517
 42
-0.4142135623730977
 10
40.49260693903635
 20
17.49277945067517
 10
39.92610693903634
 20
17.49277945067517
 42
-0.4142135623730951
 10
39.90110693903634
 20
17.51777945067517
 10
39.90110693903634
 20
17.55477945067517
 10
39.92310693903635
 20
17.55477945067517
 42
0.4142135623730951
 10
39.88510193903635
 20
17.59278445067517
 10
39.68310693903634
 20
17.59278445067517
 42
0.4142135623730951
 10
39.66310693903634
 20
17.57278445067517
 10
39.66310693903634
 20
17.54378445067517
 42
0.4142135623730951
 10
39.68310693903634
 20
17.52378445067517
 10
39.69510693903635
 20
17.52378445067517
 10
39.69510693903635
 20
17.55278445067517
 10
39.73310693903635
 20
17.55278445067517
 10
39.8352651728527
 20
17.53034740268985
 42
-0.3541185725306697
 10
39.85110693903634
 20
17.51078445067516
 10
39.85110693903634
 20
17.46883445067517
 10
39.78448460856601
 20
17.40215678114551
 42
-0.198912367379654
 10
39.76680693903634
 20
17.39483445067517
 10
39.69510693903635
 20
17.39483445067517
 10
39.69510693903635
 20
17.42383445067516
 10
39.59260693903634
 20
17.38780414764487
 10
39.59260693903634
 20
14.81878445067517
 10
41.59260693903634
 20
14.81878445067517
 10
41.59260693903634
 20
15.2727853630386
 10
41.51260693903634
 20
15.2727853630386
 10
41.51260693903633
 20
15.3807853630386
 42
0.4142135623730951
 10
41.45060693903634
 20
15.44278536303861
 10
41.43260693903634
 20
15.4427853630386
 10
41.43260693903633
 20
15.2547853630386
 42
0.4142135623730951
 10
41.49460693903634
 20
15.1927853630386
 10
41.51260693903634
 20
15.1927853630386
 10
41.51260693903634
 20
14.96878445067517
 42
-0.414213562373094
 10
41.45260693903634
 20
14.90878445067517
 10
39.73260693903634
 20
14.90878445067517
 42
-0.4142135623730951
 10
39.67260693903634
 20
14.96878445067517
 10
39.67260693903635
 20
15.68655461321439
 42
-0.5680984128595057
 10
39.70212045254987
 20
15.70414702807501
 42
0.3397540095737747
 10
39.90060693903635
 20
15.73603693414608
 10
39.90060693903635
 20
15.7800024183724
 10
39.87112627398752
 20
15.79702308827423
 42
0.3865446749097419
 10
39.85798157542073
 20
15.79416489294485
 42
-3.127286275187389
 10
39.85798157542074
 20
15.90440400840547
 42
0.3865446749096575
 10
39.87112627398752
 20
15.90154581307608
 10
39.90060693903635
 20
15.91856648297791
 10
39.90060693903635
 20
15.96253196720422
 42
0.3397540095737754
 10
39.70212045254987
 20
15.99442187327528
 42
-0.5680984128594928
 10
39.67260693903635
 20
16.01201428813592
 10
39.67260693903635
 20
16.61755461321439
 42
-0.5680984128595057
 10
39.70212045254987
 20
16.63514702807501
 42
0.3397540095737747
 10
39.90060693903635
 20
16.66703693414608
 10
39.90060693903635
 20
16.7110024183724
 10
39.87112627398752
 20
16.72802308827423
 42
0.3865446749097419
 10
39.85798157542073
 20
16.72516489294484
 42
-3.127286275187389
 10
39.85798157542074
 20
16.83540400840547
 42
0.3865446749096575
 10
39.87112627398752
 20
16.83254581307608
 10
39.90060693903635
 20
16.84956648297791
 10
39.90060693903635
 20
16.89353196720422
 42
0.3397540095737754
 10
39.70212045254987
 20
16.92542187327528
 42
-0.5680984128594928
 10
39.67260693903635
 20
16.94301428813592
 10
39.67260693903634
 20
17.24483445067517
 42
-0.4142135623730951
 10
39.74260693903634
 20
17.31483445067517
 10
39.77266236828493
 20
17.31483445067517
 42
0.1990202627215673
 10
39.84693939698107
 20
17.34561906811823
 10
39.90818516979757
 20
17.40691571401935
 42
-0.1990202627215632
 10
39.92233317526351
 20
17.41277945067517
 10
40.50260693903634
 20
17.41277945067517
 42
0.4142135623730935
 10
40.67260693903635
 20
17.58277945067517
 10
40.67260693903635
 20
17.8616136930994
 42
-0.4142135623731081
 10
40.69260693903635
 20
17.88161369309939
 10
40.89760693903635
 20
17.88161369309939
 42
0.4142135623731173
 10
40.96760693903635
 20
17.9516136930994
 10
40.96760693903634
 20
18.09261369309939
 10
40.90210693903634
 20
18.09261369309939
 42
0.9999999999999998
 10
40.90210693903634
 20
18.06161369309939
 10
40.90260693903634
 20
18.06161369309939
 42
-0.4142135623730951
 10
40.91760693903634
 20
18.04661369309939
 10
40.91760693903634
 20
17.9716136930994
 42
-0.4142135623731015
 10
40.89760693903635
 20
17.9516136930994
 10
40.69260693903635
 20
17.9516136930994
 42
-0.4142135623730951
  0
LWPOLYLINE
  5
649D
330
17
100
AcDbEntity
  8
R-SWTS-DET1
100
AcDbPolyline
 90
       98
 70
     1
 43
0.0
 10
41.49010693903631
 20
17.79762278596712
 10
41.45210693903631
 20
17.79762278596712
 10
41.34994870521995
 20
17.82005983395245
 42
-0.3541185725306792
 10
41.33410693903631
 20
17.83962278596712
 10
41.33410693903631
 20
17.88157278596712
 10
41.40072926950665
 20
17.94825045549678
 42
-0.1989123673796537
 10
41.41840693903631
 20
17.95557278596712
 10
41.49010693903631
 20
17.95557278596712
 10
41.49010693903631
 20
17.92657278596712
 10
41.59260693903632
 20
17.96260308899742
 10
41.59260693903632
 20
18.86507278596713
 10
41.51260693903632
 20
18.86507278596713
 10
41.51260693903632
 20
18.69507278596713
 10
41.42660693903631
 20
18.69507278596713
 10
41.42660693903631
 20
18.75707278596712
 10
41.20960693903632
 20
18.67807278596712
 42
1.003724381894516
 10
41.23360693903632
 20
18.61257278596713
 10
41.34610529509259
 20
18.65357218684097
 42
-0.5183857430387767
 10
41.37295303446536
 20
18.63492699297012
 42
0.4120800626174649
 10
41.39295250306836
 20
18.61507278596713
 10
41.50260693903631
 20
18.61507278596713
 42
-0.4378145317003978
 10
41.51260693903632
 20
18.60507278596713
 10
41.51260693903632
 20
18.48107278596713
 42
-0.2907175366164647
 10
41.50260693903631
 20
18.46107278596713
 10
41.50260693903631
 20
18.29907278596713
 10
41.51260693903632
 20
18.28907278596713
 10
41.50260693903631
 20
18.27907278596713
 10
41.50260693903631
 20
18.12439329404282
 42
-0.2679491924311257
 10
41.51260693903632
 20
18.10707278596712
 10
41.51260693903632
 20
18.10557278596712
 42
-0.4142135623730951
 10
41.44260693903631
 20
18.03557278596712
 10
41.41255150978773
 20
18.03557278596712
 42
0.1990202627215669
 10
41.33827448109158
 20
18.00478816852406
 10
41.27697375392228
 20
17.94343652262296
 42
-0.1990202627215582
 10
41.26282574845635
 20
17.93757278596713
 10
41.18260693903629
 20
17.93757278596713
 42
0.4142135623730753
 10
41.01260693903631
 20
17.76757278596713
 10
41.01260693903632
 20
16.37257278596713
 42
0.4142135623730693
 10
41.18260693903629
 20
16.20257278596713
 10
41.26282574845635
 20
16.20257278596712
 42
-0.1990202627215434
 10
41.27697375392229
 20
16.1967090493113
 10
41.33827448109158
 20
16.13535740341019
 42
0.1990202627215654
 10
41.41255150978773
 20
16.10457278596713
 10
41.44260693903631
 20
16.10457278596713
 42
-0.4142135623730951
 10
41.51260693903632
 20
16.03457278596713
 10
41.51260693903632
 20
16.03307278596712
 42
-0.2679491924311376
 10
41.50260693903631
 20
16.01575227789143
 10
41.50260693903631
 20
15.86107278596712
 10
41.51260693903632
 20
15.85107278596712
 10
41.50260693903631
 20
15.84107278596712
 10
41.50260693903631
 20
15.67907278596712
 42
-0.2459617249876099
 10
41.51260693903632
 20
15.65907278596712
 10
41.51260693903632
 20
15.54507278596712
 42
-0.4142135623730951
 10
41.49260693903632
 20
15.52507278596712
 10
41.39295250306839
 20
15.52507278596712
 42
0.4120800626175069
 10
41.37295303446534
 20
15.50521857896413
 42
-0.518385743038754
 10
41.34610529509259
 20
15.48657338509328
 10
41.23360693903632
 20
15.52757278596712
 42
1.003724381894507
 10
41.20960693903632
 20
15.46207278596712
 10
41.42660693903631
 20
15.38307278596712
 10
41.42660693903631
 20
15.44507278596712
 10
41.51260693903632
 20
15.44507278596712
 10
41.51260693903632
 20
15.27507278596712
 10
41.59260693903632
 20
15.27507278596712
 10
41.59260693903632
 20
16.17754248293682
 10
41.49010693903631
 20
16.21357278596712
 10
41.49010693903631
 20
16.18457278596713
 10
41.41840693903631
 20
16.18457278596713
 42
-0.1989123673796526
 10
41.40072926950665
 20
16.19189511643747
 10
41.33410693903631
 20
16.25857278596713
 10
41.33410693903631
 20
16.30052278596713
 42
-0.3541185725306792
 10
41.34994870521995
 20
16.3200857379818
 10
41.45210693903631
 20
16.34252278596713
 10
41.49010693903631
 20
16.34252278596713
 10
41.49010693903631
 20
16.31352278596713
 10
41.50210693903631
 20
16.31352278596713
 42
0.4142135623730951
 10
41.52210693903631
 20
16.33352278596713
 10
41.52210693903631
 20
16.36252278596713
 42
0.4142135623730951
 10
41.50210693903631
 20
16.38252278596713
 10
41.30011193903631
 20
16.38252278596713
 42
0.4142135623730951
 10
41.26210693903631
 20
16.34451778596713
 10
41.28410693903632
 20
16.34451778596713
 10
41.28410693903632
 20
16.30257278596712
 42
-0.4142135623731471
 10
41.26410693903632
 20
16.28257278596712
 10
41.19260693903631
 20
16.28257278596712
 42
-0.4142135623730716
 10
41.09260693903631
 20
16.38257278596713
 10
41.09260693903631
 20
17.75757278596713
 42
-0.414213562373069
 10
41.19260693903631
 20
17.85757278596713
 10
41.26410693903632
 20
17.85757278596713
 42
-0.4142135623731081
 10
41.28410693903632
 20
17.83757278596713
 10
41.28410693903631
 20
17.79562778596712
 10
41.26210693903631
 20
17.79562778596712
 42
0.4142135623730951
 10
41.30011193903631
 20
17.75762278596712
 10
41.50210693903631
 20
17.75762278596712
 42
0.4142135623730951
 10
41.52210693903631
 20
17.77762278596712
 10
41.52210693903631
 20
17.80662278596712
 42
0.4142135623730951
 10
41.50210693903631
 20
17.82662278596712
 10
41.49010693903631
 20
17.82662278596712
  0
LINE
  5
649E
330
17
100
AcDbEntity
  8
R-SWTS-DET3
100
AcDbLine
 10
39.96760693903634
 20
18.78034283814031
 30
0.0
 11
37.59260693903634
 21
18.78034283814031
 31
0.0
  0
LINE
  5
649F
330
17
100
AcDbEntity
  8
R-SWTS-DET3
100
AcDbLine
 10
39.96760693903634
 20
18.53034283814031
 30
0.0
 11
37.59260693903634
 21
18.53034283814031
 31
0.0
  0
LINE
  5
64A0
330
17
100
AcDbEntity
  8
R-SWTS-DET3
100
AcDbLine
 10
39.96760693903634
 20
18.03034283814031
 30
0.0
 11
37.59260693903634
 21
18.03034283814031
 31
0.0
  0
LINE
  5
64A1
330
17
100
AcDbEntity
  8
R-SWTS-DET3
100
AcDbLine
 10
39.96760693903634
 20
17.78034283814031
 30
0.0
 11
37.59260693903634
 21
17.78034283814031
 31
0.0
  0
LINE
  5
64A2
330
17
100
AcDbEntity
  8
R-SWTS-DET2
100
AcDbLine
 10
39.59260693903634
 20
19.29764655259515
 30
0.0
 11
37.59260693903634
 21
19.29764655259515
 31
0.0
  0
LINE
  5
64A3
330
17
100
AcDbEntity
  8
R-SWTS-DET2
100
AcDbLine
 10
39.59260693903634
 20
17.26303912368547
 30
0.0
 11
37.59260693903634
 21
17.26303912368547
 31
0.0
  0
LINE
  5
64A4
330
17
100
AcDbEntity
  8
R-SWTS-DET3
100
AcDbLine
 10
39.96760693903634
 20
18.78034283814031
 30
0.0
 11
39.96760693903634
 21
17.78034283814031
 31
0.0
  0
LINE
  5
64A5
330
17
100
AcDbEntity
  8
R-SWTS-DET3
100
AcDbLine
 10
39.71760693903634
 20
18.53034283814031
 30
0.0
 11
39.71760693903634
 21
18.03034283814031
 31
0.0
  0
LINE
  5
64A6
330
17
100
AcDbEntity
  8
R-SWTS-DET3
100
AcDbLine
 10
41.21760693903634
 20
16.57006439850198
 30
0.0
 11
43.59260693903634
 21
16.57006439850198
 31
0.0
  0
LINE
  5
64A7
330
17
100
AcDbEntity
  8
R-SWTS-DET3
100
AcDbLine
 10
41.21760693903634
 20
16.82006439850198
 30
0.0
 11
43.59260693903634
 21
16.82006439850198
 31
0.0
  0
LINE
  5
64A8
330
17
100
AcDbEntity
  8
R-SWTS-DET3
100
AcDbLine
 10
41.21760693903634
 20
17.32006439850198
 30
0.0
 11
43.59260693903634
 21
17.32006439850198
 31
0.0
  0
LINE
  5
64A9
330
17
100
AcDbEntity
  8
R-SWTS-DET3
100
AcDbLine
 10
41.21760693903634
 20
17.57006439850198
 30
0.0
 11
43.59260693903634
 21
17.57006439850198
 31
0.0
  0
LINE
  5
64AA
330
17
100
AcDbEntity
  8
R-SWTS-DET2
100
AcDbLine
 10
41.59260693903633
 20
16.05276068404714
 30
0.0
 11
43.59260693903634
 21
16.05276068404714
 31
0.0
  0
LINE
  5
64AB
330
17
100
AcDbEntity
  8
R-SWTS-DET2
100
AcDbLine
 10
41.59260693903633
 20
18.08736811295682
 30
0.0
 11
43.59260693903634
 21
18.08736811295682
 31
0.0
  0
LINE
  5
64AC
330
17
100
AcDbEntity
  8
R-SWTS-DET3
100
AcDbLine
 10
41.21760693903634
 20
16.57006439850198
 30
0.0
 11
41.21760693903634
 21
17.57006439850198
 31
0.0
  0
LINE
  5
64AD
330
17
100
AcDbEntity
  8
R-SWTS-DET3
100
AcDbLine
 10
41.46760693903633
 20
16.82006439850198
 30
0.0
 11
41.46760693903633
 21
17.32006439850198
 31
0.0
  0
LWPOLYLINE
  5
64AE
330
17
100
AcDbEntity
  8
R-SWTS-DET2
100
AcDbPolyline
 90
       31
 70
     1
 43
0.0
 10
41.47860491087189
 20
16.19657580264818
 10
41.48347921146985
 20
16.22339232918712
 10
41.5907138091516
 20
16.18926220506599
 10
41.59558810803029
 20
16.12831555440592
 10
41.59260693903633
 20
16.05276068404714
 10
41.62361648165758
 20
16.06285122560546
 42
0.1257100272134179
 10
41.67535880925123
 20
16.29484262762751
 42
-0.2260837189018228
 10
41.72507666789533
 20
16.44842818805912
 10
41.83601728605568
 20
16.54398349771881
 42
0.6449762263124317
 10
41.82427594358202
 20
16.569917789737
 10
41.69503900795263
 20
16.56833805270894
 42
0.1518691569180708
 10
41.65060385360337
 20
16.55198527611261
 10
41.5906780743349
 20
16.51348208781736
 42
-0.0293454671788447
 10
41.53879543114228
 20
16.49608719861446
 10
41.41700142130523
 20
16.47885690903094
 42
-0.6538117075652882
 10
41.41001468433986
 20
16.49909771993379
 10
41.5752636018298
 20
16.54318946715612
 42
0.8886355728344963
 10
41.5732021709304
 20
16.56833805270894
 10
41.43895655053774
 20
16.56833805270894
 42
0.0642046489364144
 10
41.25034029383047
 20
16.52590559079952
 42
0.6896355001773956
 10
41.25034029383046
 20
16.42329686041141
 42
0.0703560868358924
 10
41.43895655053774
 20
16.38206439850198
 10
41.53465936087138
 20
16.38206439850198
 10
41.53465936087138
 20
16.30871764052539
 10
41.48104206117086
 20
16.28677684570792
 10
41.47616776229217
 20
16.3257827036214
 10
41.43961051296527
 20
16.29165257742939
 10
41.41767616371297
 20
16.32334483776067
 10
41.36405886573174
 20
16.26239818502972
 10
41.42986191348861
 20
16.20632726609111
 10
41.43961051296527
 20
16.23070592676932
  0
LWPOLYLINE
  5
64AF
330
17
100
AcDbEntity
  8
R-SWTS-DET2
100
AcDbPolyline
 90
       31
 70
     1
 43
0.0
 10
41.47860491087189
 20
17.94355299435578
 10
41.48347921146984
 20
17.91673646781684
 10
41.5907138091516
 20
17.95086659193797
 10
41.59558810803029
 20
18.01181324259804
 10
41.59260693903633
 20
18.08736811295682
 10
41.62361648165758
 20
18.07727757139851
 42
-0.1257100272134179
 10
41.67535880925123
 20
17.84528616937645
 42
0.2260837189018228
 10
41.72507666789533
 20
17.69170060894484
 10
41.83601728605568
 20
17.59614529928515
 42
-0.6449762263124317
 10
41.82427594358202
 20
17.57021100726697
 10
41.69503900795263
 20
17.57179074429502
 42
-0.1518691569180708
 10
41.65060385360337
 20
17.58814352089135
 10
41.5906780743349
 20
17.6266467091866
 42
0.0293454671788447
 10
41.53879543114228
 20
17.6440415983895
 10
41.41700142130523
 20
17.66127188797303
 42
0.6538117075652882
 10
41.41001468433986
 20
17.64103107707017
 10
41.5752636018298
 20
17.59693932984784
 42
-0.8886355728344963
 10
41.5732021709304
 20
17.57179074429502
 10
41.43895655053774
 20
17.57179074429502
 42
-0.0642046489364144
 10
41.25034029383046
 20
17.61422320620445
 42
-0.6896355001773956
 10
41.25034029383046
 20
17.71683193659255
 42
-0.0703560868358924
 10
41.43895655053774
 20
17.75806439850198
 10
41.53465936087138
 20
17.75806439850198
 10
41.53465936087138
 20
17.83141115647857
 10
41.48104206117086
 20
17.85335195129604
 10
41.47616776229217
 20
17.81434609338256
 10
41.43961051296527
 20
17.84847621957457
 10
41.41767616371297
 20
17.81678395924329
 10
41.36405886573174
 20
17.87773061197424
 10
41.42986191348861
 20
17.93380153091285
 10
41.43961051296527
 20
17.90942287023464
  0
LWPOLYLINE
  5
64B0
330
17
100
AcDbEntity
  8
R-SWTS-DET2
100
AcDbPolyline
 90
       31
 70
     1
 43
0.0
 10
39.70660896720079
 20
19.15383143399411
 10
39.70173466660282
 20
19.12701490745517
 10
39.59450006892107
 20
19.1611450315763
 10
39.58962577004238
 20
19.22209168223637
 10
39.59260693903634
 20
19.29764655259515
 10
39.5615973964151
 20
19.28755601103684
 42
0.1257100272134179
 10
39.50985506882144
 20
19.05556460901478
 42
-0.2260837189018228
 10
39.46013721017735
 20
18.90197904858317
 10
39.349196592017
 20
18.80642373892348
 42
0.6449762263124317
 10
39.36093793449065
 20
18.7804894469053
 10
39.49017487012003
 20
18.78206918393335
 42
0.1518691569180708
 10
39.5346100244693
 20
18.79842196052968
 10
39.59453580373777
 20
18.83692514882493
 42
-0.0293454671788447
 10
39.64641844693039
 20
18.85432003802783
 10
39.76821245676744
 20
18.87155032761136
 42
-0.6538117075652882
 10
39.7751991937328
 20
18.8513095167085
 10
39.60995027624288
 20
18.80721776948617
 42
0.8886355728344963
 10
39.61201170714227
 20
18.78206918393335
 10
39.74625732753493
 20
18.78206918393335
 42
0.0642046489364144
 10
39.9348735842422
 20
18.82450164584278
 42
0.6896355001773956
 10
39.93487358424221
 20
18.92711037623088
 42
0.0703560868358924
 10
39.74625732753493
 20
18.96834283814031
 10
39.65055451720129
 20
18.96834283814031
 10
39.65055451720129
 20
19.0416895961169
 10
39.7041718169018
 20
19.06363039093437
 10
39.70904611578049
 20
19.02462453302089
 10
39.74560336510741
 20
19.0587546592129
 10
39.7675377143597
 20
19.02706239888162
 10
39.82115501234093
 20
19.08800905161257
 10
39.75535196458406
 20
19.14407997055118
 10
39.74560336510741
 20
19.11970130987297
  0
LWPOLYLINE
  5
64B1
330
17
100
AcDbEntity
  8
R-SWTS-DET2
100
AcDbPolyline
 90
       31
 70
     1
 43
0.0
 10
39.70660896720079
 20
17.40685424228652
 10
39.70173466660283
 20
17.43367076882545
 10
39.59450006892107
 20
17.39954064470432
 10
39.58962577004238
 20
17.33859399404425
 10
39.59260693903634
 20
17.26303912368547
 10
39.5615973964151
 20
17.27312966524378
 42
-0.1257100272134179
 10
39.50985506882144
 20
17.50512106726584
 42
0.2260837189018228
 10
39.46013721017735
 20
17.65870662769745
 10
39.349196592017
 20
17.75426193735714
 42
-0.6449762263124317
 10
39.36093793449065
 20
17.78019622937533
 10
39.49017487012003
 20
17.77861649234727
 42
-0.1518691569180708
 10
39.5346100244693
 20
17.76226371575094
 10
39.59453580373777
 20
17.72376052745569
 42
0.0293454671788447
 10
39.64641844693039
 20
17.70636563825279
 10
39.76821245676744
 20
17.68913534866927
 42
0.6538117075652882
 10
39.7751991937328
 20
17.70937615957213
 10
39.60995027624288
 20
17.75346790679445
 42
-0.8886355728344963
 10
39.61201170714227
 20
17.77861649234727
 10
39.74625732753493
 20
17.77861649234727
 42
-0.0642046489364144
 10
39.93487358424221
 20
17.73618403043785
 42
-0.6896355001773956
 10
39.93487358424221
 20
17.63357530004974
 42
-0.0703560868358924
 10
39.74625732753493
 20
17.59234283814031
 10
39.65055451720129
 20
17.59234283814031
 10
39.65055451720129
 20
17.51899608016372
 10
39.7041718169018
 20
17.49705528534625
 10
39.70904611578049
 20
17.53606114325973
 10
39.74560336510741
 20
17.50193101706772
 10
39.7675377143597
 20
17.533623277399
 10
39.82115501234093
 20
17.47267662466805
 10
39.75535196458406
 20
17.41660570572944
 10
39.74560336510741
 20
17.44098436640765
  0
LINE
  5
64B2
330
17
100
AcDbEntity
  8
R-ANNO-DIMS
100
AcDbLine
 10
39.59260693903634
 20
14.4463443463288
 30
0.0
 11
39.59260693903634
 21
12.89864419800112
 31
0.0
  0
LINE
  5
64B3
330
17
100
AcDbEntity
  8
R-ANNO-DIMS
100
AcDbLine
 10
39.34260693903634
 20
13.07864419800112
 30
0.0
 11
37.84259693903633
 21
13.07864419800112
 31
0.0
  0
SOLID
  5
64B4
330
17
100
AcDbEntity
  8
R-ANNO-DIMS
100
AcDbTrace
 10
39.34260693903634
 20
13.12031086466779
 30
0.0
 11
39.34260693903634
 21
13.03697753133445
 31
0.0
 12
39.59260693903634
 22
13.07864419800112
 32
0.0
 13
39.59260693903634
 23
13.07864419800112
 33
0.0
  0
SOLID
  5
64B5
330
17
100
AcDbEntity
  8
R-ANNO-DIMS
100
AcDbTrace
 10
37.84259693903633
 20
13.12031086466779
 30
0.0
 11
37.84259693903633
 21
13.03697753133445
 31
0.0
 12
37.59259693903633
 22
13.07864419800112
 32
0.0
 13
37.59259693903633
 23
13.07864419800112
 33
0.0
  0
MTEXT
  5
64B6
330
17
100
AcDbEntity
  8
R-ANNO-DIMS
100
AcDbMText
 10
38.59260193903633
 20
13.30364419800112
 30
0.0
 40
0.25
 41
0.0
 71
     5
 72
     1
  1
\A1;DLO
 73
     1
 44
1.0
1001
ACAD
1000
MTEXTBEGIN
1070
    73
1070
     1
1070
    44
1040
1.0
1070
    74
1070
     0
1000
MTEXTEND
  0
LINE
  5
64B7
330
17
100
AcDbEntity
  8
R-ANNO-DIMS
  6
Continuous
100
AcDbLine
 10
39.59260693903632
 20
14.45364419800112
 30
0.0
 11
39.59260693903632
 21
12.89864419800112
 31
0.0
  0
LINE
  5
64B8
330
17
100
AcDbEntity
  8
R-ANNO-DIMS
  6
Continuous
100
AcDbLine
 10
41.59260693903632
 20
14.45364419800112
 30
0.0
 11
41.59260693903632
 21
12.89864419800112
 31
0.0
  0
LINE
  5
64B9
330
17
100
AcDbEntity
  8
R-ANNO-DIMS
  6
Continuous
100
AcDbLine
 10
39.84260693903632
 20
13.07864419800112
 30
0.0
 11
41.34260693903633
 21
13.07864419800112
 31
0.0
  0
SOLID
  5
64BA
330
17
100
AcDbEntity
  8
R-ANNO-DIMS
  6
Continuous
100
AcDbTrace
 10
39.84260693903632
 20
13.12031086466779
 30
0.0
 11
39.84260693903632
 21
13.03697753133445
 31
0.0
 12
39.59260693903632
 22
13.07864419800112
 32
0.0
 13
39.59260693903632
 23
13.07864419800112
 33
0.0
  0
SOLID
  5
64BB
330
17
100
AcDbEntity
  8
R-ANNO-DIMS
  6
Continuous
100
AcDbTrace
 10
41.34260693903633
 20
13.12031086466779
 30
0.0
 11
41.34260693903633
 21
13.03697753133445
 31
0.0
 12
41.59260693903632
 22
13.07864419800112
 32
0.0
 13
41.59260693903632
 23
13.07864419800112
 33
0.0
  0
MTEXT
  5
64BC
330
17
100
AcDbEntity
  8
R-ANNO-DIMS
  6
Continuous
100
AcDbMText
 10
40.59260693903632
 20
13.30364419800112
 30
0.0
 40
0.25
 41
0.0
 71
     5
 72
     1
  1
\A1;2"
 73
     1
 44
1.0
1001
ACAD
1000
MTEXTBEGIN
1070
    73
1070
     1
1070
    44
1040
1.0
1070
    74
1070
     0
1000
MTEXTEND
  0
LINE
  5
64BD
330
17
100
AcDbEntity
  8
R-ANNO-DIMS
  6
Continuous
100
AcDbLine
 10
41.59260693903632
 20
14.45364419800112
 30
0.0
 11
41.59260693903632
 21
12.89864419800112
 31
0.0
  0
LINE
  5
64BE
330
17
100
AcDbEntity
  8
R-ANNO-DIMS
  6
Continuous
100
AcDbLine
 10
41.84260693903633
 20
13.07864419800112
 30
0.0
 11
43.34261693903632
 21
13.07864419800112
 31
0.0
  0
SOLID
  5
64BF
330
17
100
AcDbEntity
  8
R-ANNO-DIMS
  6
Continuous
100
AcDbTrace
 10
41.84260693903633
 20
13.12031086466779
 30
0.0
 11
41.84260693903633
 21
13.03697753133445
 31
0.0
 12
41.59260693903632
 22
13.07864419800112
 32
0.0
 13
41.59260693903632
 23
13.07864419800112
 33
0.0
  0
SOLID
  5
64C0
330
17
100
AcDbEntity
  8
R-ANNO-DIMS
  6
Continuous
100
AcDbTrace
 10
43.34261693903632
 20
13.12031086466779
 30
0.0
 11
43.34261693903632
 21
13.03697753133445
 31
0.0
 12
43.59261693903632
 22
13.07864419800112
 32
0.0
 13
43.59261693903632
 23
13.07864419800112
 33
0.0
  0
MTEXT
  5
64C1
330
17
100
AcDbEntity
  8
R-ANNO-DIMS
  6
Continuous
100
AcDbMText
 10
42.59261193903633
 20
13.30364419800112
 30
0.0
 40
0.25
 41
0.0
 71
     5
 72
     1
  1
\A1;DLO
 73
     1
 44
1.0
1001
ACAD
1000
MTEXTBEGIN
1070
    73
1070
     1
1070
    44
1040
1.0
1070
    74
1070
     0
1000
MTEXTEND
  0
LWPOLYLINE
  5
64C2
330
17
100
AcDbEntity
  8
R-SWTS-DET1
100
AcDbPolyline
 90
        6
 70
     0
 43
0.0
 10
33.11364755340289
 20
28.1358328027705
 10
33.11364755340289
 20
30.78582280277049
 10
33.3136275534029
 20
30.8358428027705
 10
32.91364755340289
 20
30.9358228027705
 10
33.11364755340289
 20
30.9858228027705
 10
33.11364755340289
 20
33.6358328027705
  0
LWPOLYLINE
  5
64C3
330
17
100
AcDbEntity
  8
R-SWTS-DET1
100
AcDbPolyline
 90
        6
 70
     0
 43
0.0
 10
27.11362755340289
 20
33.6358328027705
 10
27.11362755340289
 20
30.9858428027705
 10
26.91364755340289
 20
30.9358228027705
 10
27.31362755340289
 20
30.8358428027705
 10
27.11362755340289
 20
30.7858428027705
 10
27.11362755340289
 20
28.1358328027705
  0
LINE
  5
64C4
330
17
100
AcDbEntity
  8
R-SWTS-DET1
100
AcDbLine
 10
27.11362755340289
 20
28.3618328027705
 30
0.0
 11
33.11364755340289
 21
28.3618328027705
 31
0.0
  0
LINE
  5
64C5
330
17
100
AcDbEntity
  8
R-SWTS-DET1
100
AcDbLine
 10
29.11363755340289
 20
28.6118328027705
 30
0.0
 11
27.11362755340289
 21
28.6118328027705
 31
0.0
  0
LINE
  5
64C6
330
17
100
AcDbEntity
  8
R-SWTS-DET1
100
AcDbLine
 10
27.11362755340289
 20
33.36183280277051
 30
0.0
 11
33.11364755340289
 21
33.3618328027705
 31
0.0
  0
LINE
  5
64C7
330
17
100
AcDbEntity
  8
R-SWTS-DET1
100
AcDbLine
 10
31.1136375534029
 20
33.1118328027705
 30
0.0
 11
33.11364755340289
 21
33.1118328027705
 31
0.0
  0
LINE
  5
64C8
330
17
100
AcDbEntity
  8
R-SWTS-DET1
100
AcDbLine
 10
29.1136375534029
 20
33.11183280277051
 30
0.0
 11
27.11362755340289
 21
33.11183280277051
 31
0.0
  0
LINE
  5
64C9
330
17
100
AcDbEntity
  8
R-SWTS-DET1
100
AcDbLine
 10
31.1136375534029
 20
28.6118328027705
 30
0.0
 11
33.1136475534029
 21
28.6118328027705
 31
0.0
  0
TEXT
  5
64CA
330
17
100
AcDbEntity
  8
PART_NUMBERS
100
AcDbText
 10
27.2864596102935
 20
33.88634043725203
 30
0.0
 40
0.25
  1
451VG069 TRANSITION MULLION
100
AcDbText
  0
LWPOLYLINE
  5
64CB
330
17
100
AcDbEntity
  8
R-SWTS-DET1
100
AcDbPolyline
 90
      134
 70
     1
 43
0.0
 10
29.2161375534029
 20
32.83083280277051
 10
29.2161375534029
 20
32.8018328027705
 10
29.2541375534029
 20
32.8018328027705
 10
29.35629578721926
 20
32.82426985075583
 42
0.3541185725306862
 10
29.3721375534029
 20
32.84383280277051
 10
29.3721375534029
 20
32.88578280277051
 10
29.30551522293256
 20
32.95246047230017
 42
0.1989123673796512
 10
29.2878375534029
 20
32.95978280277051
 10
29.2161375534029
 20
32.95978280277051
 10
29.2161375534029
 20
32.93078280277051
 10
29.1136375534029
 20
32.96681310580081
 10
29.1136375534029
 20
33.11183280277051
 10
31.1136375534029
 20
33.11183280277051
 10
31.1136375534029
 20
33.02183280277051
 10
30.7846375534029
 20
33.02183280277051
 10
30.7846375534029
 20
32.95981503581753
 42
-0.6681786379192535
 10
30.76756648559104
 20
32.95274396800567
 10
30.69847765082619
 20
33.02183280277051
 10
30.56750794576955
 20
33.02183280277051
 42
0.4142135623730847
 10
30.54250794576955
 20
32.99683280277051
 10
30.54250794576955
 20
32.7345162610924
 42
0.4142135623730951
 10
30.64250794576955
 20
32.63451626109239
 10
30.88737128516677
 20
32.63451626109239
 10
30.90321543625107
 20
32.6619591357732
 42
-0.4142135623730951
 10
30.92370581730783
 20
32.66744951682997
 10
30.97323645970785
 20
32.63885298710718
 42
-0.2679491924311083
 10
30.98073645970785
 20
32.62586260605042
 10
30.98073645970785
 20
32.59928049789986
 42
-0.4142135623730951
 10
30.96573645970785
 20
32.58428049789986
 10
30.64250794576955
 20
32.58428049789986
 42
-0.4142135623730968
 10
30.49250794576955
 20
32.73428049789985
 10
30.49250794576955
 20
32.99683280277051
 42
0.4142135623730847
 10
30.46750794576955
 20
33.02183280277051
 10
30.2636375534029
 20
33.02183280277051
 42
0.4142135623730971
 10
30.2036375534029
 20
32.9618328027705
 10
30.2036375534029
 20
32.34682780277053
 42
0.4142135623730821
 10
30.2236375534029
 20
32.32682780277052
 10
30.4186375534029
 20
32.32682780277052
 42
-0.4142135623730951
 10
30.48863755340291
 20
32.25682780277053
 10
30.48863755340291
 20
32.11582780277054
 10
30.42313755340291
 20
32.11582780277054
 42
-0.9999999999999998
 10
30.42313755340291
 20
32.14682780277053
 10
30.4236375534029
 20
32.14682780277053
 42
0.4142135623730951
 10
30.4386375534029
 20
32.16182780277053
 10
30.4386375534029
 20
32.24182780277053
 42
0.4142135623730951
 10
30.4236375534029
 20
32.25682780277053
 10
30.20863755340291
 20
32.25682780277053
 42
0.4142135623730951
 10
30.19363755340291
 20
32.24182780277053
 10
30.19363755340291
 20
32.16182780277053
 42
0.4142135623730951
 10
30.20863755340291
 20
32.14682780277053
 10
30.20913755340291
 20
32.14682780277053
 42
-0.9999999999999998
 10
30.20913755340291
 20
32.11582780277054
 10
30.19363755340291
 20
32.11582780277054
 10
30.19363755340291
 20
31.86582780277054
 10
30.20913755340291
 20
31.86582780277053
 42
-0.9999999999999998
 10
30.20913755340291
 20
31.83482780277053
 10
30.20863755340291
 20
31.83482780277053
 42
0.4142135623730951
 10
30.19363755340291
 20
31.81982780277053
 10
30.19363755340291
 20
31.73982780277053
 42
0.4142135623730951
 10
30.20863755340291
 20
31.72482780277053
 10
30.4236375534029
 20
31.72482780277053
 42
0.4142135623730951
 10
30.4386375534029
 20
31.73982780277053
 10
30.4386375534029
 20
31.81982780277053
 42
0.4142135623730951
 10
30.4236375534029
 20
31.83482780277053
 10
30.42313755340291
 20
31.83482780277053
 42
-0.9999999999999998
 10
30.42313755340291
 20
31.86582780277052
 10
30.48863755340291
 20
31.86582780277053
 10
30.48863755340291
 20
31.72482780277054
 42
-0.41421356237311
 10
30.41863755340291
 20
31.65482780277053
 10
30.2236375534029
 20
31.65482780277053
 42
0.4142135623730951
 10
30.2036375534029
 20
31.63482780277053
 10
30.2036375534029
 20
31.38582780277053
 42
-0.4142135623730855
 10
30.01363755340291
 20
31.19582780277053
 10
29.44372520889503
 20
31.19582780277051
 42
0.1990202627215611
 10
29.42604020206261
 20
31.18849813195073
 10
29.3662591467596
 20
31.12866742021357
 42
-0.1990202627215691
 10
29.29198211806346
 20
31.09788280277051
 10
29.2836375534029
 20
31.09788280277051
 42
0.4142135623730951
 10
29.2036375534029
 20
31.01788280277051
 10
29.2036375534029
 20
28.86558280277051
 42
0.4142135623731026
 10
29.2736375534029
 20
28.79558280277051
 10
29.30278326006924
 20
28.79558280277051
 42
0.4142135623730876
 10
29.37278326006924
 20
28.86558280277051
 10
29.37278326006924
 20
28.87625325731596
 42
0.081971439864274
 10
29.31986833834061
 20
29.03550797082833
 42
-0.2574642289896802
 10
29.32022354924446
 20
29.05361387214047
 10
29.33254647333929
 20
29.07495780277052
 42
-0.5825402726417694
 10
29.36516610156083
 20
29.07470442439213
 42
-0.1277034272886839
 10
29.4376375534029
 20
28.79558280277051
 10
29.4376375534029
 20
28.70183280277051
 10
29.1136375534029
 20
28.70183280277051
 10
29.1136375534029
 20
31.18085249974021
 10
29.2161375534029
 20
31.2168828027705
 10
29.2161375534029
 20
31.18788280277051
 10
29.2878375534029
 20
31.18788280277051
 42
0.1989123673796511
 10
29.30551522293256
 20
31.19520513324085
 10
29.3721375534029
 20
31.2618828027705
 10
29.3721375534029
 20
31.30383280277051
 42
0.3541185725307012
 10
29.35629578721926
 20
31.32339575478518
 10
29.2541375534029
 20
31.34583280277051
 10
29.2161375534029
 20
31.34583280277051
 10
29.2161375534029
 20
31.31683280277051
 10
29.2041375534029
 20
31.31683280277051
 42
-0.4142135623730951
 10
29.1841375534029
 20
31.33683280277051
 10
29.1841375534029
 20
31.36583280277051
 42
-0.4142135623730951
 10
29.2041375534029
 20
31.38583280277051
 10
29.40613255340291
 20
31.38583280277051
 42
-0.4142135623730951
 10
29.44413755340291
 20
31.34782780277051
 10
29.4221375534029
 20
31.34782780277051
 10
29.4221375534029
 20
31.31082780277051
 42
0.4142135623730951
 10
29.4471375534029
 20
31.28582780277051
 10
30.01363755340291
 20
31.28582780277053
 42
0.4142135623730886
 10
30.1136375534029
 20
31.38582780277053
 10
30.1136375534029
 20
31.85582780277054
 10
30.1236375534029
 20
31.86582780277054
 10
30.1136375534029
 20
31.87582780277053
 10
30.1136375534029
 20
32.10582780277054
 10
30.1236375534029
 20
32.11582780277054
 10
30.1136375534029
 20
32.12582780277054
 10
30.1136375534029
 20
32.9618328027705
 42
0.414213562373093
 10
30.0536375534029
 20
33.02183280277051
 10
29.39756252741802
 20
33.02183280277051
 42
0.6681640521692851
 10
29.38341982137961
 20
32.98769123758445
 10
29.43681593595091
 20
32.93429081535118
 42
-0.1989018846181274
 10
29.44413755340291
 20
32.91661385886861
 10
29.44413755340291
 20
32.86183780277051
 10
29.4221375534029
 20
32.86183780277051
 10
29.4221375534029
 20
32.79983780277051
 10
29.44413755340291
 20
32.79983780277051
 42
-0.4142135623730951
 10
29.40613255340291
 20
32.76183280277051
 10
29.2041375534029
 20
32.76183280277051
 42
-0.4142135623730951
 10
29.1841375534029
 20
32.78183280277051
 10
29.1841375534029
 20
32.81083280277051
 42
-0.4142135623730951
 10
29.2041375534029
 20
32.83083280277051
  0
LWPOLYLINE
  5
64CC
330
17
100
AcDbEntity
  8
R-SWTS-DET1
100
AcDbPolyline
 90
      134
 70
     1
 43
0.0
 10
31.0111375534029
 20
28.8928328027705
 10
31.0111375534029
 20
28.9218328027705
 10
30.9731375534029
 20
28.9218328027705
 10
30.87097931958654
 20
28.89939575478518
 42
0.3541185725306862
 10
30.8551375534029
 20
28.8798328027705
 10
30.8551375534029
 20
28.8378828027705
 10
30.92175988387323
 20
28.77120513324083
 42
0.1989123673796512
 10
30.93943755340289
 20
28.7638828027705
 10
31.0111375534029
 20
28.7638828027705
 10
31.0111375534029
 20
28.7928828027705
 10
31.1136375534029
 20
28.75685249974019
 10
31.1136375534029
 20
28.6118328027705
 10
29.1136375534029
 20
28.6118328027705
 10
29.1136375534029
 20
28.7018328027705
 10
29.4426375534029
 20
28.7018328027705
 10
29.4426375534029
 20
28.76385056972347
 42
-0.6681786379192535
 10
29.45970862121476
 20
28.77092163753533
 10
29.52879745597961
 20
28.7018328027705
 10
29.65976716103625
 20
28.7018328027705
 42
0.4142135623730847
 10
29.68476716103625
 20
28.7268328027705
 10
29.68476716103625
 20
28.98914934444861
 42
0.4142135623730951
 10
29.58476716103625
 20
29.08914934444861
 10
29.33990382163903
 20
29.08914934444861
 10
29.32405967055473
 20
29.06170646976781
 42
-0.4142135623730951
 10
29.30356928949797
 20
29.05621608871104
 10
29.25403864709796
 20
29.08481261843382
 42
-0.2679491924311083
 10
29.24653864709796
 20
29.09780299949059
 10
29.24653864709795
 20
29.12438510764115
 42
-0.4142135623730951
 10
29.26153864709795
 20
29.13938510764115
 10
29.58476716103625
 20
29.13938510764115
 42
-0.4142135623730968
 10
29.73476716103625
 20
28.98938510764115
 10
29.73476716103625
 20
28.7268328027705
 42
0.4142135623730847
 10
29.75976716103625
 20
28.7018328027705
 10
29.9636375534029
 20
28.7018328027705
 42
0.4142135623730971
 10
30.02363755340289
 20
28.7618328027705
 10
30.0236375534029
 20
29.37683780277048
 42
0.4142135623730821
 10
30.0036375534029
 20
29.39683780277048
 10
29.80863755340289
 20
29.39683780277048
 42
-0.4142135623730951
 10
29.73863755340289
 20
29.46683780277048
 10
29.73863755340289
 20
29.60783780277047
 10
29.80413755340289
 20
29.60783780277047
 42
-0.9999999999999998
 10
29.80413755340289
 20
29.57683780277048
 10
29.8036375534029
 20
29.57683780277048
 42
0.4142135623730951
 10
29.78863755340289
 20
29.56183780277048
 10
29.78863755340289
 20
29.48183780277048
 42
0.4142135623730951
 10
29.8036375534029
 20
29.46683780277048
 10
30.01863755340289
 20
29.46683780277048
 42
0.4142135623730951
 10
30.03363755340289
 20
29.48183780277048
 10
30.03363755340289
 20
29.56183780277048
 42
0.4142135623730951
 10
30.01863755340289
 20
29.57683780277048
 10
30.01813755340289
 20
29.57683780277048
 42
-0.9999999999999998
 10
30.01813755340289
 20
29.60783780277047
 10
30.03363755340289
 20
29.60783780277047
 10
30.03363755340289
 20
29.85783780277047
 10
30.01813755340289
 20
29.85783780277048
 42
-0.9999999999999998
 10
30.01813755340289
 20
29.88883780277048
 10
30.01863755340289
 20
29.88883780277048
 42
0.4142135623730951
 10
30.03363755340289
 20
29.90383780277048
 10
30.03363755340289
 20
29.98383780277047
 42
0.4142135623730951
 10
30.01863755340289
 20
29.99883780277047
 10
29.8036375534029
 20
29.99883780277047
 42
0.4142135623730951
 10
29.78863755340289
 20
29.98383780277047
 10
29.78863755340289
 20
29.90383780277048
 42
0.4142135623730951
 10
29.8036375534029
 20
29.88883780277048
 10
29.80413755340289
 20
29.88883780277048
 42
-0.9999999999999998
 10
29.80413755340289
 20
29.85783780277048
 10
29.73863755340289
 20
29.85783780277048
 10
29.73863755340289
 20
29.99883780277047
 42
-0.41421356237311
 10
29.80863755340289
 20
30.06883780277048
 10
30.0036375534029
 20
30.06883780277048
 42
0.4142135623730951
 10
30.0236375534029
 20
30.08883780277047
 10
30.0236375534029
 20
30.33783780277047
 42
-0.4142135623730855
 10
30.21363755340289
 20
30.52783780277048
 10
30.78354989791077
 20
30.5278378027705
 42
0.1990202627215611
 10
30.80123490474318
 20
30.53516747359027
 10
30.8610159600462
 20
30.59499818532743
 42
-0.1990202627215691
 10
30.93529298874234
 20
30.6257828027705
 10
30.9436375534029
 20
30.6257828027705
 42
0.4142135623730951
 10
31.0236375534029
 20
30.70578280277049
 10
31.0236375534029
 20
32.8580828027705
 42
0.4142135623731026
 10
30.9536375534029
 20
32.9280828027705
 10
30.92449184673656
 20
32.9280828027705
 42
0.4142135623730876
 10
30.85449184673656
 20
32.8580828027705
 10
30.85449184673656
 20
32.84741234822505
 42
0.081971439864274
 10
30.90740676846518
 20
32.68815763471268
 42
-0.2574642289896802
 10
30.90705155756134
 20
32.67005173340054
 10
30.89472863346651
 20
32.64870780277049
 42
-0.5825402726417694
 10
30.86210900524497
 20
32.64896118114887
 42
-0.1277034272886839
 10
30.7896375534029
 20
32.9280828027705
 10
30.7896375534029
 20
33.0218328027705
 10
31.1136375534029
 20
33.0218328027705
 10
31.1136375534029
 20
30.5428131058008
 10
31.0111375534029
 20
30.5067828027705
 10
31.0111375534029
 20
30.5357828027705
 10
30.93943755340289
 20
30.5357828027705
 42
0.1989123673796511
 10
30.92175988387323
 20
30.52846047230016
 10
30.8551375534029
 20
30.4617828027705
 10
30.8551375534029
 20
30.4198328027705
 42
0.3541185725307012
 10
30.87097931958654
 20
30.40026985075582
 10
30.9731375534029
 20
30.3778328027705
 10
31.0111375534029
 20
30.3778328027705
 10
31.0111375534029
 20
30.4068328027705
 10
31.0231375534029
 20
30.4068328027705
 42
-0.4142135623730951
 10
31.0431375534029
 20
30.3868328027705
 10
31.0431375534029
 20
30.3578328027705
 42
-0.4142135623730951
 10
31.0231375534029
 20
30.3378328027705
 10
30.82114255340289
 20
30.3378328027705
 42
-0.4142135623730951
 10
30.78313755340289
 20
30.3758378027705
 10
30.8051375534029
 20
30.3758378027705
 10
30.8051375534029
 20
30.4128378027705
 42
0.4142135623730951
 10
30.7801375534029
 20
30.43783780277049
 10
30.21363755340289
 20
30.43783780277048
 42
0.4142135623730886
 10
30.1136375534029
 20
30.33783780277047
 10
30.1136375534029
 20
29.86783780277047
 10
30.1036375534029
 20
29.85783780277047
 10
30.1136375534029
 20
29.84783780277047
 10
30.1136375534029
 20
29.61783780277047
 10
30.1036375534029
 20
29.60783780277047
 10
30.1136375534029
 20
29.59783780277047
 10
30.1136375534029
 20
28.7618328027705
 42
0.414213562373093
 10
30.1736375534029
 20
28.7018328027705
 10
30.82971257938778
 20
28.7018328027705
 42
0.6681640521692851
 10
30.84385528542619
 20
28.73597436795656
 10
30.79045917085489
 20
28.78937479018983
 42
-0.1989018846181274
 10
30.78313755340289
 20
28.80705174667239
 10
30.78313755340289
 20
28.8618278027705
 10
30.8051375534029
 20
28.8618278027705
 10
30.8051375534029
 20
28.9238278027705
 10
30.78313755340289
 20
28.9238278027705
 42
-0.4142135623730951
 10
30.82114255340289
 20
28.9618328027705
 10
31.0231375534029
 20
28.9618328027705
 42
-0.4142135623730951
 10
31.0431375534029
 20
28.9418328027705
 10
31.0431375534029
 20
28.9128328027705
 42
-0.4142135623730951
 10
31.0231375534029
 20
28.8928328027705
  0
LINE
  5
64CD
330
17
100
AcDbEntity
  8
R-SWTS-DET3
100
AcDbLine
 10
30.73863755340291
 20
29.15027441530535
 30
0.0
 11
33.1136375534029
 21
29.15027441530535
 31
0.0
  0
LINE
  5
64CE
330
17
100
AcDbEntity
  8
R-SWTS-DET3
100
AcDbLine
 10
30.73863755340291
 20
29.40027441530535
 30
0.0
 11
33.1136375534029
 21
29.40027441530535
 31
0.0
  0
LINE
  5
64CF
330
17
100
AcDbEntity
  8
R-SWTS-DET3
100
AcDbLine
 10
30.7386375534029
 20
29.90027441530535
 30
0.0
 11
33.1136375534029
 21
29.90027441530535
 31
0.0
  0
LINE
  5
64D0
330
17
100
AcDbEntity
  8
R-SWTS-DET3
100
AcDbLine
 10
30.7386375534029
 20
30.15027441530535
 30
0.0
 11
33.1136375534029
 21
30.15027441530535
 31
0.0
  0
LINE
  5
64D1
330
17
100
AcDbEntity
  8
R-SWTS-DET2
100
AcDbLine
 10
31.11363755340291
 20
28.63297070085051
 30
0.0
 11
33.11363755340291
 21
28.63297070085051
 31
0.0
  0
LINE
  5
64D2
330
17
100
AcDbEntity
  8
R-SWTS-DET2
100
AcDbLine
 10
31.11363755340291
 20
30.6675781297602
 30
0.0
 11
33.11363755340291
 21
30.6675781297602
 31
0.0
  0
LINE
  5
64D3
330
17
100
AcDbEntity
  8
R-SWTS-DET3
100
AcDbLine
 10
30.73863755340291
 20
29.15027441530535
 30
0.0
 11
30.7386375534029
 21
30.15027441530535
 31
0.0
  0
LINE
  5
64D4
330
17
100
AcDbEntity
  8
R-SWTS-DET3
100
AcDbLine
 10
30.98863755340291
 20
29.40027441530535
 30
0.0
 11
30.9886375534029
 21
29.90027441530535
 31
0.0
  0
LINE
  5
64D5
330
17
100
AcDbEntity
  8
R-SWTS-DET3
100
AcDbLine
 10
29.48863755340289
 20
32.57339119023566
 30
0.0
 11
27.11363755340289
 21
32.57339119023566
 31
0.0
  0
LINE
  5
64D6
330
17
100
AcDbEntity
  8
R-SWTS-DET3
100
AcDbLine
 10
29.48863755340289
 20
32.32339119023566
 30
0.0
 11
27.11363755340289
 21
32.32339119023566
 31
0.0
  0
LINE
  5
64D7
330
17
100
AcDbEntity
  8
R-SWTS-DET3
100
AcDbLine
 10
29.48863755340289
 20
31.82339119023565
 30
0.0
 11
27.11363755340289
 21
31.82339119023565
 31
0.0
  0
LINE
  5
64D8
330
17
100
AcDbEntity
  8
R-SWTS-DET3
100
AcDbLine
 10
29.48863755340289
 20
31.57339119023566
 30
0.0
 11
27.11363755340289
 21
31.57339119023565
 31
0.0
  0
LINE
  5
64D9
330
17
100
AcDbEntity
  8
R-SWTS-DET2
100
AcDbLine
 10
29.11363755340289
 20
33.09069490469049
 30
0.0
 11
27.11363755340289
 21
33.09069490469049
 31
0.0
  0
LINE
  5
64DA
330
17
100
AcDbEntity
  8
R-SWTS-DET2
100
AcDbLine
 10
29.11363755340289
 20
31.05608747578081
 30
0.0
 11
27.11363755340289
 21
31.05608747578081
 31
0.0
  0
LINE
  5
64DB
330
17
100
AcDbEntity
  8
R-SWTS-DET3
100
AcDbLine
 10
29.48863755340289
 20
32.57339119023566
 30
0.0
 11
29.48863755340289
 21
31.57339119023566
 31
0.0
  0
LINE
  5
64DC
330
17
100
AcDbEntity
  8
R-SWTS-DET3
100
AcDbLine
 10
29.23863755340289
 20
32.32339119023566
 30
0.0
 11
29.23863755340289
 21
31.82339119023565
 31
0.0
  0
LWPOLYLINE
  5
64DD
330
17
100
AcDbEntity
  8
R-SWTS-DET2
100
AcDbPolyline
 90
       31
 70
     1
 43
0.0
 10
29.22763958156734
 20
32.94687978608945
 10
29.22276528096938
 20
32.92006325955051
 10
29.11553068328763
 20
32.95419338367164
 10
29.11065638440894
 20
33.01514003433172
 10
29.11363755340289
 20
33.09069490469049
 10
29.08262801078165
 20
33.08060436313218
 42
0.1257100272134179
 10
29.030885683188
 20
32.84861296111012
 42
-0.2260837189018228
 10
28.9811678245439
 20
32.69502740067852
 10
28.87022720638355
 20
32.59947209101883
 42
0.6449762263124317
 10
28.88196854885721
 20
32.57353779900064
 10
29.01120548448659
 20
32.57511753602869
 42
0.1518691569180708
 10
29.05564063883585
 20
32.59147031262502
 10
29.11556641810433
 20
32.62997350092027
 42
-0.0293454671788447
 10
29.16744906129695
 20
32.64736839012317
 10
29.28924307113399
 20
32.6645986797067
 42
-0.6538117075652882
 10
29.29622980809936
 20
32.64435786880384
 10
29.13098089060943
 20
32.60026612158152
 42
0.8886355728344963
 10
29.13304232150882
 20
32.57511753602869
 10
29.26728794190148
 20
32.57511753602869
 42
0.0642046489364144
 10
29.45590419860876
 20
32.61754999793812
 42
0.6896355001773956
 10
29.45590419860876
 20
32.72015872832623
 42
0.0703560868358924
 10
29.26728794190148
 20
32.76139119023565
 10
29.17158513156785
 20
32.76139119023565
 10
29.17158513156785
 20
32.83473794821225
 10
29.22520243126836
 20
32.85667874302971
 10
29.23007673014705
 20
32.81767288511623
 10
29.26663397947396
 20
32.85180301130825
 10
29.28856832872625
 20
32.82011075097697
 10
29.34218562670749
 20
32.88105740370792
 10
29.27638257895061
 20
32.93712832264652
 10
29.26663397947396
 20
32.91274966196831
  0
LWPOLYLINE
  5
64DE
330
17
100
AcDbEntity
  8
R-SWTS-DET2
100
AcDbPolyline
 90
       31
 70
     1
 43
0.0
 10
29.22763958156734
 20
31.19990259438186
 10
29.22276528096938
 20
31.2267191209208
 10
29.11553068328763
 20
31.19258899679966
 10
29.11065638440894
 20
31.13164234613959
 10
29.11363755340289
 20
31.05608747578081
 10
29.08262801078165
 20
31.06617801733913
 42
-0.1257100272134179
 10
29.030885683188
 20
31.29816941936118
 42
0.2260837189018228
 10
28.9811678245439
 20
31.45175497979279
 10
28.87022720638355
 20
31.54731028945248
 42
-0.6449762263124317
 10
28.88196854885721
 20
31.57324458147067
 10
29.01120548448659
 20
31.57166484444261
 42
-0.1518691569180708
 10
29.05564063883585
 20
31.55531206784628
 10
29.11556641810433
 20
31.51680887955103
 42
0.0293454671788447
 10
29.16744906129695
 20
31.49941399034813
 10
29.28924307113399
 20
31.48218370076461
 42
0.6538117075652882
 10
29.29622980809936
 20
31.50242451166747
 10
29.13098089060943
 20
31.54651625888979
 42
-0.8886355728344963
 10
29.13304232150882
 20
31.57166484444261
 10
29.26728794190148
 20
31.57166484444261
 42
-0.0642046489364144
 10
29.45590419860876
 20
31.52923238253319
 42
-0.6896355001773956
 10
29.45590419860876
 20
31.42662365214508
 42
-0.0703560868358924
 10
29.26728794190148
 20
31.38539119023565
 10
29.17158513156785
 20
31.38539119023565
 10
29.17158513156785
 20
31.31204443225906
 10
29.22520243126836
 20
31.29010363744159
 10
29.23007673014705
 20
31.32910949535507
 10
29.26663397947396
 20
31.29497936916306
 10
29.28856832872625
 20
31.32667162949434
 10
29.34218562670749
 20
31.26572497676339
 10
29.27638257895062
 20
31.20965405782479
 10
29.26663397947396
 20
31.23403271850299
  0
LWPOLYLINE
  5
64DF
330
17
100
AcDbEntity
  8
R-SWTS-DET2
100
AcDbPolyline
 90
       31
 70
     1
 43
0.0
 10
30.99963552523846
 20
28.77678581945156
 10
31.00450982583642
 20
28.80360234599049
 10
31.11174442351817
 20
28.76947222186936
 10
31.11661872239686
 20
28.70852557120929
 10
31.11363755340291
 20
28.63297070085051
 10
31.14464709602414
 20
28.64306124240883
 42
0.1257100272134179
 10
31.1963894236178
 20
28.87505264443088
 42
-0.2260837189018228
 10
31.2461072822619
 20
29.02863820486249
 10
31.35704790042225
 20
29.12419351452218
 42
0.6449762263124317
 10
31.34530655794859
 20
29.15012780654036
 10
31.21606962231921
 20
29.14854806951231
 42
0.1518691569180708
 10
31.17163446796995
 20
29.13219529291598
 10
31.11170868870147
 20
29.09369210462073
 42
-0.0293454671788447
 10
31.05982604550885
 20
29.07629721541783
 10
30.93803203567181
 20
29.0590669258343
 42
-0.6538117075652882
 10
30.93104529870644
 20
29.07930773673717
 10
31.09629421619637
 20
29.12339948395949
 42
0.8886355728344963
 10
31.09423278529698
 20
29.14854806951231
 10
30.95998716490432
 20
29.14854806951231
 42
0.0642046489364144
 10
30.77137090819704
 20
29.10611560760289
 42
0.6896355001773956
 10
30.77137090819703
 20
29.00350687721478
 42
0.0703560868358924
 10
30.95998716490432
 20
28.96227441530535
 10
31.05568997523795
 20
28.96227441530535
 10
31.05568997523795
 20
28.88892765732876
 10
31.00207267553744
 20
28.8669868625113
 10
30.99719837665875
 20
28.90599272042477
 10
30.96064112733184
 20
28.87186259423276
 10
30.93870677807954
 20
28.90355485456404
 10
30.88508948009831
 20
28.84260820183309
 10
30.95089252785518
 20
28.78653728289449
 10
30.96064112733184
 20
28.81091594357269
  0
LWPOLYLINE
  5
64E0
330
17
100
AcDbEntity
  8
R-SWTS-DET2
100
AcDbPolyline
 90
       31
 70
     1
 43
0.0
 10
30.99963552523846
 20
30.52376301115915
 10
31.00450982583642
 20
30.49694648462021
 10
31.11174442351817
 20
30.53107660874135
 10
31.11661872239686
 20
30.59202325940141
 10
31.11363755340291
 20
30.6675781297602
 10
31.14464709602414
 20
30.65748758820188
 42
-0.1257100272134179
 10
31.1963894236178
 20
30.42549618617982
 42
0.2260837189018228
 10
31.2461072822619
 20
30.27191062574822
 10
31.35704790042225
 20
30.17635531608852
 42
-0.6449762263124317
 10
31.34530655794859
 20
30.15042102407034
 10
31.21606962231921
 20
30.15200076109839
 42
-0.1518691569180708
 10
31.17163446796995
 20
30.16835353769472
 10
31.11170868870147
 20
30.20685672598997
 42
0.0293454671788447
 10
31.05982604550885
 20
30.22425161519287
 10
30.93803203567181
 20
30.2414819047764
 42
0.6538117075652882
 10
30.93104529870644
 20
30.22124109387354
 10
31.09629421619637
 20
30.17714934665121
 42
-0.8886355728344963
 10
31.09423278529698
 20
30.15200076109839
 10
30.95998716490432
 20
30.15200076109839
 42
-0.0642046489364144
 10
30.77137090819704
 20
30.19443322300782
 42
-0.6896355001773956
 10
30.77137090819703
 20
30.29704195339593
 42
-0.0703560868358924
 10
30.95998716490432
 20
30.33827441530535
 10
31.05568997523795
 20
30.33827441530535
 10
31.05568997523795
 20
30.41162117328194
 10
31.00207267553744
 20
30.43356196809941
 10
30.99719837665875
 20
30.39455611018593
 10
30.96064112733184
 20
30.42868623637795
 10
30.93870677807954
 20
30.39699397604667
 10
30.88508948009831
 20
30.45794062877761
 10
30.95089252785518
 20
30.51401154771621
 10
30.96064112733184
 20
30.48963288703801
  0
LINE
  5
64E1
330
17
100
AcDbEntity
  8
R-ANNO-DIMS
  6
Continuous
100
AcDbLine
 10
29.11363755340289
 20
28.2608328027705
 30
0.0
 11
29.11363755340289
 21
26.7058328027705
 31
0.0
  0
LINE
  5
64E2
330
17
100
AcDbEntity
  8
R-ANNO-DIMS
  6
Continuous
100
AcDbLine
 10
31.1136375534029
 20
28.2608328027705
 30
0.0
 11
31.1136375534029
 21
26.7058328027705
 31
0.0
  0
LINE
  5
64E3
330
17
100
AcDbEntity
  8
R-ANNO-DIMS
  6
Continuous
100
AcDbLine
 10
29.3636375534029
 20
26.8858328027705
 30
0.0
 11
30.8636375534029
 21
26.8858328027705
 31
0.0
  0
SOLID
  5
64E4
330
17
100
AcDbEntity
  8
R-ANNO-DIMS
  6
Continuous
100
AcDbTrace
 10
29.3636375534029
 20
26.92749946943717
 30
0.0
 11
29.3636375534029
 21
26.84416613610383
 31
0.0
 12
29.11363755340289
 22
26.8858328027705
 32
0.0
 13
29.11363755340289
 23
26.8858328027705
 33
0.0
  0
SOLID
  5
64E5
330
17
100
AcDbEntity
  8
R-ANNO-DIMS
  6
Continuous
100
AcDbTrace
 10
30.8636375534029
 20
26.92749946943717
 30
0.0
 11
30.8636375534029
 21
26.84416613610383
 31
0.0
 12
31.1136375534029
 22
26.8858328027705
 32
0.0
 13
31.1136375534029
 23
26.8858328027705
 33
0.0
  0
MTEXT
  5
64E6
330
17
100
AcDbEntity
  8
R-ANNO-DIMS
  6
Continuous
100
AcDbMText
 10
30.1136375534029
 20
27.1108328027705
 30
0.0
 40
0.25
 41
0.0
 71
     5
 72
     1
  1
\A1;2"
 73
     1
 44
1.0
1001
ACAD
1000
MTEXTBEGIN
1070
    73
1070
     1
1070
    44
1040
1.0
1070
    74
1070
     0
1000
MTEXTEND
  0
LINE
  5
64E7
330
17
100
AcDbEntity
  8
R-ANNO-DIMS
  6
Continuous
100
AcDbLine
 10
31.1136375534029
 20
28.2608328027705
 30
0.0
 11
31.1136375534029
 21
26.7058328027705
 31
0.0
  0
LINE
  5
64E8
330
17
100
AcDbEntity
  8
R-ANNO-DIMS
  6
Continuous
100
AcDbLine
 10
31.3636375534029
 20
26.8858328027705
 30
0.0
 11
32.86364755340289
 21
26.8858328027705
 31
0.0
  0
SOLID
  5
64E9
330
17
100
AcDbEntity
  8
R-ANNO-DIMS
  6
Continuous
100
AcDbTrace
 10
31.3636375534029
 20
26.92749946943717
 30
0.0
 11
31.3636375534029
 21
26.84416613610383
 31
0.0
 12
31.1136375534029
 22
26.8858328027705
 32
0.0
 13
31.1136375534029
 23
26.8858328027705
 33
0.0
  0
SOLID
  5
64EA
330
17
100
AcDbEntity
  8
R-ANNO-DIMS
  6
Continuous
100
AcDbTrace
 10
32.86364755340289
 20
26.92749946943717
 30
0.0
 11
32.86364755340289
 21
26.84416613610383
 31
0.0
 12
33.11364755340289
 22
26.8858328027705
 32
0.0
 13
33.11364755340289
 23
26.8858328027705
 33
0.0
  0
MTEXT
  5
64EB
330
17
100
AcDbEntity
  8
R-ANNO-DIMS
  6
Continuous
100
AcDbMText
 10
32.1136425534029
 20
27.1108328027705
 30
0.0
 40
0.25
 41
0.0
 71
     5
 72
     1
  1
\A1;DLO
 73
     1
 44
1.0
1001
ACAD
1000
MTEXTBEGIN
1070
    73
1070
     1
1070
    44
1040
1.0
1070
    74
1070
     0
1000
MTEXTEND
  0
LINE
  5
64EC
330
17
100
AcDbEntity
  8
R-ANNO-DIMS
  6
Continuous
100
AcDbLine
 10
29.11363755340289
 20
27.7608328027705
 30
0.0
 11
29.11363755340289
 21
26.7058328027705
 31
0.0
  0
LINE
  5
64ED
330
17
100
AcDbEntity
  8
R-ANNO-DIMS
  6
Continuous
100
AcDbLine
 10
28.8636375534029
 20
26.8858328027705
 30
0.0
 11
27.36362755340289
 21
26.8858328027705
 31
0.0
  0
SOLID
  5
64EE
330
17
100
AcDbEntity
  8
R-ANNO-DIMS
  6
Continuous
100
AcDbTrace
 10
28.8636375534029
 20
26.92749946943717
 30
0.0
 11
28.8636375534029
 21
26.84416613610383
 31
0.0
 12
29.11363755340289
 22
26.8858328027705
 32
0.0
 13
29.11363755340289
 23
26.8858328027705
 33
0.0
  0
SOLID
  5
64EF
330
17
100
AcDbEntity
  8
R-ANNO-DIMS
  6
Continuous
100
AcDbTrace
 10
27.36362755340289
 20
26.92749946943717
 30
0.0
 11
27.36362755340289
 21
26.84416613610383
 31
0.0
 12
27.11362755340289
 22
26.8858328027705
 32
0.0
 13
27.11362755340289
 23
26.8858328027705
 33
0.0
  0
MTEXT
  5
64F0
330
17
100
AcDbEntity
  8
R-ANNO-DIMS
  6
Continuous
100
AcDbMText
 10
28.11363255340289
 20
27.1108328027705
 30
0.0
 40
0.25
 41
0.0
 71
     5
 72
     1
  1
\A1;DLO
 73
     1
 44
1.0
1001
ACAD
1000
MTEXTBEGIN
1070
    73
1070
     1
1070
    44
1040
1.0
1070
    74
1070
     0
1000
MTEXTEND
  0
LINE
  5
64F1
330
17
100
AcDbEntity
  8
R-SWTS-DET1
100
AcDbLine
 10
22.39163660756129
 20
33.3618328027705
 30
0.0
 11
16.39161660756128
 21
33.3618328027705
 31
0.0
  0
LINE
  5
64F2
330
17
100
AcDbEntity
  8
R-SWTS-DET1
100
AcDbLine
 10
22.39163660756129
 20
28.3618328027705
 30
0.0
 11
16.39161660756128
 21
28.3618328027705
 31
0.0
  0
LINE
  5
64F3
330
17
100
AcDbEntity
  8
R-SWTS-DET1
100
AcDbLine
 10
20.39162660756129
 20
28.6118328027705
 30
0.0
 11
22.39163660756129
 21
28.6118328027705
 31
0.0
  0
LWPOLYLINE
  5
64F4
330
17
100
AcDbEntity
  8
R-SWTS-DET1
100
AcDbPolyline
 90
        6
 70
     0
 43
0.0
 10
16.39161660756128
 20
33.6358328027705
 10
16.39161660756128
 20
30.9858428027705
 10
16.19163660756128
 20
30.9358228027705
 10
16.59161660756128
 20
30.8358428027705
 10
16.39161660756128
 20
30.7858428027705
 10
16.39161660756128
 20
28.1358328027705
  0
LINE
  5
64F5
330
17
100
AcDbEntity
  8
R-SWTS-DET1
100
AcDbLine
 10
18.39162660756128
 20
33.11183280277049
 30
0.0
 11
16.39161660756128
 21
33.11183280277049
 31
0.0
  0
LWPOLYLINE
  5
64F6
330
17
100
AcDbEntity
  8
R-SWTS-DET1
100
AcDbPolyline
 90
        6
 70
     0
 43
0.0
 10
22.39163660756129
 20
28.1358328027705
 10
22.39163660756129
 20
30.78582280277049
 10
22.59161660756129
 20
30.8358428027705
 10
22.19163660756128
 20
30.9358228027705
 10
22.39163660756129
 20
30.9858228027705
 10
22.39163660756129
 20
33.6358328027705
  0
LINE
  5
64F7
330
17
100
AcDbEntity
  8
R-SWTS-DET1
100
AcDbLine
 10
20.39162660756128
 20
33.11183280277051
 30
0.0
 11
22.39163660756129
 21
33.11183280277051
 31
0.0
  0
LINE
  5
64F8
330
17
100
AcDbEntity
  8
R-SWTS-DET1
100
AcDbLine
 10
18.39162660756128
 20
28.6118328027705
 30
0.0
 11
16.39161660756128
 21
28.6118328027705
 31
0.0
  0
TEXT
  5
64F9
330
17
100
AcDbEntity
  8
PART_NUMBERS
100
AcDbText
 10
16.56444866445188
 20
33.88884147086654
 30
0.0
 40
0.25
  1
451VG069 TRANSITION MULLION
100
AcDbText
  0
LWPOLYLINE
  5
64FA
330
17
100
AcDbEntity
  8
R-SWTS-DET1
100
AcDbPolyline
 90
      134
 70
     1
 43
0.0
 10
18.49412660756128
 20
28.8928328027705
 10
18.49412660756128
 20
28.9218328027705
 10
18.53212660756129
 20
28.9218328027705
 10
18.63428484137764
 20
28.89939575478517
 42
-0.3541185725306862
 10
18.65012660756128
 20
28.8798328027705
 10
18.65012660756128
 20
28.8378828027705
 10
18.58350427709094
 20
28.77120513324083
 42
-0.1989123673796512
 10
18.56582660756128
 20
28.7638828027705
 10
18.49412660756128
 20
28.7638828027705
 10
18.49412660756128
 20
28.7928828027705
 10
18.39162660756128
 20
28.75685249974019
 10
18.39162660756128
 20
28.6118328027705
 10
20.39162660756128
 20
28.6118328027705
 10
20.39162660756128
 20
28.7018328027705
 10
20.06262660756128
 20
28.7018328027705
 10
20.06262660756128
 20
28.76385056972346
 42
0.6681786379192535
 10
20.04555553974942
 20
28.77092163753533
 10
19.97646670498457
 20
28.7018328027705
 10
19.84549699992793
 20
28.7018328027705
 42
-0.4142135623730847
 10
19.82049699992793
 20
28.7268328027705
 10
19.82049699992793
 20
28.9891493444486
 42
-0.4142135623730951
 10
19.92049699992793
 20
29.08914934444861
 10
20.16536033932515
 20
29.08914934444861
 10
20.18120449040945
 20
29.0617064697678
 42
0.4142135623730951
 10
20.20169487146622
 20
29.05621608871104
 10
20.25122551386623
 20
29.08481261843382
 42
0.2679491924311083
 10
20.25872551386623
 20
29.09780299949058
 10
20.25872551386623
 20
29.12438510764114
 42
0.4142135623730951
 10
20.24372551386623
 20
29.13938510764115
 10
19.92049699992793
 20
29.13938510764115
 42
0.4142135623730968
 10
19.77049699992793
 20
28.98938510764115
 10
19.77049699992793
 20
28.7268328027705
 42
-0.4142135623730847
 10
19.74549699992793
 20
28.7018328027705
 10
19.54162660756128
 20
28.7018328027705
 42
-0.4142135623730971
 10
19.48162660756128
 20
28.7618328027705
 10
19.48162660756128
 20
29.37683780277048
 42
-0.4142135623730821
 10
19.50162660756128
 20
29.39683780277048
 10
19.69662660756128
 20
29.39683780277047
 42
0.4142135623730951
 10
19.76662660756128
 20
29.46683780277048
 10
19.76662660756129
 20
29.60783780277047
 10
19.70112660756129
 20
29.60783780277047
 42
0.9999999999999998
 10
19.70112660756129
 20
29.57683780277048
 10
19.70162660756129
 20
29.57683780277048
 42
-0.4142135623730951
 10
19.71662660756129
 20
29.56183780277048
 10
19.71662660756129
 20
29.48183780277048
 42
-0.4142135623730951
 10
19.70162660756129
 20
29.46683780277048
 10
19.48662660756129
 20
29.46683780277048
 42
-0.4142135623730951
 10
19.47162660756129
 20
29.48183780277048
 10
19.47162660756129
 20
29.56183780277048
 42
-0.4142135623730951
 10
19.48662660756129
 20
29.57683780277048
 10
19.48712660756129
 20
29.57683780277048
 42
0.9999999999999998
 10
19.48712660756129
 20
29.60783780277047
 10
19.47162660756129
 20
29.60783780277047
 10
19.47162660756129
 20
29.85783780277047
 10
19.48712660756129
 20
29.85783780277047
 42
0.9999999999999998
 10
19.48712660756129
 20
29.88883780277047
 10
19.48662660756129
 20
29.88883780277047
 42
-0.4142135623730951
 10
19.47162660756129
 20
29.90383780277047
 10
19.47162660756129
 20
29.98383780277047
 42
-0.4142135623730951
 10
19.48662660756129
 20
29.99883780277047
 10
19.70162660756129
 20
29.99883780277047
 42
-0.4142135623730951
 10
19.71662660756129
 20
29.98383780277047
 10
19.71662660756129
 20
29.90383780277047
 42
-0.4142135623730951
 10
19.70162660756129
 20
29.88883780277047
 10
19.70112660756129
 20
29.88883780277047
 42
0.9999999999999998
 10
19.70112660756129
 20
29.85783780277048
 10
19.76662660756129
 20
29.85783780277047
 10
19.76662660756129
 20
29.99883780277047
 42
0.41421356237311
 10
19.69662660756129
 20
30.06883780277047
 10
19.50162660756128
 20
30.06883780277047
 42
-0.4142135623730951
 10
19.48162660756128
 20
30.08883780277047
 10
19.48162660756128
 20
30.33783780277047
 42
0.4142135623730855
 10
19.29162660756129
 20
30.52783780277048
 10
18.72171426305341
 20
30.5278378027705
 42
-0.1990202627215611
 10
18.704029256221
 20
30.53516747359027
 10
18.64424820091798
 20
30.59499818532743
 42
0.1990202627215691
 10
18.56997117222184
 20
30.6257828027705
 10
18.56162660756128
 20
30.6257828027705
 42
-0.4142135623730951
 10
18.48162660756128
 20
30.70578280277049
 10
18.48162660756128
 20
32.8580828027705
 42
-0.4142135623731026
 10
18.55162660756128
 20
32.92808280277049
 10
18.58077231422763
 20
32.92808280277049
 42
-0.4142135623730876
 10
18.65077231422762
 20
32.8580828027705
 10
18.65077231422762
 20
32.84741234822505
 42
-0.081971439864274
 10
18.597857392499
 20
32.68815763471268
 42
0.2574642289896802
 10
18.59821260340284
 20
32.67005173340054
 10
18.61053552749767
 20
32.64870780277049
 42
0.5825402726417694
 10
18.64315515571921
 20
32.64896118114887
 42
0.1277034272886839
 10
18.71562660756128
 20
32.9280828027705
 10
18.71562660756128
 20
33.02183280277049
 10
18.39162660756128
 20
33.02183280277049
 10
18.39162660756128
 20
30.5428131058008
 10
18.49412660756128
 20
30.5067828027705
 10
18.49412660756128
 20
30.53578280277049
 10
18.56582660756129
 20
30.53578280277049
 42
-0.1989123673796511
 10
18.58350427709095
 20
30.52846047230016
 10
18.65012660756129
 20
30.4617828027705
 10
18.65012660756129
 20
30.4198328027705
 42
-0.3541185725307012
 10
18.63428484137764
 20
30.40026985075582
 10
18.53212660756129
 20
30.3778328027705
 10
18.49412660756128
 20
30.3778328027705
 10
18.49412660756128
 20
30.4068328027705
 10
18.48212660756128
 20
30.4068328027705
 42
0.4142135623730951
 10
18.46212660756128
 20
30.3868328027705
 10
18.46212660756128
 20
30.3578328027705
 42
0.4142135623730951
 10
18.48212660756128
 20
30.3378328027705
 10
18.68412160756129
 20
30.3378328027705
 42
0.4142135623730951
 10
18.72212660756129
 20
30.3758378027705
 10
18.70012660756129
 20
30.3758378027705
 10
18.70012660756129
 20
30.4128378027705
 42
-0.4142135623730951
 10
18.72512660756128
 20
30.43783780277049
 10
19.29162660756129
 20
30.43783780277048
 42
-0.4142135623730886
 10
19.39162660756128
 20
30.33783780277047
 10
19.39162660756128
 20
29.86783780277047
 10
19.40162660756128
 20
29.85783780277047
 10
19.39162660756128
 20
29.84783780277047
 10
19.39162660756128
 20
29.61783780277047
 10
19.40162660756128
 20
29.60783780277047
 10
19.39162660756128
 20
29.59783780277047
 10
19.39162660756128
 20
28.7618328027705
 42
-0.414213562373093
 10
19.33162660756128
 20
28.7018328027705
 10
18.6755515815764
 20
28.7018328027705
 42
-0.6681640521692851
 10
18.661408875538
 20
28.73597436795656
 10
18.71480499010928
 20
28.78937479018983
 42
0.1989018846181274
 10
18.72212660756128
 20
28.80705174667239
 10
18.72212660756128
 20
28.8618278027705
 10
18.70012660756129
 20
28.8618278027705
 10
18.70012660756129
 20
28.9238278027705
 10
18.72212660756128
 20
28.9238278027705
 42
0.4142135623730951
 10
18.68412160756129
 20
28.9618328027705
 10
18.48212660756128
 20
28.9618328027705
 42
0.4142135623730951
 10
18.46212660756128
 20
28.94183280277049
 10
18.46212660756128
 20
28.9128328027705
 42
0.4142135623730951
 10
18.48212660756128
 20
28.8928328027705
  0
LWPOLYLINE
  5
64FB
330
17
100
AcDbEntity
  8
R-SWTS-DET1
100
AcDbPolyline
 90
      134
 70
     1
 43
0.0
 10
20.28912660756127
 20
32.8308328027705
 10
20.28912660756127
 20
32.8018328027705
 10
20.25112660756127
 20
32.8018328027705
 10
20.14896837374491
 20
32.82426985075583
 42
-0.3541185725306862
 10
20.13312660756128
 20
32.8438328027705
 10
20.13312660756128
 20
32.8857828027705
 10
20.19974893803161
 20
32.95246047230016
 42
-0.1989123673796512
 10
20.21742660756127
 20
32.9597828027705
 10
20.28912660756127
 20
32.9597828027705
 10
20.28912660756127
 20
32.9307828027705
 10
20.39162660756128
 20
32.9668131058008
 10
20.39162660756128
 20
33.1118328027705
 10
18.39162660756127
 20
33.1118328027705
 10
18.39162660756127
 20
33.02183280277049
 10
18.72062660756127
 20
33.02183280277049
 10
18.72062660756127
 20
32.95981503581753
 42
0.6681786379192535
 10
18.73769767537314
 20
32.95274396800567
 10
18.80678651013798
 20
33.02183280277049
 10
18.93775621519462
 20
33.02183280277049
 42
-0.4142135623730847
 10
18.96275621519462
 20
32.99683280277049
 10
18.96275621519462
 20
32.73451626109239
 42
-0.4142135623730951
 10
18.86275621519462
 20
32.63451626109239
 10
18.6178928757974
 20
32.63451626109239
 10
18.6020487247131
 20
32.66195913577319
 42
0.4142135623730951
 10
18.58155834365634
 20
32.66744951682996
 10
18.53202770125633
 20
32.63885298710717
 42
0.2679491924311083
 10
18.52452770125633
 20
32.62586260605041
 10
18.52452770125632
 20
32.59928049789985
 42
0.4142135623730951
 10
18.53952770125632
 20
32.58428049789985
 10
18.86275621519462
 20
32.58428049789985
 42
0.4142135623730968
 10
19.01275621519462
 20
32.73428049789985
 10
19.01275621519462
 20
32.99683280277049
 42
-0.4142135623730847
 10
19.03775621519462
 20
33.02183280277049
 10
19.24162660756127
 20
33.02183280277049
 42
-0.4142135623730971
 10
19.30162660756127
 20
32.9618328027705
 10
19.30162660756127
 20
32.34682780277052
 42
-0.4142135623730821
 10
19.28162660756127
 20
32.32682780277052
 10
19.08662660756126
 20
32.32682780277052
 42
0.4142135623730951
 10
19.01662660756127
 20
32.25682780277052
 10
19.01662660756127
 20
32.11582780277053
 10
19.08212660756126
 20
32.11582780277053
 42
0.9999999999999998
 10
19.08212660756126
 20
32.14682780277052
 10
19.08162660756127
 20
32.14682780277052
 42
-0.4142135623730951
 10
19.06662660756127
 20
32.16182780277052
 10
19.06662660756127
 20
32.24182780277052
 42
-0.4142135623730951
 10
19.08162660756127
 20
32.25682780277052
 10
19.29662660756126
 20
32.25682780277052
 42
-0.4142135623730951
 10
19.31162660756126
 20
32.24182780277052
 10
19.31162660756126
 20
32.16182780277052
 42
-0.4142135623730951
 10
19.29662660756126
 20
32.14682780277052
 10
19.29612660756126
 20
32.14682780277052
 42
0.9999999999999998
 10
19.29612660756126
 20
32.11582780277053
 10
19.31162660756126
 20
32.11582780277053
 10
19.31162660756126
 20
31.86582780277053
 10
19.29612660756126
 20
31.86582780277052
 42
0.9999999999999998
 10
19.29612660756126
 20
31.83482780277052
 10
19.29662660756126
 20
31.83482780277052
 42
-0.4142135623730951
 10
19.31162660756126
 20
31.81982780277052
 10
19.31162660756126
 20
31.73982780277052
 42
-0.4142135623730951
 10
19.29662660756126
 20
31.72482780277052
 10
19.08162660756127
 20
31.72482780277052
 42
-0.4142135623730951
 10
19.06662660756127
 20
31.73982780277052
 10
19.06662660756127
 20
31.81982780277052
 42
-0.4142135623730951
 10
19.08162660756127
 20
31.83482780277052
 10
19.08212660756126
 20
31.83482780277052
 42
0.9999999999999998
 10
19.08212660756126
 20
31.86582780277051
 10
19.01662660756127
 20
31.86582780277052
 10
19.01662660756126
 20
31.72482780277053
 42
0.41421356237311
 10
19.08662660756126
 20
31.65482780277053
 10
19.28162660756127
 20
31.65482780277053
 42
-0.4142135623730951
 10
19.30162660756127
 20
31.63482780277052
 10
19.30162660756127
 20
31.38582780277052
 42
0.4142135623730855
 10
19.49162660756126
 20
31.19582780277052
 10
20.06153895206915
 20
31.1958278027705
 42
-0.1990202627215611
 10
20.07922395890156
 20
31.18849813195073
 10
20.13900501420457
 20
31.12866742021356
 42
0.1990202627215691
 10
20.21328204290071
 20
31.0978828027705
 10
20.22162660756128
 20
31.0978828027705
 42
-0.4142135623730951
 10
20.30162660756127
 20
31.0178828027705
 10
20.30162660756127
 20
28.8655828027705
 42
-0.4142135623731026
 10
20.23162660756128
 20
28.7955828027705
 10
20.20248090089493
 20
28.7955828027705
 42
-0.4142135623730876
 10
20.13248090089494
 20
28.8655828027705
 10
20.13248090089494
 20
28.87625325731595
 42
-0.081971439864274
 10
20.18539582262356
 20
29.03550797082832
 42
0.2574642289896802
 10
20.18504061171971
 20
29.05361387214046
 10
20.17271768762489
 20
29.07495780277051
 42
0.5825402726417694
 10
20.14009805940334
 20
29.07470442439212
 42
0.1277034272886839
 10
20.06762660756127
 20
28.7955828027705
 10
20.06762660756128
 20
28.7018328027705
 10
20.39162660756128
 20
28.7018328027705
 10
20.39162660756128
 20
31.1808524997402
 10
20.28912660756127
 20
31.2168828027705
 10
20.28912660756127
 20
31.1878828027705
 10
20.21742660756127
 20
31.1878828027705
 42
-0.1989123673796511
 10
20.19974893803161
 20
31.19520513324084
 10
20.13312660756127
 20
31.2618828027705
 10
20.13312660756127
 20
31.3038328027705
 42
-0.3541185725307012
 10
20.14896837374491
 20
31.32339575478518
 10
20.25112660756127
 20
31.3458328027705
 10
20.28912660756127
 20
31.3458328027705
 10
20.28912660756127
 20
31.3168328027705
 10
20.30112660756127
 20
31.3168328027705
 42
0.4142135623730951
 10
20.32112660756127
 20
31.3368328027705
 10
20.32112660756127
 20
31.3658328027705
 42
0.4142135623730951
 10
20.30112660756127
 20
31.3858328027705
 10
20.09913160756127
 20
31.3858328027705
 42
0.4142135623730951
 10
20.06112660756127
 20
31.3478278027705
 10
20.08312660756127
 20
31.3478278027705
 10
20.08312660756127
 20
31.3108278027705
 42
-0.4142135623730951
 10
20.05812660756127
 20
31.2858278027705
 10
19.49162660756126
 20
31.28582780277052
 42
-0.4142135623730886
 10
19.39162660756127
 20
31.38582780277052
 10
19.39162660756127
 20
31.85582780277053
 10
19.38162660756127
 20
31.86582780277053
 10
19.39162660756127
 20
31.87582780277053
 10
19.39162660756127
 20
32.10582780277053
 10
19.38162660756127
 20
32.11582780277053
 10
19.39162660756127
 20
32.12582780277053
 10
19.39162660756127
 20
32.9618328027705
 42
-0.414213562373093
 10
19.45162660756128
 20
33.0218328027705
 10
20.10770163354616
 20
33.02183280277049
 42
-0.6681640521692851
 10
20.12184433958456
 20
32.98769123758444
 10
20.06844822501327
 20
32.93429081535117
 42
0.1989018846181274
 10
20.06112660756127
 20
32.9166138588686
 10
20.06112660756127
 20
32.86183780277049
 10
20.08312660756127
 20
32.86183780277049
 10
20.08312660756127
 20
32.7998378027705
 10
20.06112660756127
 20
32.7998378027705
 42
0.4142135623730951
 10
20.09913160756127
 20
32.7618328027705
 10
20.30112660756127
 20
32.7618328027705
 42
0.4142135623730951
 10
20.32112660756127
 20
32.7818328027705
 10
20.32112660756127
 20
32.8108328027705
 42
0.4142135623730951
 10
20.30112660756127
 20
32.8308328027705
  0
LINE
  5
64FC
330
17
100
AcDbEntity
  8
R-SWTS-DET3
100
AcDbLine
 10
18.76662660756127
 20
29.15027441530535
 30
0.0
 11
16.39162660756127
 21
29.15027441530535
 31
0.0
  0
LINE
  5
64FD
330
17
100
AcDbEntity
  8
R-SWTS-DET3
100
AcDbLine
 10
18.76662660756127
 20
29.40027441530535
 30
0.0
 11
16.39162660756127
 21
29.40027441530535
 31
0.0
  0
LINE
  5
64FE
330
17
100
AcDbEntity
  8
R-SWTS-DET3
100
AcDbLine
 10
18.76662660756127
 20
29.90027441530535
 30
0.0
 11
16.39162660756127
 21
29.90027441530535
 31
0.0
  0
LINE
  5
64FF
330
17
100
AcDbEntity
  8
R-SWTS-DET3
100
AcDbLine
 10
18.76662660756127
 20
30.15027441530535
 30
0.0
 11
16.39162660756127
 21
30.15027441530535
 31
0.0
  0
LINE
  5
6500
330
17
100
AcDbEntity
  8
R-SWTS-DET2
100
AcDbLine
 10
18.39162660756127
 20
28.63297070085051
 30
0.0
 11
16.39162660756127
 21
28.63297070085051
 31
0.0
  0
LINE
  5
6501
330
17
100
AcDbEntity
  8
R-SWTS-DET2
100
AcDbLine
 10
18.39162660756127
 20
30.6675781297602
 30
0.0
 11
16.39162660756127
 21
30.6675781297602
 31
0.0
  0
LINE
  5
6502
330
17
100
AcDbEntity
  8
R-SWTS-DET3
100
AcDbLine
 10
18.76662660756127
 20
29.15027441530535
 30
0.0
 11
18.76662660756127
 21
30.15027441530535
 31
0.0
  0
LINE
  5
6503
330
17
100
AcDbEntity
  8
R-SWTS-DET3
100
AcDbLine
 10
18.51662660756127
 20
29.40027441530535
 30
0.0
 11
18.51662660756127
 21
29.90027441530535
 31
0.0
  0
LINE
  5
6504
330
17
100
AcDbEntity
  8
R-SWTS-DET3
100
AcDbLine
 10
20.01662660756128
 20
32.57339119023565
 30
0.0
 11
22.39162660756128
 21
32.57339119023565
 31
0.0
  0
LINE
  5
6505
330
17
100
AcDbEntity
  8
R-SWTS-DET3
100
AcDbLine
 10
20.01662660756128
 20
32.32339119023565
 30
0.0
 11
22.39162660756128
 21
32.32339119023565
 31
0.0
  0
LINE
  5
6506
330
17
100
AcDbEntity
  8
R-SWTS-DET3
100
AcDbLine
 10
20.01662660756128
 20
31.82339119023565
 30
0.0
 11
22.39162660756128
 21
31.82339119023565
 31
0.0
  0
LINE
  5
6507
330
17
100
AcDbEntity
  8
R-SWTS-DET3
100
AcDbLine
 10
20.01662660756128
 20
31.57339119023565
 30
0.0
 11
22.39162660756128
 21
31.57339119023565
 31
0.0
  0
LINE
  5
6508
330
17
100
AcDbEntity
  8
R-SWTS-DET2
100
AcDbLine
 10
20.39162660756129
 20
33.09069490469049
 30
0.0
 11
22.39162660756129
 21
33.09069490469049
 31
0.0
  0
LINE
  5
6509
330
17
100
AcDbEntity
  8
R-SWTS-DET2
100
AcDbLine
 10
20.39162660756129
 20
31.0560874757808
 30
0.0
 11
22.39162660756129
 21
31.0560874757808
 31
0.0
  0
LINE
  5
650A
330
17
100
AcDbEntity
  8
R-SWTS-DET3
100
AcDbLine
 10
20.01662660756128
 20
32.57339119023565
 30
0.0
 11
20.01662660756128
 21
31.57339119023565
 31
0.0
  0
LINE
  5
650B
330
17
100
AcDbEntity
  8
R-SWTS-DET3
100
AcDbLine
 10
20.26662660756128
 20
32.32339119023565
 30
0.0
 11
20.26662660756128
 21
31.82339119023565
 31
0.0
  0
LWPOLYLINE
  5
650C
330
17
100
AcDbEntity
  8
R-SWTS-DET2
100
AcDbPolyline
 90
       31
 70
     1
 43
0.0
 10
20.27762457939683
 20
32.94687978608944
 10
20.2824988799948
 20
32.9200632595505
 10
20.38973347767655
 20
32.95419338367164
 10
20.39460777655524
 20
33.01514003433171
 10
20.39162660756129
 20
33.09069490469049
 10
20.42263615018252
 20
33.08060436313217
 42
-0.1257100272134179
 10
20.47437847777617
 20
32.84861296111011
 42
0.2260837189018228
 10
20.52409633642028
 20
32.69502740067851
 10
20.63503695458063
 20
32.59947209101882
 42
-0.6449762263124317
 10
20.62329561210697
 20
32.57353779900063
 10
20.49405867647758
 20
32.57511753602869
 42
-0.1518691569180708
 10
20.44962352212833
 20
32.59147031262501
 10
20.38969774285985
 20
32.62997350092027
 42
0.0293454671788447
 10
20.33781509966722
 20
32.64736839012317
 10
20.21602108983018
 20
32.66459867970669
 42
0.6538117075652882
 10
20.20903435286482
 20
32.64435786880383
 10
20.37428327035474
 20
32.60026612158151
 42
-0.8886355728344963
 10
20.37222183945536
 20
32.57511753602869
 10
20.2379762190627
 20
32.57511753602869
 42
-0.0642046489364144
 10
20.04935996235541
 20
32.61754999793812
 42
-0.6896355001773956
 10
20.04935996235541
 20
32.72015872832622
 42
-0.0703560868358924
 10
20.2379762190627
 20
32.76139119023564
 10
20.33367902939633
 20
32.76139119023564
 10
20.33367902939633
 20
32.83473794821223
 10
20.28006172969582
 20
32.85667874302971
 10
20.27518743081713
 20
32.81767288511622
 10
20.23863018149022
 20
32.85180301130824
 10
20.21669583223792
 20
32.82011075097696
 10
20.16307853425669
 20
32.88105740370791
 10
20.22888158201356
 20
32.93712832264651
 10
20.23863018149022
 20
32.91274966196831
  0
LWPOLYLINE
  5
650D
330
17
100
AcDbEntity
  8
R-SWTS-DET2
100
AcDbPolyline
 90
       31
 70
     1
 43
0.0
 10
20.27762457939683
 20
31.19990259438185
 10
20.2824988799948
 20
31.22671912092079
 10
20.38973347767655
 20
31.19258899679965
 10
20.39460777655524
 20
31.13164234613958
 10
20.39162660756129
 20
31.0560874757808
 10
20.42263615018252
 20
31.06617801733912
 42
0.1257100272134179
 10
20.47437847777617
 20
31.29816941936117
 42
-0.2260837189018228
 10
20.52409633642028
 20
31.45175497979278
 10
20.63503695458063
 20
31.54731028945247
 42
0.6449762263124317
 10
20.62329561210697
 20
31.57324458147066
 10
20.49405867647758
 20
31.57166484444261
 42
0.1518691569180708
 10
20.44962352212833
 20
31.55531206784627
 10
20.38969774285985
 20
31.51680887955102
 42
-0.0293454671788447
 10
20.33781509966722
 20
31.49941399034812
 10
20.21602108983018
 20
31.4821837007646
 42
-0.6538117075652882
 10
20.20903435286482
 20
31.50242451166746
 10
20.37428327035474
 20
31.54651625888978
 42
0.8886355728344963
 10
20.37222183945536
 20
31.57166484444261
 10
20.2379762190627
 20
31.57166484444261
 42
0.0642046489364144
 10
20.04935996235541
 20
31.52923238253318
 42
0.6896355001773956
 10
20.04935996235541
 20
31.42662365214507
 42
0.0703560868358924
 10
20.2379762190627
 20
31.38539119023564
 10
20.33367902939633
 20
31.38539119023564
 10
20.33367902939633
 20
31.31204443225906
 10
20.28006172969582
 20
31.29010363744159
 10
20.27518743081713
 20
31.32910949535506
 10
20.23863018149022
 20
31.29497936916305
 10
20.21669583223792
 20
31.32667162949433
 10
20.16307853425669
 20
31.26572497676339
 10
20.22888158201356
 20
31.20965405782478
 10
20.23863018149022
 20
31.23403271850298
  0
LWPOLYLINE
  5
650E
330
17
100
AcDbEntity
  8
R-SWTS-DET2
100
AcDbPolyline
 90
       31
 70
     1
 43
0.0
 10
18.50562863572572
 20
28.77678581945156
 10
18.50075433512776
 20
28.80360234599049
 10
18.39351973744601
 20
28.76947222186936
 10
18.38864543856732
 20
28.70852557120929
 10
18.39162660756127
 20
28.63297070085051
 10
18.36061706494003
 20
28.64306124240883
 42
-0.1257100272134179
 10
18.30887473734638
 20
28.87505264443088
 42
0.2260837189018228
 10
18.25915687870228
 20
29.02863820486249
 10
18.14821626054193
 20
29.12419351452218
 42
-0.6449762263124317
 10
18.15995760301559
 20
29.15012780654036
 10
18.28919453864497
 20
29.14854806951231
 42
-0.1518691569180708
 10
18.33362969299423
 20
29.13219529291598
 10
18.3935554722627
 20
29.09369210462073
 42
0.0293454671788447
 10
18.44543811545533
 20
29.07629721541783
 10
18.56723212529237
 20
29.0590669258343
 42
0.6538117075652882
 10
18.57421886225774
 20
29.07930773673717
 10
18.40896994476781
 20
29.12339948395949
 42
-0.8886355728344963
 10
18.4110313756672
 20
29.14854806951231
 10
18.54527699605986
 20
29.14854806951231
 42
-0.0642046489364144
 10
18.73389325276714
 20
29.10611560760289
 42
-0.6896355001773956
 10
18.73389325276714
 20
29.00350687721477
 42
-0.0703560868358924
 10
18.54527699605986
 20
28.96227441530535
 10
18.44957418572622
 20
28.96227441530535
 10
18.44957418572622
 20
28.88892765732876
 10
18.50319148542674
 20
28.8669868625113
 10
18.50806578430543
 20
28.90599272042477
 10
18.54462303363234
 20
28.87186259423275
 10
18.56655738288463
 20
28.90355485456403
 10
18.62017468086587
 20
28.84260820183309
 10
18.55437163310899
 20
28.78653728289449
 10
18.54462303363234
 20
28.81091594357269
  0
LWPOLYLINE
  5
650F
330
17
100
AcDbEntity
  8
R-SWTS-DET2
100
AcDbPolyline
 90
       31
 70
     1
 43
0.0
 10
18.50562863572572
 20
30.52376301115915
 10
18.50075433512776
 20
30.49694648462021
 10
18.39351973744601
 20
30.53107660874135
 10
18.38864543856732
 20
30.59202325940141
 10
18.39162660756127
 20
30.6675781297602
 10
18.36061706494003
 20
30.65748758820188
 42
0.1257100272134179
 10
18.30887473734638
 20
30.42549618617982
 42
-0.2260837189018228
 10
18.25915687870228
 20
30.27191062574821
 10
18.14821626054193
 20
30.17635531608852
 42
0.6449762263124317
 10
18.15995760301559
 20
30.15042102407034
 10
18.28919453864497
 20
30.15200076109839
 42
0.1518691569180708
 10
18.33362969299423
 20
30.16835353769472
 10
18.39355547226271
 20
30.20685672598997
 42
-0.0293454671788447
 10
18.44543811545533
 20
30.22425161519287
 10
18.56723212529237
 20
30.2414819047764
 42
-0.6538117075652882
 10
18.57421886225774
 20
30.22124109387354
 10
18.40896994476781
 20
30.17714934665121
 42
0.8886355728344963
 10
18.4110313756672
 20
30.15200076109839
 10
18.54527699605986
 20
30.15200076109839
 42
0.0642046489364144
 10
18.73389325276714
 20
30.19443322300782
 42
0.6896355001773956
 10
18.73389325276714
 20
30.29704195339592
 42
0.0703560868358924
 10
18.54527699605986
 20
30.33827441530535
 10
18.44957418572622
 20
30.33827441530535
 10
18.44957418572622
 20
30.41162117328194
 10
18.50319148542674
 20
30.43356196809941
 10
18.50806578430543
 20
30.39455611018593
 10
18.54462303363234
 20
30.42868623637794
 10
18.56655738288463
 20
30.39699397604666
 10
18.62017468086587
 20
30.45794062877761
 10
18.55437163310899
 20
30.51401154771621
 10
18.54462303363234
 20
30.48963288703801
  0
LINE
  5
6510
330
17
100
AcDbEntity
  8
R-ANNO-DIMS
100
AcDbLine
 10
18.39162660756128
 20
28.2368328027705
 30
0.0
 11
18.39162660756128
 21
26.7058328027705
 31
0.0
  0
LINE
  5
6511
330
17
100
AcDbEntity
  8
R-ANNO-DIMS
100
AcDbLine
 10
18.14162660756128
 20
26.8858328027705
 30
0.0
 11
16.64161660756128
 21
26.8858328027705
 31
0.0
  0
SOLID
  5
6512
330
17
100
AcDbEntity
  8
R-ANNO-DIMS
100
AcDbTrace
 10
18.14162660756128
 20
26.92749946943717
 30
0.0
 11
18.14162660756128
 21
26.84416613610383
 31
0.0
 12
18.39162660756128
 22
26.8858328027705
 32
0.0
 13
18.39162660756128
 23
26.8858328027705
 33
0.0
  0
SOLID
  5
6513
330
17
100
AcDbEntity
  8
R-ANNO-DIMS
100
AcDbTrace
 10
16.64161660756128
 20
26.92749946943717
 30
0.0
 11
16.64161660756128
 21
26.84416613610383
 31
0.0
 12
16.39161660756128
 22
26.8858328027705
 32
0.0
 13
16.39161660756128
 23
26.8858328027705
 33
0.0
  0
MTEXT
  5
6514
330
17
100
AcDbEntity
  8
R-ANNO-DIMS
100
AcDbMText
 10
17.39162160756128
 20
27.1108328027705
 30
0.0
 40
0.25
 41
0.0
 71
     5
 72
     1
  1
\A1;DLO
 73
     1
 44
1.0
1001
ACAD
1000
MTEXTBEGIN
1070
    73
1070
     1
1070
    44
1040
1.0
1070
    74
1070
     0
1000
MTEXTEND
  0
LINE
  5
6515
330
17
100
AcDbEntity
  8
R-ANNO-DIMS
  6
Continuous
100
AcDbLine
 10
18.39162660756128
 20
28.2608328027705
 30
0.0
 11
18.39162660756128
 21
26.7058328027705
 31
0.0
  0
LINE
  5
6516
330
17
100
AcDbEntity
  8
R-ANNO-DIMS
  6
Continuous
100
AcDbLine
 10
20.39162660756129
 20
28.2608328027705
 30
0.0
 11
20.39162660756129
 21
26.7058328027705
 31
0.0
  0
LINE
  5
6517
330
17
100
AcDbEntity
  8
R-ANNO-DIMS
  6
Continuous
100
AcDbLine
 10
18.64162660756128
 20
26.8858328027705
 30
0.0
 11
20.14162660756129
 21
26.8858328027705
 31
0.0
  0
SOLID
  5
6518
330
17
100
AcDbEntity
  8
R-ANNO-DIMS
  6
Continuous
100
AcDbTrace
 10
18.64162660756128
 20
26.92749946943717
 30
0.0
 11
18.64162660756128
 21
26.84416613610383
 31
0.0
 12
18.39162660756128
 22
26.8858328027705
 32
0.0
 13
18.39162660756128
 23
26.8858328027705
 33
0.0
  0
SOLID
  5
6519
330
17
100
AcDbEntity
  8
R-ANNO-DIMS
  6
Continuous
100
AcDbTrace
 10
20.14162660756129
 20
26.92749946943717
 30
0.0
 11
20.14162660756129
 21
26.84416613610383
 31
0.0
 12
20.39162660756129
 22
26.8858328027705
 32
0.0
 13
20.39162660756129
 23
26.8858328027705
 33
0.0
  0
MTEXT
  5
651A
330
17
100
AcDbEntity
  8
R-ANNO-DIMS
  6
Continuous
100
AcDbMText
 10
19.39162660756128
 20
27.1108328027705
 30
0.0
 40
0.25
 41
0.0
 71
     5
 72
     1
  1
\A1;2"
 73
     1
 44
1.0
1001
ACAD
1000
MTEXTBEGIN
1070
    73
1070
     1
1070
    44
1040
1.0
1070
    74
1070
     0
1000
MTEXTEND
  0
LINE
  5
651B
330
17
100
AcDbEntity
  8
R-ANNO-DIMS
  6
Continuous
100
AcDbLine
 10
20.39162660756129
 20
28.2608328027705
 30
0.0
 11
20.39162660756129
 21
26.7058328027705
 31
0.0
  0
LINE
  5
651C
330
17
100
AcDbEntity
  8
R-ANNO-DIMS
  6
Continuous
100
AcDbLine
 10
20.64162660756128
 20
26.8858328027705
 30
0.0
 11
22.14163660756129
 21
26.8858328027705
 31
0.0
  0
SOLID
  5
651D
330
17
100
AcDbEntity
  8
R-ANNO-DIMS
  6
Continuous
100
AcDbTrace
 10
20.64162660756128
 20
26.92749946943717
 30
0.0
 11
20.64162660756128
 21
26.84416613610383
 31
0.0
 12
20.39162660756129
 22
26.8858328027705
 32
0.0
 13
20.39162660756129
 23
26.8858328027705
 33
0.0
  0
SOLID
  5
651E
330
17
100
AcDbEntity
  8
R-ANNO-DIMS
  6
Continuous
100
AcDbTrace
 10
22.14163660756129
 20
26.92749946943717
 30
0.0
 11
22.14163660756129
 21
26.84416613610383
 31
0.0
 12
22.39163660756129
 22
26.8858328027705
 32
0.0
 13
22.39163660756129
 23
26.8858328027705
 33
0.0
  0
MTEXT
  5
651F
330
17
100
AcDbEntity
  8
R-ANNO-DIMS
  6
Continuous
100
AcDbMText
 10
21.39163160756129
 20
27.1108328027705
 30
0.0
 40
0.25
 41
0.0
 71
     5
 72
     1
  1
\A1;DLO
 73
     1
 44
1.0
1001
ACAD
1000
MTEXTBEGIN
1070
    73
1070
     1
1070
    44
1040
1.0
1070
    74
1070
     0
1000
MTEXTEND
  0
LWPOLYLINE
  5
6520
330
17
100
AcDbEntity
  8
R-SWTS-DET1
100
AcDbPolyline
 90
        6
 70
     0
 43
0.0
 10
43.59261693903635
 20
28.09954745631859
 10
43.59261693903635
 20
30.74953745631858
 10
43.79259693903634
 20
30.79955745631858
 10
43.39261693903634
 20
30.89953745631858
 10
43.59261693903635
 20
30.94953745631858
 10
43.59261693903635
 20
33.59954745631859
  0
LWPOLYLINE
  5
6521
330
17
100
AcDbEntity
  8
R-SWTS-DET1
100
AcDbPolyline
 90
        6
 70
     0
 43
0.0
 10
37.59259693903634
 20
33.59954745631859
 10
37.59259693903634
 20
30.94955745631859
 10
37.39261693903633
 20
30.89953745631858
 10
37.79259693903635
 20
30.79955745631858
 10
37.59259693903633
 20
30.74955745631859
 10
37.59259693903633
 20
28.09954745631859
  0
LINE
  5
6522
330
17
100
AcDbEntity
  8
R-SWTS-DET1
100
AcDbLine
 10
43.59261693903635
 20
28.3618328027705
 30
0.0
 11
37.59259693903634
 21
28.3618328027705
 31
0.0
  0
LINE
  5
6523
330
17
100
AcDbEntity
  8
R-SWTS-DET1
100
AcDbLine
 10
41.59260693903634
 20
28.6118328027705
 30
0.0
 11
43.59261693903635
 21
28.6118328027705
 31
0.0
  0
LINE
  5
6524
330
17
100
AcDbEntity
  8
R-SWTS-DET1
100
AcDbLine
 10
43.59261693903635
 20
33.3618328027705
 30
0.0
 11
37.59259693903633
 21
33.3618328027705
 31
0.0
  0
LINE
  5
6525
330
17
100
AcDbEntity
  8
R-SWTS-DET1
100
AcDbLine
 10
39.59260693903633
 20
33.11183280277049
 30
0.0
 11
37.59259693903633
 21
33.11183280277049
 31
0.0
  0
LINE
  5
6526
330
17
100
AcDbEntity
  8
R-SWTS-DET1
100
AcDbLine
 10
41.59260693903632
 20
33.11183280277049
 30
0.0
 11
43.59261693903633
 21
33.11183280277049
 31
0.0
  0
LINE
  5
6527
330
17
100
AcDbEntity
  8
R-SWTS-DET1
100
AcDbLine
 10
39.59260693903633
 20
28.6118328027705
 30
0.0
 11
37.59259693903633
 21
28.6118328027705
 31
0.0
  0
TEXT
  5
6528
330
17
100
AcDbEntity
  8
PART_NUMBERS
100
AcDbText
 10
37.76542899592695
 20
33.85109313566953
 30
0.0
 40
0.25
  1
451VG001 MULLION
100
AcDbText
  0
TEXT
  5
6529
330
17
100
AcDbEntity
  8
PART_NUMBERS
100
AcDbText
 10
37.76542899592695
 20
34.35109313566953
 30
0.0
 40
0.25
  1
451CG002 POCKET FILLER
100
AcDbText
  0
LWPOLYLINE
  5
652A
330
17
100
AcDbEntity
  8
R-SWTS-DET1
100
AcDbPolyline
 90
      148
 70
     1
 43
0.0
 10
40.67260693903635
 20
29.96027512070794
 10
40.67260693903635
 20
29.88375787420036
 42
0.3242050878081617
 10
40.68293480788881
 20
29.86950406100733
 42
-0.8529632016673883
 10
40.67810693903636
 20
29.83927512070793
 10
40.67260693903635
 20
29.83927512070793
 10
40.67260693903635
 20
29.58927512070792
 10
40.67810693903636
 20
29.58927512070792
 42
-0.8529632016668454
 10
40.68293480788881
 20
29.55904618040858
 42
0.3242050878078117
 10
40.67260693903635
 20
29.54479236721561
 10
40.67260693903635
 20
29.46827512070793
 42
0.4142135623731015
 10
40.69260693903635
 20
29.44827512070793
 10
40.89760693903635
 20
29.44827512070793
 42
0.4142135623730951
 10
40.91760693903635
 20
29.46827512070793
 10
40.91760693903635
 20
29.54327512070792
 42
0.4142135623730951
 10
40.90260693903635
 20
29.55827512070792
 10
40.90210693903635
 20
29.55827512070792
 42
-0.9999999999999998
 10
40.90210693903635
 20
29.58927512070792
 10
40.96760693903635
 20
29.58927512070792
 10
40.96760693903636
 20
29.44827512070793
 42
-0.4142135623731173
 10
40.89760693903636
 20
29.37827512070792
 10
40.69260693903635
 20
29.37827512070792
 42
0.414213562373108
 10
40.67260693903635
 20
29.35827512070792
 10
40.67260693903635
 20
28.76310436313216
 42
0.4142135623730906
 10
40.73260693903635
 20
28.70310436313216
 10
41.45260693903635
 20
28.70310436313216
 42
0.4142135623730897
 10
41.51260693903635
 20
28.76310436313216
 10
41.51260693903635
 20
28.98710345076874
 10
41.49460693903635
 20
28.98710345076874
 42
-0.4142135623730951
 10
41.43260693903635
 20
29.04910345076875
 10
41.43260693903634
 20
29.23710345076873
 10
41.45060693903635
 20
29.23710345076873
 42
-0.4142135623730951
 10
41.51260693903634
 20
29.17510345076874
 10
41.51260693903634
 20
29.06710345076873
 10
41.59260693903635
 20
29.06710345076873
 10
41.59260693903635
 20
28.61310436313216
 10
39.59260693903635
 20
28.61310436313216
 10
39.59260693903635
 20
28.75812406010187
 10
39.69510693903635
 20
28.79415436313217
 10
39.69510693903635
 20
28.76515436313217
 10
39.76887921984392
 20
28.76515436313217
 42
0.1990202627215749
 10
39.78302722530985
 20
28.77101809978799
 10
39.85110693903635
 20
28.83915436313217
 10
39.85110693903635
 20
28.88110389551847
 42
0.3522182948120313
 10
39.83539728676624
 20
28.90063829892263
 10
39.73310693903635
 20
28.92310436313217
 10
39.69510693903635
 20
28.92310436313217
 10
39.69510693903635
 20
28.89410436313217
 10
39.68310693903635
 20
28.89410436313217
 42
-0.4142135623730951
 10
39.66310693903635
 20
28.91410436313217
 10
39.66310693903635
 20
28.94310436313217
 42
-0.4142135623730951
 10
39.68310693903635
 20
28.96310436313217
 10
39.88510193903636
 20
28.96310436313217
 42
-0.4142135623730882
 10
39.92310693903635
 20
28.92509936313217
 10
39.90110693903636
 20
28.92509936313217
 10
39.90110693903636
 20
28.86309936313217
 10
39.92310693903635
 20
28.86309936313217
 10
39.92310693903635
 20
28.80625235736034
 42
-0.198901884618123
 10
39.91724964507475
 20
28.79211079217429
 10
39.86238920701305
 20
28.73724592831822
 42
0.6681640521692715
 10
39.87653191305145
 20
28.70310436313216
 10
40.53260693903634
 20
28.70310436313216
 42
0.4142135623730928
 10
40.59260693903634
 20
28.76310436313216
 10
40.59260693903635
 20
29.57927512070793
 10
40.60260693903635
 20
29.58927512070793
 10
40.59260693903635
 20
29.59927512070793
 10
40.59260693903635
 20
29.82927512070793
 10
40.60260693903635
 20
29.83927512070793
 10
40.59260693903635
 20
29.84927512070793
 10
40.59260693903635
 20
30.33910936313216
 42
0.4142135623730977
 10
40.49260693903636
 20
30.43910936313216
 10
39.92610693903635
 20
30.43910936313216
 42
0.4142135623730951
 10
39.90110693903636
 20
30.41410936313216
 10
39.90110693903636
 20
30.37710936313216
 10
39.92310693903635
 20
30.37710936313216
 42
-0.4142135623730951
 10
39.88510193903636
 20
30.33910436313216
 10
39.68310693903635
 20
30.33910436313216
 42
-0.4142135623730951
 10
39.66310693903635
 20
30.35910436313216
 10
39.66310693903635
 20
30.38810436313216
 42
-0.4142135623730951
 10
39.68310693903635
 20
30.40810436313216
 10
39.69510693903635
 20
30.40810436313216
 10
39.69510693903635
 20
30.37910436313216
 10
39.73310693903636
 20
30.37910436313216
 10
39.83526517285271
 20
30.40154141111749
 42
0.3541185725306697
 10
39.85110693903635
 20
30.42110436313216
 10
39.85110693903635
 20
30.46305436313216
 10
39.78448460856602
 20
30.52973203266182
 42
0.198912367379654
 10
39.76680693903635
 20
30.53705436313216
 10
39.69510693903635
 20
30.53705436313216
 10
39.69510693903635
 20
30.50805436313217
 10
39.59260693903635
 20
30.54408466616246
 10
39.59260693903635
 20
33.11310436313216
 10
41.59260693903635
 20
33.11310436313216
 10
41.59260693903635
 20
32.65910345076873
 10
41.51260693903635
 20
32.65910345076873
 10
41.51260693903634
 20
32.55110345076873
 42
-0.4142135623730951
 10
41.45060693903635
 20
32.48910345076872
 10
41.43260693903635
 20
32.48910345076873
 10
41.43260693903634
 20
32.67710345076873
 42
-0.4142135623730951
 10
41.49460693903635
 20
32.73910345076874
 10
41.51260693903635
 20
32.73910345076873
 10
41.51260693903635
 20
32.96310436313216
 42
0.414213562373094
 10
41.45260693903635
 20
33.02310436313216
 10
39.73260693903635
 20
33.02310436313216
 42
0.4142135623730951
 10
39.67260693903635
 20
32.96310436313216
 10
39.67260693903636
 20
32.24533420059294
 42
0.5680984128595057
 10
39.70212045254988
 20
32.22774178573232
 42
-0.3397540095737747
 10
39.90060693903635
 20
32.19585187966125
 10
39.90060693903636
 20
32.15188639543494
 10
39.87112627398754
 20
32.13486572553311
 42
-0.3865446749097419
 10
39.85798157542074
 20
32.13772392086248
 42
3.127286275187389
 10
39.85798157542076
 20
32.02748480540186
 42
-0.3865446749096575
 10
39.87112627398754
 20
32.03034300073125
 10
39.90060693903636
 20
32.01332233082943
 10
39.90060693903635
 20
31.96935684660311
 42
-0.3397540095737754
 10
39.70212045254989
 20
31.93746694053205
 42
0.5680984128594928
 10
39.67260693903636
 20
31.91987452567141
 10
39.67260693903636
 20
31.31433420059294
 42
0.5680984128595057
 10
39.70212045254988
 20
31.29674178573232
 42
-0.3397540095737747
 10
39.90060693903635
 20
31.26485187966125
 10
39.90060693903636
 20
31.22088639543493
 10
39.87112627398754
 20
31.2038657255331
 42
-0.3865446749097419
 10
39.85798157542074
 20
31.20672392086249
 42
3.127286275187389
 10
39.85798157542076
 20
31.09648480540186
 42
-0.3865446749096575
 10
39.87112627398754
 20
31.09934300073125
 10
39.90060693903636
 20
31.08232233082942
 10
39.90060693903635
 20
31.03835684660311
 42
-0.3397540095737754
 10
39.70212045254989
 20
31.00646694053205
 42
0.5680984128594928
 10
39.67260693903636
 20
30.98887452567141
 10
39.67260693903635
 20
30.68705436313216
 42
0.4142135623730951
 10
39.74260693903635
 20
30.61705436313216
 10
39.77266236828494
 20
30.61705436313216
 42
-0.1990202627215673
 10
39.84693939698108
 20
30.5862697456891
 10
39.90818516979759
 20
30.52497309978798
 42
0.1990202627215632
 10
39.92233317526351
 20
30.51910936313216
 10
40.50260693903636
 20
30.51910936313216
 42
-0.4142135623730935
 10
40.67260693903635
 20
30.34910936313216
 10
40.67260693903635
 20
30.07027512070794
 42
0.4142135623731081
 10
40.69260693903635
 20
30.05027512070793
 10
40.89760693903636
 20
30.05027512070793
 42
-0.4142135623731173
 10
40.96760693903636
 20
29.98027512070793
 10
40.96760693903635
 20
29.83927512070794
 10
40.90210693903635
 20
29.83927512070794
 42
-0.9999999999999998
 10
40.90210693903635
 20
29.87027512070794
 10
40.90260693903635
 20
29.87027512070794
 42
0.4142135623730951
 10
40.91760693903635
 20
29.88527512070794
 10
40.91760693903635
 20
29.96027512070794
 42
0.4142135623731015
 10
40.89760693903635
 20
29.98027512070793
 10
40.69260693903635
 20
29.98027512070794
 42
0.4142135623730951
  0
LWPOLYLINE
  5
652B
330
17
100
AcDbEntity
  8
R-SWTS-DET1
100
AcDbPolyline
 90
       98
 70
     1
 43
0.0
 10
41.49010693903632
 20
31.58938280277049
 10
41.45210693903631
 20
31.58938280277049
 10
41.34994870521996
 20
31.61181985075582
 42
-0.3541185725306792
 10
41.33410693903632
 20
31.63138280277049
 10
41.33410693903632
 20
31.67333280277049
 10
41.40072926950666
 20
31.74001047230015
 42
-0.1989123673796537
 10
41.41840693903632
 20
31.74733280277049
 10
41.49010693903632
 20
31.74733280277049
 10
41.49010693903632
 20
31.71833280277049
 10
41.59260693903632
 20
31.75436310580079
 10
41.59260693903632
 20
32.6568328027705
 10
41.51260693903632
 20
32.6568328027705
 10
41.51260693903632
 20
32.48683280277049
 10
41.42660693903632
 20
32.48683280277049
 10
41.42660693903632
 20
32.54883280277049
 10
41.20960693903632
 20
32.46983280277049
 42
1.003724381894516
 10
41.23360693903633
 20
32.4043328027705
 10
41.3461052950926
 20
32.44533220364433
 42
-0.5183857430387767
 10
41.37295303446537
 20
32.42668700977349
 42
0.4120800626174649
 10
41.39295250306836
 20
32.4068328027705
 10
41.50260693903632
 20
32.4068328027705
 42
-0.4378145317003978
 10
41.51260693903632
 20
32.39683280277049
 10
41.51260693903632
 20
32.27283280277049
 42
-0.2907175366164647
 10
41.50260693903632
 20
32.2528328027705
 10
41.50260693903632
 20
32.09083280277049
 10
41.51260693903632
 20
32.0808328027705
 10
41.50260693903632
 20
32.0708328027705
 10
41.50260693903632
 20
31.91615331084618
 42
-0.2679491924311257
 10
41.51260693903632
 20
31.8988328027705
 10
41.51260693903632
 20
31.89733280277049
 42
-0.4142135623730951
 10
41.44260693903632
 20
31.82733280277049
 10
41.41255150978774
 20
31.82733280277049
 42
0.1990202627215669
 10
41.33827448109159
 20
31.79654818532743
 10
41.27697375392229
 20
31.73519653942632
 42
-0.1990202627215582
 10
41.26282574845636
 20
31.7293328027705
 10
41.1826069390363
 20
31.7293328027705
 42
0.4142135623730753
 10
41.01260693903632
 20
31.5593328027705
 10
41.01260693903632
 20
30.1643328027705
 42
0.4142135623730693
 10
41.1826069390363
 20
29.99433280277049
 10
41.26282574845636
 20
29.99433280277049
 42
-0.1990202627215434
 10
41.27697375392229
 20
29.98846906611467
 10
41.33827448109159
 20
29.92711742021356
 42
0.1990202627215654
 10
41.41255150978774
 20
29.8963328027705
 10
41.44260693903632
 20
29.8963328027705
 42
-0.4142135623730951
 10
41.51260693903632
 20
29.8263328027705
 10
41.51260693903632
 20
29.82483280277049
 42
-0.2679491924311376
 10
41.50260693903632
 20
29.8075122946948
 10
41.50260693903632
 20
29.65283280277049
 10
41.51260693903632
 20
29.64283280277049
 10
41.50260693903632
 20
29.63283280277049
 10
41.50260693903632
 20
29.47083280277049
 42
-0.2459617249876099
 10
41.51260693903632
 20
29.45083280277049
 10
41.51260693903632
 20
29.33683280277049
 42
-0.4142135623730951
 10
41.49260693903633
 20
29.31683280277049
 10
41.3929525030684
 20
29.31683280277049
 42
0.4120800626175069
 10
41.37295303446535
 20
29.2969785957675
 42
-0.518385743038754
 10
41.3461052950926
 20
29.27833340189664
 10
41.23360693903633
 20
29.31933280277049
 42
1.003724381894507
 10
41.20960693903632
 20
29.25383280277049
 10
41.42660693903632
 20
29.17483280277049
 10
41.42660693903632
 20
29.23683280277049
 10
41.51260693903632
 20
29.23683280277049
 10
41.51260693903632
 20
29.06683280277049
 10
41.59260693903632
 20
29.06683280277049
 10
41.59260693903632
 20
29.96930249974019
 10
41.49010693903632
 20
30.00533280277049
 10
41.49010693903632
 20
29.9763328027705
 10
41.41840693903632
 20
29.9763328027705
 42
-0.1989123673796526
 10
41.40072926950666
 20
29.98365513324083
 10
41.33410693903632
 20
30.0503328027705
 10
41.33410693903632
 20
30.0922828027705
 42
-0.3541185725306792
 10
41.34994870521996
 20
30.11184575478517
 10
41.45210693903631
 20
30.1342828027705
 10
41.49010693903632
 20
30.1342828027705
 10
41.49010693903632
 20
30.1052828027705
 10
41.50210693903632
 20
30.1052828027705
 42
0.4142135623730951
 10
41.52210693903632
 20
30.1252828027705
 10
41.52210693903632
 20
30.1542828027705
 42
0.4142135623730951
 10
41.50210693903632
 20
30.1742828027705
 10
41.30011193903632
 20
30.1742828027705
 42
0.4142135623730951
 10
41.26210693903632
 20
30.1362778027705
 10
41.28410693903632
 20
30.1362778027705
 10
41.28410693903632
 20
30.09433280277049
 42
-0.4142135623731471
 10
41.26410693903632
 20
30.07433280277049
 10
41.19260693903631
 20
30.07433280277049
 42
-0.4142135623730716
 10
41.09260693903632
 20
30.1743328027705
 10
41.09260693903632
 20
31.54933280277049
 42
-0.414213562373069
 10
41.19260693903632
 20
31.6493328027705
 10
41.26410693903632
 20
31.6493328027705
 42
-0.4142135623731081
 10
41.28410693903632
 20
31.6293328027705
 10
41.28410693903632
 20
31.58738780277049
 10
41.26210693903632
 20
31.58738780277049
 42
0.4142135623730951
 10
41.30011193903632
 20
31.54938280277049
 10
41.50210693903632
 20
31.54938280277049
 42
0.4142135623730951
 10
41.52210693903632
 20
31.56938280277049
 10
41.52210693903632
 20
31.59838280277049
 42
0.4142135623730951
 10
41.50210693903632
 20
31.61838280277049
 10
41.49010693903632
 20
31.61838280277049
  0
LINE
  5
652C
330
17
100
AcDbEntity
  8
R-SWTS-DET3
100
AcDbLine
 10
39.96760693903635
 20
29.15154597566702
 30
0.0
 11
37.59260693903634
 21
29.15154597566702
 31
0.0
  0
LINE
  5
652D
330
17
100
AcDbEntity
  8
R-SWTS-DET3
100
AcDbLine
 10
39.96760693903635
 20
29.40154597566702
 30
0.0
 11
37.59260693903634
 21
29.40154597566702
 31
0.0
  0
LINE
  5
652E
330
17
100
AcDbEntity
  8
R-SWTS-DET3
100
AcDbLine
 10
39.96760693903635
 20
29.90154597566702
 30
0.0
 11
37.59260693903634
 21
29.90154597566702
 31
0.0
  0
LINE
  5
652F
330
17
100
AcDbEntity
  8
R-SWTS-DET3
100
AcDbLine
 10
39.96760693903635
 20
30.15154597566702
 30
0.0
 11
37.59260693903634
 21
30.15154597566702
 31
0.0
  0
LINE
  5
6530
330
17
100
AcDbEntity
  8
R-SWTS-DET2
100
AcDbLine
 10
39.59260693903635
 20
28.63424226121218
 30
0.0
 11
37.59260693903634
 21
28.63424226121218
 31
0.0
  0
LINE
  5
6531
330
17
100
AcDbEntity
  8
R-SWTS-DET2
100
AcDbLine
 10
39.59260693903635
 20
30.66884969012186
 30
0.0
 11
37.59260693903634
 21
30.66884969012186
 31
0.0
  0
LINE
  5
6532
330
17
100
AcDbEntity
  8
R-SWTS-DET3
100
AcDbLine
 10
39.96760693903635
 20
29.15154597566702
 30
0.0
 11
39.96760693903635
 21
30.15154597566702
 31
0.0
  0
LINE
  5
6533
330
17
100
AcDbEntity
  8
R-SWTS-DET3
100
AcDbLine
 10
39.71760693903635
 20
29.40154597566702
 30
0.0
 11
39.71760693903635
 21
29.90154597566702
 31
0.0
  0
LINE
  5
6534
330
17
100
AcDbEntity
  8
R-SWTS-DET3
100
AcDbLine
 10
41.21760693903634
 20
30.36182441530535
 30
0.0
 11
43.59260693903634
 21
30.36182441530535
 31
0.0
  0
LINE
  5
6535
330
17
100
AcDbEntity
  8
R-SWTS-DET3
100
AcDbLine
 10
41.21760693903634
 20
30.61182441530535
 30
0.0
 11
43.59260693903634
 21
30.61182441530535
 31
0.0
  0
LINE
  5
6536
330
17
100
AcDbEntity
  8
R-SWTS-DET3
100
AcDbLine
 10
41.21760693903634
 20
31.11182441530535
 30
0.0
 11
43.59260693903634
 21
31.11182441530535
 31
0.0
  0
LINE
  5
6537
330
17
100
AcDbEntity
  8
R-SWTS-DET3
100
AcDbLine
 10
41.21760693903634
 20
31.36182441530535
 30
0.0
 11
43.59260693903634
 21
31.36182441530535
 31
0.0
  0
LINE
  5
6538
330
17
100
AcDbEntity
  8
R-SWTS-DET2
100
AcDbLine
 10
41.59260693903634
 20
29.84452070085051
 30
0.0
 11
43.59260693903634
 21
29.84452070085051
 31
0.0
  0
LINE
  5
6539
330
17
100
AcDbEntity
  8
R-SWTS-DET2
100
AcDbLine
 10
41.59260693903634
 20
31.8791281297602
 30
0.0
 11
43.59260693903634
 21
31.8791281297602
 31
0.0
  0
LINE
  5
653A
330
17
100
AcDbEntity
  8
R-SWTS-DET3
100
AcDbLine
 10
41.21760693903634
 20
30.36182441530535
 30
0.0
 11
41.21760693903634
 21
31.36182441530535
 31
0.0
  0
LINE
  5
653B
330
17
100
AcDbEntity
  8
R-SWTS-DET3
100
AcDbLine
 10
41.46760693903634
 20
30.61182441530535
 30
0.0
 11
41.46760693903634
 21
31.11182441530535
 31
0.0
  0
LWPOLYLINE
  5
653C
330
17
100
AcDbEntity
  8
R-SWTS-DET2
100
AcDbPolyline
 90
       31
 70
     1
 43
0.0
 10
41.47860491087189
 20
29.98833581945156
 10
41.48347921146986
 20
30.01515234599049
 10
41.5907138091516
 20
29.98102222186936
 10
41.59558810803029
 20
29.92007557120929
 10
41.59260693903634
 20
29.84452070085051
 10
41.62361648165759
 20
29.85461124240883
 42
0.1257100272134179
 10
41.67535880925123
 20
30.08660264443088
 42
-0.2260837189018228
 10
41.72507666789534
 20
30.24018820486249
 10
41.83601728605569
 20
30.33574351452218
 42
0.6449762263124317
 10
41.82427594358203
 20
30.36167780654036
 10
41.69503900795264
 20
30.36009806951231
 42
0.1518691569180708
 10
41.65060385360338
 20
30.34374529291598
 10
41.59067807433491
 20
30.30524210462073
 42
-0.0293454671788447
 10
41.53879543114229
 20
30.28784721541783
 10
41.41700142130524
 20
30.2706169258343
 42
-0.6538117075652882
 10
41.41001468433987
 20
30.29085773673716
 10
41.5752636018298
 20
30.33494948395949
 42
0.8886355728344963
 10
41.57320217093041
 20
30.36009806951231
 10
41.43895655053775
 20
30.36009806951231
 42
0.0642046489364144
 10
41.25034029383047
 20
30.31766560760289
 42
0.6896355001773956
 10
41.25034029383047
 20
30.21505687721477
 42
0.0703560868358924
 10
41.43895655053775
 20
30.17382441530535
 10
41.53465936087139
 20
30.17382441530535
 10
41.53465936087139
 20
30.10047765732876
 10
41.48104206117087
 20
30.0785368625113
 10
41.47616776229218
 20
30.11754272042477
 10
41.43961051296527
 20
30.08341259423275
 10
41.41767616371298
 20
30.11510485456403
 10
41.36405886573174
 20
30.05415820183309
 10
41.42986191348862
 20
29.99808728289448
 10
41.43961051296527
 20
30.02246594357269
  0
LWPOLYLINE
  5
653D
330
17
100
AcDbEntity
  8
R-SWTS-DET2
100
AcDbPolyline
 90
       31
 70
     1
 43
0.0
 10
41.47860491087189
 20
31.73531301115914
 10
41.48347921146985
 20
31.70849648462021
 10
41.5907138091516
 20
31.74262660874135
 10
41.59558810803029
 20
31.80357325940141
 10
41.59260693903634
 20
31.8791281297602
 10
41.62361648165759
 20
31.86903758820188
 42
-0.1257100272134179
 10
41.67535880925123
 20
31.63704618617982
 42
0.2260837189018228
 10
41.72507666789534
 20
31.48346062574821
 10
41.83601728605569
 20
31.38790531608852
 42
-0.6449762263124317
 10
41.82427594358203
 20
31.36197102407034
 10
41.69503900795264
 20
31.36355076109839
 42
-0.1518691569180708
 10
41.65060385360338
 20
31.37990353769472
 10
41.59067807433491
 20
31.41840672598997
 42
0.0293454671788447
 10
41.53879543114229
 20
31.43580161519287
 10
41.41700142130524
 20
31.4530319047764
 42
0.6538117075652882
 10
41.41001468433987
 20
31.43279109387354
 10
41.5752636018298
 20
31.38869934665121
 42
-0.8886355728344963
 10
41.57320217093041
 20
31.36355076109839
 10
41.43895655053775
 20
31.36355076109839
 42
-0.0642046489364144
 10
41.25034029383047
 20
31.40598322300782
 42
-0.6896355001773956
 10
41.25034029383047
 20
31.50859195339592
 42
-0.0703560868358924
 10
41.43895655053775
 20
31.54982441530535
 10
41.53465936087139
 20
31.54982441530535
 10
41.53465936087139
 20
31.62317117328194
 10
41.48104206117087
 20
31.64511196809941
 10
41.47616776229218
 20
31.60610611018593
 10
41.43961051296527
 20
31.64023623637794
 10
41.41767616371298
 20
31.60854397604666
 10
41.36405886573174
 20
31.66949062877761
 10
41.42986191348862
 20
31.72556154771621
 10
41.43961051296527
 20
31.70118288703801
  0
LWPOLYLINE
  5
653E
330
17
100
AcDbEntity
  8
R-SWTS-DET2
100
AcDbPolyline
 90
       31
 70
     1
 43
0.0
 10
39.7066089672008
 20
28.77805737981323
 10
39.70173466660283
 20
28.80487390635216
 10
39.59450006892108
 20
28.77074378223103
 10
39.58962577004239
 20
28.70979713157096
 10
39.59260693903635
 20
28.63424226121218
 10
39.5615973964151
 20
28.64433280277049
 42
-0.1257100272134179
 10
39.50985506882145
 20
28.87632420479255
 42
0.2260837189018228
 10
39.46013721017735
 20
29.02990976522416
 10
39.349196592017
 20
29.12546507488385
 42
-0.6449762263124317
 10
39.36093793449066
 20
29.15139936690204
 10
39.49017487012005
 20
29.14981962987398
 42
-0.1518691569180708
 10
39.5346100244693
 20
29.13346685327765
 10
39.59453580373778
 20
29.0949636649824
 42
0.0293454671788447
 10
39.6464184469304
 20
29.0775687757795
 10
39.76821245676744
 20
29.06033848619598
 42
0.6538117075652882
 10
39.77519919373281
 20
29.08057929709883
 10
39.60995027624289
 20
29.12467104432116
 42
-0.8886355728344963
 10
39.61201170714227
 20
29.14981962987398
 10
39.74625732753493
 20
29.14981962987398
 42
-0.0642046489364144
 10
39.93487358424221
 20
29.10738716796455
 42
-0.6896355001773956
 10
39.93487358424222
 20
29.00477843757645
 42
-0.0703560868358924
 10
39.74625732753493
 20
28.96354597566702
 10
39.6505545172013
 20
28.96354597566702
 10
39.6505545172013
 20
28.89019921769043
 10
39.70417181690181
 20
28.86825842287296
 10
39.7090461157805
 20
28.90726428078644
 10
39.74560336510741
 20
28.87313415459443
 10
39.76753771435971
 20
28.90482641492571
 10
39.82115501234094
 20
28.84387976219476
 10
39.75535196458407
 20
28.78780884325615
 10
39.74560336510741
 20
28.81218750393436
  0
LWPOLYLINE
  5
653F
330
17
100
AcDbEntity
  8
R-SWTS-DET2
100
AcDbPolyline
 90
       31
 70
     1
 43
0.0
 10
39.7066089672008
 20
30.52503457152081
 10
39.70173466660283
 20
30.49821804498188
 10
39.59450006892108
 20
30.53234816910301
 10
39.58962577004239
 20
30.59329481976308
 10
39.59260693903635
 20
30.66884969012186
 10
39.5615973964151
 20
30.65875914856354
 42
0.1257100272134179
 10
39.50985506882145
 20
30.42676774654149
 42
-0.2260837189018228
 10
39.46013721017735
 20
30.27318218610988
 10
39.349196592017
 20
30.17762687645019
 42
0.6449762263124317
 10
39.36093793449066
 20
30.15169258443201
 10
39.49017487012005
 20
30.15327232146006
 42
0.1518691569180708
 10
39.5346100244693
 20
30.16962509805639
 10
39.59453580373778
 20
30.20812828635164
 42
-0.0293454671788447
 10
39.6464184469304
 20
30.22552317555454
 10
39.76821245676744
 20
30.24275346513807
 42
-0.6538117075652882
 10
39.77519919373281
 20
30.22251265423521
 10
39.60995027624289
 20
30.17842090701288
 42
0.8886355728344963
 10
39.61201170714227
 20
30.15327232146006
 10
39.74625732753493
 20
30.15327232146006
 42
0.0642046489364144
 10
39.93487358424222
 20
30.19570478336949
 42
0.6896355001773956
 10
39.93487358424222
 20
30.29831351375759
 42
0.0703560868358924
 10
39.74625732753493
 20
30.33954597566702
 10
39.6505545172013
 20
30.33954597566702
 10
39.6505545172013
 20
30.41289273364361
 10
39.70417181690181
 20
30.43483352846108
 10
39.7090461157805
 20
30.3958276705476
 10
39.74560336510741
 20
30.42995779673961
 10
39.76753771435971
 20
30.39826553640833
 10
39.82115501234094
 20
30.45921218913928
 10
39.75535196458407
 20
30.51528310807789
 10
39.74560336510741
 20
30.49090444739968
  0
LINE
  5
6540
330
17
100
AcDbEntity
  8
R-ANNO-DIMS
100
AcDbLine
 10
39.59260693903635
 20
28.23810436313216
 30
0.0
 11
39.59260693903635
 21
26.69040421480449
 31
0.0
  0
LINE
  5
6541
330
17
100
AcDbEntity
  8
R-ANNO-DIMS
100
AcDbLine
 10
39.34260693903635
 20
26.87040421480449
 30
0.0
 11
37.84259693903634
 21
26.87040421480449
 31
0.0
  0
SOLID
  5
6542
330
17
100
AcDbEntity
  8
R-ANNO-DIMS
100
AcDbTrace
 10
39.34260693903635
 20
26.91207088147116
 30
0.0
 11
39.34260693903635
 21
26.82873754813782
 31
0.0
 12
39.59260693903635
 22
26.87040421480449
 32
0.0
 13
39.59260693903635
 23
26.87040421480449
 33
0.0
  0
SOLID
  5
6543
330
17
100
AcDbEntity
  8
R-ANNO-DIMS
100
AcDbTrace
 10
37.84259693903634
 20
26.91207088147116
 30
0.0
 11
37.84259693903634
 21
26.82873754813782
 31
0.0
 12
37.59259693903633
 22
26.87040421480449
 32
0.0
 13
37.59259693903633
 23
26.87040421480449
 33
0.0
  0
MTEXT
  5
6544
330
17
100
AcDbEntity
  8
R-ANNO-DIMS
100
AcDbMText
 10
38.59260193903634
 20
27.09540421480449
 30
0.0
 40
0.25
 41
0.0
 71
     5
 72
     1
  1
\A1;DLO
 73
     1
 44
1.0
1001
ACAD
1000
MTEXTBEGIN
1070
    73
1070
     1
1070
    44
1040
1.0
1070
    74
1070
     0
1000
MTEXTEND
  0
LINE
  5
6545
330
17
100
AcDbEntity
  8
R-ANNO-DIMS
  6
Continuous
100
AcDbLine
 10
39.59260693903633
 20
28.24540421480449
 30
0.0
 11
39.59260693903633
 21
26.69040421480449
 31
0.0
  0
LINE
  5
6546
330
17
100
AcDbEntity
  8
R-ANNO-DIMS
  6
Continuous
100
AcDbLine
 10
41.59260693903633
 20
28.24540421480449
 30
0.0
 11
41.59260693903633
 21
26.69040421480449
 31
0.0
  0
LINE
  5
6547
330
17
100
AcDbEntity
  8
R-ANNO-DIMS
  6
Continuous
100
AcDbLine
 10
39.84260693903633
 20
26.87040421480449
 30
0.0
 11
41.34260693903633
 21
26.87040421480449
 31
0.0
  0
SOLID
  5
6548
330
17
100
AcDbEntity
  8
R-ANNO-DIMS
  6
Continuous
100
AcDbTrace
 10
39.84260693903633
 20
26.91207088147116
 30
0.0
 11
39.84260693903633
 21
26.82873754813782
 31
0.0
 12
39.59260693903633
 22
26.87040421480449
 32
0.0
 13
39.59260693903633
 23
26.87040421480449
 33
0.0
  0
SOLID
  5
6549
330
17
100
AcDbEntity
  8
R-ANNO-DIMS
  6
Continuous
100
AcDbTrace
 10
41.34260693903633
 20
26.91207088147116
 30
0.0
 11
41.34260693903633
 21
26.82873754813782
 31
0.0
 12
41.59260693903633
 22
26.87040421480449
 32
0.0
 13
41.59260693903633
 23
26.87040421480449
 33
0.0
  0
MTEXT
  5
654A
330
17
100
AcDbEntity
  8
R-ANNO-DIMS
  6
Continuous
100
AcDbMText
 10
40.59260693903633
 20
27.09540421480449
 30
0.0
 40
0.25
 41
0.0
 71
     5
 72
     1
  1
\A1;2"
 73
     1
 44
1.0
1001
ACAD
1000
MTEXTBEGIN
1070
    73
1070
     1
1070
    44
1040
1.0
1070
    74
1070
     0
1000
MTEXTEND
  0
LINE
  5
654B
330
17
100
AcDbEntity
  8
R-ANNO-DIMS
  6
Continuous
100
AcDbLine
 10
41.59260693903633
 20
28.24540421480449
 30
0.0
 11
41.59260693903633
 21
26.69040421480449
 31
0.0
  0
LINE
  5
654C
330
17
100
AcDbEntity
  8
R-ANNO-DIMS
  6
Continuous
100
AcDbLine
 10
41.84260693903634
 20
26.87040421480449
 30
0.0
 11
43.34261693903633
 21
26.87040421480449
 31
0.0
  0
SOLID
  5
654D
330
17
100
AcDbEntity
  8
R-ANNO-DIMS
  6
Continuous
100
AcDbTrace
 10
41.84260693903634
 20
26.91207088147116
 30
0.0
 11
41.84260693903634
 21
26.82873754813782
 31
0.0
 12
41.59260693903633
 22
26.87040421480449
 32
0.0
 13
41.59260693903633
 23
26.87040421480449
 33
0.0
  0
SOLID
  5
654E
330
17
100
AcDbEntity
  8
R-ANNO-DIMS
  6
Continuous
100
AcDbTrace
 10
43.34261693903633
 20
26.91207088147116
 30
0.0
 11
43.34261693903633
 21
26.82873754813782
 31
0.0
 12
43.59261693903633
 22
26.87040421480449
 32
0.0
 13
43.59261693903633
 23
26.87040421480449
 33
0.0
  0
MTEXT
  5
654F
330
17
100
AcDbEntity
  8
R-ANNO-DIMS
  6
Continuous
100
AcDbMText
 10
42.59261193903633
 20
27.09540421480449
 30
0.0
 40
0.25
 41
0.0
 71
     5
 72
     1
  1
\A1;DLO
 73
     1
 44
1.0
1001
ACAD
1000
MTEXTBEGIN
1070
    73
1070
     1
1070
    44
1040
1.0
1070
    74
1070
     0
1000
MTEXTEND
  0
MTEXT
  5
666D
102
{ACAD_XDICTIONARY
360
666E
102
}
330
17
100
AcDbEntity
  8
TEXT
100
AcDbMText
 10
1.000000084398437
 20
2.0
 30
0.0
 40
0.375
 41
15.4571868900598
 71
     1
 72
     5
  1
ENGINEERING CHANGE:  97910-095 (MARCH 2017)\PFILE NAME:  KCDC042E SHEET 01 OF 02.DWG
 73
     1
 44
1.0
1001
ACAD
1000
ACAD_MTEXT_COLUMN_INFO_BEGIN
1070
    75
1070
     2
1070
    79
1070
     0
1070
    76
1070
     1
1070
    78
1070
     0
1070
    48
1040
15.4571868900598
1070
    49
1040
1.25
1070
    50
1070
     1
1040
0.0
1000
ACAD_MTEXT_COLUMN_INFO_END
1000
MTEXTBEGIN
1070
    73
1070
     1
1070
    44
1040
1.0
1070
    74
1070
     0
1000
MTEXTEND
  0
INSERT
  5
6C9C
330
17
100
AcDbEntity
  8
0
100
AcDbBlockReference
  2
Kawneer Logo English
 10
1.0
 20
2.5
 30
0.0
 41
5.337
 42
5.337
 43
5.337
  0
ENDSEC
  0
SECTION
  2
OBJECTS
  0
DICTIONARY
  5
C
330
0
100
AcDbDictionary
281
     1
  3
ACAD_CIP_PREVIOUS_PRODUCT_INFO
350
6647
  3
ACAD_COLOR
350
65AD
  3
ACAD_FIELDLIST
350
666B
  3
ACAD_GROUP
350
D
  3
ACAD_LAYOUT
350
485C
  3
ACAD_MATERIAL
350
657B
  3
ACAD_MLEADERSTYLE
350
65C2
  3
ACAD_MLINESTYLE
350
1A
  3
ACAD_PLOTSETTINGS
350
485D
  3
ACAD_PLOTSTYLENAME
350
485A
  3
ACAD_SCALELIST
350
65B0
  3
ACAD_TABLESTYLE
350
65AE
  3
ACAD_VISUALSTYLE
350
6594
  3
ACDB_RECOMPOSE_DATA
350
6CF9
  3
ACDBVARIABLEDICTIONARY
350
3E
  3
DWGPROPS
350
6CFA
  0
DICTIONARY
  5
6602
330
8
100
AcDbDictionary
280
     1
281
     1
  0
DICTIONARY
  5
65E1
330
2
100
AcDbDictionary
280
     1
281
     1
  3
ACAD_LAYERSTATES
360
65E2
  0
DICTIONARY
  5
65F1
330
E
100
AcDbDictionary
280
     1
281
     1
  3
ADSK_XREC_LAYER_RECONCILED
360
65F2
  0
DICTIONARY
  5
65F3
330
6019
100
AcDbDictionary
280
     1
281
     1
  3
ADSK_XREC_LAYER_RECONCILED
360
65F4
  0
DICTIONARY
  5
65F5
330
601A
100
AcDbDictionary
280
     1
281
     1
  3
ADSK_XREC_LAYER_RECONCILED
360
65F6
  0
DICTIONARY
  5
65F7
330
601B
100
AcDbDictionary
280
     1
281
     1
  3
ADSK_XREC_LAYER_RECONCILED
360
65F8
  0
DICTIONARY
  5
65F9
330
601C
100
AcDbDictionary
280
     1
281
     1
  3
ADSK_XREC_LAYER_RECONCILED
360
65FA
  0
DICTIONARY
  5
65FB
330
601D
100
AcDbDictionary
280
     1
281
     1
  3
ADSK_XREC_LAYER_RECONCILED
360
65FC
  0
DICTIONARY
  5
665C
330
665B
100
AcDbDictionary
280
     1
281
     1
  0
DICTIONARY
  5
4A11
330
17
100
AcDbDictionary
280
     1
281
     1
  3
ACAD_LAYOUTSELFREF
360
6577
  0
DICTIONARY
  5
4A0F
330
14
100
AcDbDictionary
280
     1
281
     1
  3
ACAD_LAYOUTSELFREF
360
6576
  0
DICTIONARY
  5
6C98
330
6C8E
100
AcDbDictionary
280
     1
281
     1
  3
ACAD_SORTENTS
360
6C99
  0
DICTIONARY
  5
6CF7
330
6C8F
100
AcDbDictionary
280
     1
281
     1
  3
ACAD_MTEXT_2008_RT
360
6CF8
  0
DICTIONARY
  5
666E
330
666D
100
AcDbDictionary
280
     1
281
     1
  0
XRECORD
  5
6647
102
{ACAD_REACTORS
330
C
102
}
330
C
100
AcDbXrecord
280
     1
300
ACD
300
2012
300
85730ACD_2012_0F
  0
DICTIONARY
  5
65AD
102
{ACAD_REACTORS
330
C
102
}
330
C
100
AcDbDictionary
281
     1
  0
FIELDLIST
  5
666B
102
{ACAD_REACTORS
330
C
102
}
330
C
100
AcDbIdSet
 90
        0
100
AcDbFieldList
  0
DICTIONARY
  5
D
102
{ACAD_REACTORS
330
C
102
}
330
C
100
AcDbDictionary
281
     1
  0
DICTIONARY
  5
485C
102
{ACAD_REACTORS
330
C
102
}
330
C
100
AcDbDictionary
281
     1
  3
Layout1
350
485F
  3
Model
350
485E
  0
DICTIONARY
  5
657B
102
{ACAD_REACTORS
330
C
102
}
330
C
100
AcDbDictionary
281
     1
  3
ByBlock
350
6584
  3
ByLayer
350
657C
  3
Global
350
658C
  0
DICTIONARY
  5
65C2
102
{ACAD_REACTORS
330
C
102
}
330
C
100
AcDbDictionary
281
     1
  3
Standard
350
65C3
  0
DICTIONARY
  5
1A
102
{ACAD_REACTORS
330
C
102
}
330
C
100
AcDbDictionary
281
     1
  3
STANDARD
350
1B
  0
DICTIONARY
  5
485D
102
{ACAD_REACTORS
330
C
102
}
330
C
100
AcDbDictionary
281
     1
  0
ACDBDICTIONARYWDFLT
  5
485A
102
{ACAD_REACTORS
330
C
102
}
330
C
100
AcDbDictionary
281
     1
  3
Normal
350
485B
100
AcDbDictionaryWithDefault
340
485B
  0
DICTIONARY
  5
65B0
102
{ACAD_REACTORS
330
C
102
}
330
C
100
AcDbDictionary
281
     1
  3
A0
350
65B1
  3
A1
350
6C6C
  3
A2
350
6C6D
  3
A3
350
6C6E
  3
A4
350
6C6F
  3
A5
350
6C70
  3
A6
350
6C71
  3
A7
350
6C72
  3
A8
350
6C73
  3
A9
350
6C74
  3
B0
350
6C75
  3
B1
350
6C76
  3
B2
350
6C77
  3
B3
350
6C78
  3
B4
350
6C79
  3
B5
350
6C7A
  3
B6
350
6C7B
  0
DICTIONARY
  5
65AE
102
{ACAD_REACTORS
330
C
102
}
330
C
100
AcDbDictionary
281
     1
  3
Standard
350
65AF
  0
DICTIONARY
  5
6594
102
{ACAD_REACTORS
330
C
102
}
330
C
100
AcDbDictionary
281
     1
  3
2dWireframe
350
659A
  3
3D Hidden
350
6C8C
  3
3dWireframe
350
6C8D
  3
Basic
350
6599
  3
Brighten
350
65A0
  3
ColorChange
350
65A4
  3
Conceptual
350
659D
  3
Dim
350
659F
  3
EdgeColorOff
350
65AC
  3
Facepattern
350
65A3
  3
Flat
350
6595
  3
FlatWithEdges
350
6596
  3
Gouraud
350
6597
  3
GouraudWithEdges
350
6598
  3
Hidden
350
659C
  3
JitterOff
350
65AA
  3
Linepattern
350
65A2
  3
OverhangOff
350
65AB
  3
Realistic
350
659E
  3
Shaded
350
65A9
  3
Shaded with edges
350
65A8
  3
Shades of Gray
350
65A5
  3
Sketchy
350
65A6
  3
Thicken
350
65A1
  3
Wireframe
350
659B
  3
X-Ray
350
65A7
  0
XRECORD
  5
6CF9
102
{ACAD_REACTORS
330
C
102
}
330
C
100
AcDbXrecord
280
     1
 90
        1
330
65AF
330
666D
330
6C8F
  0
DICTIONARY
  5
3E
102
{ACAD_REACTORS
330
C
102
}
330
C
100
AcDbDictionary
281
     1
  3
CANNOSCALE
350
663F
  3
CMLEADERSTYLE
350
663E
  3
CTABLESTYLE
350
663D
  3
DIMADEC
350
3F
  3
DIMASSOC
350
6642
  3
INDEXCTL
350
6641
  3
LAYEREVAL
350
6CE9
  3
LAYERNOTIFY
350
6CEA
  3
LIGHTINGUNITS
350
6CE8
  3
MSLTSCALE
350
6CE7
  3
SORTENTS
350
6640
  3
XCLIPFRAME
350
6CF5
  0
XRECORD
  5
6CFA
102
{ACAD_REACTORS
330
C
102
}
330
C
100
AcDbXrecord
280
     1
  1
DWGPROPS COOKIE
  2

  3

  4

  6

  7

  8
quadiss
  9

300
=
301
=
302
=
303
=
304
=
305
=
306
=
307
=
308
=
309
=
 40
0.5420415972222222
 41
2450777.537570949
 42
2457809.45405471
  1

 90
        0
  0
DICTIONARY
  5
65E2
102
{ACAD_REACTORS
330
65E1
102
}
330
65E1
100
AcDbDictionary
281
     1
  0
XRECORD
  5
65F2
102
{ACAD_REACTORS
330
65F1
102
}
330
65F1
100
AcDbXrecord
280
     1
290
     1
  0
XRECORD
  5
65F4
102
{ACAD_REACTORS
330
65F3
102
}
330
65F3
100
AcDbXrecord
280
     1
290
     1
  0
XRECORD
  5
65F6
102
{ACAD_REACTORS
330
65F5
102
}
330
65F5
100
AcDbXrecord
280
     1
290
     1
  0
XRECORD
  5
65F8
102
{ACAD_REACTORS
330
65F7
102
}
330
65F7
100
AcDbXrecord
280
     1
290
     1
  0
XRECORD
  5
65FA
102
{ACAD_REACTORS
330
65F9
102
}
330
65F9
100
AcDbXrecord
280
     1
290
     1
  0
XRECORD
  5
65FC
102
{ACAD_REACTORS
330
65FB
102
}
330
65FB
100
AcDbXrecord
280
     1
290
     1
  0
XRECORD
  5
6577
102
{ACAD_REACTORS
330
4A11
102
}
330
4A11
100
AcDbXrecord
280
     1
340
17
  0
XRECORD
  5
6576
102
{ACAD_REACTORS
330
4A0F
102
}
330
4A0F
100
AcDbXrecord
280
     1
340
14
  0
SORTENTSTABLE
  5
6C99
102
{ACAD_REACTORS
330
6C98
102
}
330
6C98
100
AcDbSortentsTable
330
6C8E
  0
XRECORD
  5
6CF8
102
{ACAD_REACTORS
330
6CF7
102
}
330
6CF7
100
AcDbXrecord
280
     1
 40
102645.0
  1
\pxqr;{\fArial TUR|b0|i0|c0|p34;\T1.05;AN ARCONIC COMPANY}
  0
LAYOUT
  5
485F
102
{ACAD_XDICTIONARY
360
6CFD
102
}
102
{ACAD_REACTORS
330
485C
102
}
330
485C
100
AcDbPlotSettings
  1

  2
\\NOAKCI-SRV7\Marketing Communications - HP4550hdn
  4

  6

 40
0.0
 41
0.0
 42
0.0
 43
0.0
 44
0.0
 45
0.0
 46
0.0
 47
0.0
 48
0.0
 49
0.0
140
0.0
141
0.0
142
1.0
143
1.0
 70
   688
 72
     0
 73
     0
 74
     5
  7
monochrome.ctb
 75
    16
147
1.0
148
0.0
149
0.0
100
AcDbLayout
  1
Layout1
 70
     1
 71
     1
 10
0.0
 20
0.0
 11
12.0
 21
9.0
 12
0.0
 22
0.0
 32
0.0
 14
1.000000000000000E+20
 24
1.000000000000000E+20
 34
1.000000000000000E+20
 15
-1.000000000000000E+20
 25
-1.000000000000000E+20
 35
-1.000000000000000E+20
146
0.0
 13
0.0
 23
0.0
 33
0.0
 16
1.0
 26
0.0
 36
0.0
 17
0.0
 27
1.0
 37
0.0
 76
     0
330
14
  0
LAYOUT
  5
485E
102
{ACAD_XDICTIONARY
360
6CFB
102
}
102
{ACAD_REACTORS
330
485C
102
}
330
485C
100
AcDbPlotSettings
  1

  2
\\noakci-hub01\KCI_MKT_HP9000_PCL6
  4
11x17
  6

 40
3.174999952316284
 41
3.174999952316284
 42
3.17498779296875
 43
3.17498779296875
 44
279.3999938964844
 45
431.8000183105469
 46
0.0
 47
0.0
 48
0.0
 49
0.0
140
0.0
141
0.0
142
1.0
143
3.390426794445869
 70
 11952
 72
     0
 73
     1
 74
     1
  7
monochrome.ctb
 75
     0
147
0.2949481173397344
148
0.0873889752816979
149
0.0600747600600443
100
AcDbLayout
  1
Model
 70
     1
 71
     0
 10
0.0
 20
0.0
 11
12.0
 21
9.0
 12
0.0
 22
0.0
 32
0.0
 14
0.0
 24
0.0
 34
0.0
 15
0.0
 25
0.0
 35
0.0
146
0.0
 13
0.0
 23
0.0
 33
0.0
 16
1.0
 26
0.0
 36
0.0
 17
0.0
 27
1.0
 37
0.0
 76
     0
330
17
331
6550
  0
MATERIAL
  5
6584
102
{ACAD_XDICTIONARY
360
6585
102
}
102
{ACAD_REACTORS
330
657B
102
}
330
657B
100
AcDbMaterial
  1
ByBlock
 72
     0
 43
0.0208333333333333
 43
0.0
 43
0.0
 43
0.0
 43
0.0
 43
0.0208333333333333
 43
0.0
 43
0.0
 43
0.0
 43
0.0
 43
1.0
 43
0.0
 43
0.0
 43
0.0
 43
0.0
 43
1.0
 77
     0
 47
0.0208333333333333
 47
0.0
 47
0.0
 47
0.0
 47
0.0
 47
0.0208333333333333
 47
0.0
 47
0.0
 47
0.0
 47
0.0
 47
1.0
 47
0.0
 47
0.0
 47
0.0
 47
0.0
 47
1.0
171
     0
 49
0.0208333333333333
 49
0.0
 49
0.0
 49
0.0
 49
0.0
 49
0.0208333333333333
 49
0.0
 49
0.0
 49
0.0
 49
0.0
 49
1.0
 49
0.0
 49
0.0
 49
0.0
 49
0.0
 49
1.0
175
     0
142
0.0208333333333333
142
0.0
142
0.0
142
0.0
142
0.0
142
0.0208333333333333
142
0.0
142
0.0
142
0.0
142
0.0
142
1.0
142
0.0
142
0.0
142
0.0
142
0.0
142
1.0
179
     0
144
0.0208333333333333
144
0.0
144
0.0
144
0.0
144
0.0
144
0.0208333333333333
144
0.0
144
0.0
144
0.0
144
0.0
144
1.0
144
0.0
144
0.0
144
0.0
144
0.0
144
1.0
147
0.0208333333333333
147
0.0
147
0.0
147
0.0
147
0.0
147
0.0208333333333333
147
0.0
147
0.0
147
0.0
147
0.0
147
1.0
147
0.0
147
0.0
147
0.0
147
0.0
147
1.0
  0
MATERIAL
  5
657C
102
{ACAD_XDICTIONARY
360
657D
102
}
102
{ACAD_REACTORS
330
657B
102
}
330
657B
100
AcDbMaterial
  1
ByLayer
 72
     0
 43
0.0208333333333333
 43
0.0
 43
0.0
 43
0.0
 43
0.0
 43
0.0208333333333333
 43
0.0
 43
0.0
 43
0.0
 43
0.0
 43
1.0
 43
0.0
 43
0.0
 43
0.0
 43
0.0
 43
1.0
 77
     0
 47
0.0208333333333333
 47
0.0
 47
0.0
 47
0.0
 47
0.0
 47
0.0208333333333333
 47
0.0
 47
0.0
 47
0.0
 47
0.0
 47
1.0
 47
0.0
 47
0.0
 47
0.0
 47
0.0
 47
1.0
171
     0
 49
0.0208333333333333
 49
0.0
 49
0.0
 49
0.0
 49
0.0
 49
0.0208333333333333
 49
0.0
 49
0.0
 49
0.0
 49
0.0
 49
1.0
 49
0.0
 49
0.0
 49
0.0
 49
0.0
 49
1.0
175
     0
142
0.0208333333333333
142
0.0
142
0.0
142
0.0
142
0.0
142
0.0208333333333333
142
0.0
142
0.0
142
0.0
142
0.0
142
1.0
142
0.0
142
0.0
142
0.0
142
0.0
142
1.0
179
     0
144
0.0208333333333333
144
0.0
144
0.0
144
0.0
144
0.0
144
0.0208333333333333
144
0.0
144
0.0
144
0.0
144
0.0
144
1.0
144
0.0
144
0.0
144
0.0
144
0.0
144
1.0
147
0.0208333333333333
147
0.0
147
0.0
147
0.0
147
0.0
147
0.0208333333333333
147
0.0
147
0.0
147
0.0
147
0.0
147
1.0
147
0.0
147
0.0
147
0.0
147
0.0
147
1.0
  0
MATERIAL
  5
658C
102
{ACAD_XDICTIONARY
360
658D
102
}
102
{ACAD_REACTORS
330
657B
102
}
330
657B
100
AcDbMaterial
  1
Global
 72
     0
 43
0.0208333333333333
 43
0.0
 43
0.0
 43
0.0
 43
0.0
 43
0.0208333333333333
 43
0.0
 43
0.0
 43
0.0
 43
0.0
 43
1.0
 43
0.0
 43
0.0
 43
0.0
 43
0.0
 43
1.0
 77
     0
 47
0.0208333333333333
 47
0.0
 47
0.0
 47
0.0
 47
0.0
 47
0.0208333333333333
 47
0.0
 47
0.0
 47
0.0
 47
0.0
 47
1.0
 47
0.0
 47
0.0
 47
0.0
 47
0.0
 47
1.0
171
     0
 49
0.0208333333333333
 49
0.0
 49
0.0
 49
0.0
 49
0.0
 49
0.0208333333333333
 49
0.0
 49
0.0
 49
0.0
 49
0.0
 49
1.0
 49
0.0
 49
0.0
 49
0.0
 49
0.0
 49
1.0
175
     0
142
0.0208333333333333
142
0.0
142
0.0
142
0.0
142
0.0
142
0.0208333333333333
142
0.0
142
0.0
142
0.0
142
0.0
142
1.0
142
0.0
142
0.0
142
0.0
142
0.0
142
1.0
179
     0
144
0.0208333333333333
144
0.0
144
0.0
144
0.0
144
0.0
144
0.0208333333333333
144
0.0
144
0.0
144
0.0
144
0.0
144
1.0
144
0.0
144
0.0
144
0.0
144
0.0
144
1.0
147
0.0208333333333333
147
0.0
147
0.0
147
0.0
147
0.0
147
0.0208333333333333
147
0.0
147
0.0
147
0.0
147
0.0
147
1.0
147
0.0
147
0.0
147
0.0
147
0.0
147
1.0
  0
MLEADERSTYLE
  5
65C3
102
{ACAD_REACTORS
330
65C2
102
}
330
65C2
100
AcDbMLeaderStyle
170
     2
171
     1
172
     0
 90
        2
 40
0.0
 41
0.0
173
     1
 91
-1056964608
340
11
 92
       -2
290
     1
 42
0.09
291
     1
 43
0.36
  3
Standard
 44
0.18
300

342
F
174
     1
178
     6
175
     1
176
     0
 93
-1056964608
 45
0.18
292
     0
297
     0
 46
0.18
 94
-1056964608
 47
1.0
 49
1.0
140
1.0
293
     1
141
0.0
294
     1
177
     0
142
1.0
295
     0
296
     0
143
0.125
1001
ACAD_MLEADERVER
1070
     2
  0
MLINESTYLE
  5
1B
102
{ACAD_REACTORS
330
1A
102
}
330
1A
100
AcDbMlineStyle
  2
STANDARD
 70
     0
  3

 62
   256
 51
90.0
 52
90.0
 71
     2
 49
0.5
 62
   256
  6
BYLAYER
 49
-0.5
 62
   256
  6
BYLAYER
  0
ACDBPLACEHOLDER
  5
485B
102
{ACAD_REACTORS
330
485A
102
}
330
485A
  0
SCALE
  5
65B1
102
{ACAD_REACTORS
330
65B0
102
}
330
65B0
100
AcDbScale
 70
     0
300
1:1
140
1.0
141
1.0
290
     1
  0
SCALE
  5
6C6C
102
{ACAD_REACTORS
330
65B0
102
}
330
65B0
100
AcDbScale
 70
     0
300
1/128" = 1'-0"
140
0.0078125
141
12.0
290
     0
  0
SCALE
  5
6C6D
102
{ACAD_REACTORS
330
65B0
102
}
330
65B0
100
AcDbScale
 70
     0
300
1/64" = 1'-0"
140
0.015625
141
12.0
290
     0
  0
SCALE
  5
6C6E
102
{ACAD_REACTORS
330
65B0
102
}
330
65B0
100
AcDbScale
 70
     0
300
1/32" = 1'-0"
140
0.03125
141
12.0
290
     0
  0
SCALE
  5
6C6F
102
{ACAD_REACTORS
330
65B0
102
}
330
65B0
100
AcDbScale
 70
     0
300
1/16" = 1'-0"
140
0.0625
141
12.0
290
     0
  0
SCALE
  5
6C70
102
{ACAD_REACTORS
330
65B0
102
}
330
65B0
100
AcDbScale
 70
     0
300
3/32" = 1'-0"
140
0.09375
141
12.0
290
     0
  0
SCALE
  5
6C71
102
{ACAD_REACTORS
330
65B0
102
}
330
65B0
100
AcDbScale
 70
     0
300
1/8" = 1'-0"
140
0.125
141
12.0
290
     0
  0
SCALE
  5
6C72
102
{ACAD_REACTORS
330
65B0
102
}
330
65B0
100
AcDbScale
 70
     0
300
3/16" = 1'-0"
140
0.1875
141
12.0
290
     0
  0
SCALE
  5
6C73
102
{ACAD_REACTORS
330
65B0
102
}
330
65B0
100
AcDbScale
 70
     0
300
1/4" = 1'-0"
140
0.25
141
12.0
290
     0
  0
SCALE
  5
6C74
102
{ACAD_REACTORS
330
65B0
102
}
330
65B0
100
AcDbScale
 70
     0
300
3/8" = 1'-0"
140
0.375
141
12.0
290
     0
  0
SCALE
  5
6C75
102
{ACAD_REACTORS
330
65B0
102
}
330
65B0
100
AcDbScale
 70
     0
300
1/2" = 1'-0"
140
0.5
141
12.0
290
     0
  0
SCALE
  5
6C76
102
{ACAD_REACTORS
330
65B0
102
}
330
65B0
100
AcDbScale
 70
     0
300
3/4" = 1'-0"
140
0.75
141
12.0
290
     0
  0
SCALE
  5
6C77
102
{ACAD_REACTORS
330
65B0
102
}
330
65B0
100
AcDbScale
 70
     0
300
1" = 1'-0"
140
1.0
141
12.0
290
     0
  0
SCALE
  5
6C78
102
{ACAD_REACTORS
330
65B0
102
}
330
65B0
100
AcDbScale
 70
     0
300
1-1/2" = 1'-0"
140
1.5
141
12.0
290
     0
  0
SCALE
  5
6C79
102
{ACAD_REACTORS
330
65B0
102
}
330
65B0
100
AcDbScale
 70
     0
300
3" = 1'-0"
140
3.0
141
12.0
290
     0
  0
SCALE
  5
6C7A
102
{ACAD_REACTORS
330
65B0
102
}
330
65B0
100
AcDbScale
 70
     0
300
6" = 1'-0"
140
6.0
141
12.0
290
     0
  0
SCALE
  5
6C7B
102
{ACAD_REACTORS
330
65B0
102
}
330
65B0
100
AcDbScale
 70
     0
300
1'-0" = 1'-0"
140
12.0
141
12.0
290
     0
  0
TABLESTYLE
  5
65AF
102
{ACAD_XDICTIONARY
360
65FE
102
}
102
{ACAD_REACTORS
330
65AE
102
}
330
65AE
100
AcDbTableStyle
  3
Standard
 70
     0
 71
     0
 40
0.06
 41
0.06
280
     0
281
     0
  7
STANDARD
140
0.18
170
     2
 62
     0
 63
     7
283
     0
274
    -2
284
     1
 64
     0
275
    -2
285
     1
 65
     0
276
    -2
286
     1
 66
     0
277
    -2
287
     1
 67
     0
278
    -2
288
     1
 68
     0
279
    -2
289
     1
 69
     0
  7
STANDARD
140
0.25
170
     5
 62
     0
 63
     7
283
     0
274
    -2
284
     1
 64
     0
275
    -2
285
     1
 65
     0
276
    -2
286
     1
 66
     0
277
    -2
287
     1
 67
     0
278
    -2
288
     1
 68
     0
279
    -2
289
     1
 69
     0
  7
STANDARD
140
0.18
170
     5
 62
     0
 63
     7
283
     0
274
    -2
284
     1
 64
     0
275
    -2
285
     1
 65
     0
276
    -2
286
     1
 66
     0
277
    -2
287
     1
 67
     0
278
    -2
288
     1
 68
     0
279
    -2
289
     1
 69
     0
  0
VISUALSTYLE
  5
659A
102
{ACAD_XDICTIONARY
360
6D0C
102
}
102
{ACAD_REACTORS
330
6594
102
}
330
6594
100
AcDbVisualStyle
  2
2dWireframe
 70
     4
 71
     0
 72
     2
 73
     0
 90
        0
 40
-0.6
 41
-30.0
 62
     5
 63
     7
 74
     1
 91
        4
 64
     7
 65
   257
 75
     1
175
     1
 42
1.0
 92
        0
 66
   257
 43
1.0
 76
     1
 77
     6
 78
     2
 67
     7
 79
     5
170
     0
171
     0
290
     0
174
     0
 93
        1
 44
0.0
173
     0
291
     0
 45
0.0
1001
ACAD
1000
AcDbSavedByObjectVersion
1070
     0
  0
VISUALSTYLE
  5
6C8C
102
{ACAD_XDICTIONARY
360
6D33
102
}
102
{ACAD_REACTORS
330
6594
102
}
330
6594
100
AcDbVisualStyle
  2
3D Hidden
 70
     6
 71
     1
 72
     2
 73
     2
 90
        0
 40
-0.6
 41
-30.0
 62
     5
 63
     7
 74
     2
 91
        2
 64
     7
 65
   257
 75
     2
175
     1
 42
40.0
 92
        0
 66
   257
 43
1.0
 76
     1
 77
     6
 78
     2
 67
     7
 79
     3
170
     0
171
     0
290
     0
174
     0
 93
        1
 44
0.0
173
     0
291
     0
 45
0.0
1001
ACAD
1000
AcDbSavedByObjectVersion
1070
     0
  0
VISUALSTYLE
  5
6C8D
102
{ACAD_XDICTIONARY
360
6D35
102
}
102
{ACAD_REACTORS
330
6594
102
}
330
6594
100
AcDbVisualStyle
  2
3dWireframe
 70
     5
 71
     0
 72
     2
 73
     0
 90
        0
 40
-0.6
 41
-30.0
 62
     5
 63
     7
 74
     1
 91
        4
 64
     7
 65
   257
 75
     1
175
     1
 42
1.0
 92
        0
 66
   257
 43
1.0
 76
     1
 77
     6
 78
     2
 67
     7
 79
     5
170
     0
171
     0
290
     0
174
     0
 93
        1
 44
0.0
173
     0
291
     0
 45
0.0
1001
ACAD
1000
AcDbSavedByObjectVersion
1070
     0
  0
VISUALSTYLE
  5
6599
102
{ACAD_XDICTIONARY
360
6D0A
102
}
102
{ACAD_REACTORS
330
6594
102
}
330
6594
100
AcDbVisualStyle
  2
Basic
 70
     7
 71
     1
 72
     0
 73
     1
 90
        0
 40
-0.6
 41
-30.0
 62
     5
 63
     7
 74
     0
 91
        4
 64
     7
 65
   257
 75
     1
175
     1
 42
1.0
 92
        8
 66
     7
 43
1.0
 76
     1
 77
     6
 78
     2
 67
     7
 79
     5
170
     0
171
     0
290
     0
174
     0
 93
        1
 44
0.0
173
     0
291
     1
 45
0.0
1001
ACAD
1000
AcDbSavedByObjectVersion
1070
     0
  0
VISUALSTYLE
  5
65A0
102
{ACAD_XDICTIONARY
360
6D18
102
}
102
{ACAD_REACTORS
330
6594
102
}
330
6594
100
AcDbVisualStyle
  2
Brighten
 70
    12
 71
     2
 72
     2
 73
     0
 90
        0
 40
-0.6
 41
-30.0
 62
     5
 63
     7
 74
     1
 91
        4
 64
     7
 65
   257
 75
     1
175
     1
 42
1.0
 92
        8
 66
     7
 43
1.0
 76
     1
 77
     6
 78
     2
 67
     7
 79
     5
170
     0
171
     0
290
     0
174
     0
 93
        1
 44
50.0
173
     0
291
     1
 45
0.0
1001
ACAD
1000
AcDbSavedByObjectVersion
1070
     0
  0
VISUALSTYLE
  5
65A4
102
{ACAD_XDICTIONARY
360
6D20
102
}
102
{ACAD_REACTORS
330
6594
102
}
330
6594
100
AcDbVisualStyle
  2
ColorChange
 70
    16
 71
     2
 72
     2
 73
     3
 90
        0
 40
-0.6
 41
-30.0
 62
     5
 63
     8
 74
     1
 91
        4
 64
     7
 65
   257
 75
     1
175
     1
 42
1.0
 92
        8
 66
     8
 43
1.0
 76
     1
 77
     6
 78
     2
 67
     7
 79
     5
170
     0
171
     0
290
     0
174
     0
 93
        1
 44
0.0
173
     0
291
     1
 45
0.0
1001
ACAD
1000
AcDbSavedByObjectVersion
1070
     0
  0
VISUALSTYLE
  5
659D
102
{ACAD_XDICTIONARY
360
6D12
102
}
102
{ACAD_REACTORS
330
6594
102
}
330
6594
100
AcDbVisualStyle
  2
Conceptual
 70
     9
 71
     3
 72
     2
 73
     0
 90
        0
 40
-0.6
 41
-30.0
 62
     5
 63
     7
 74
     2
 91
        2
 64
     7
 65
   257
 75
     1
175
     1
 42
179.0
 92
        8
 66
     7
 43
1.0
 76
     1
 77
     6
 78
     2
 67
     7
 79
     3
170
     0
171
     0
290
     0
174
     0
 93
        1
 44
0.0
173
     0
291
     0
 45
0.0
1001
ACAD
1000
AcDbSavedByObjectVersion
1070
     0
  0
VISUALSTYLE
  5
659F
102
{ACAD_XDICTIONARY
360
6D16
102
}
102
{ACAD_REACTORS
330
6594
102
}
330
6594
100
AcDbVisualStyle
  2
Dim
 70
    11
 71
     2
 72
     2
 73
     0
 90
        0
 40
-0.6
 41
-30.0
 62
     5
 63
     7
 74
     1
 91
        4
 64
     7
 65
   257
 75
     1
175
     1
 42
1.0
 92
        8
 66
     7
 43
1.0
 76
     1
 77
     6
 78
     2
 67
     7
 79
     5
170
     0
171
     0
290
     0
174
     0
 93
        1
 44
-50.0
173
     0
291
     1
 45
0.0
1001
ACAD
1000
AcDbSavedByObjectVersion
1070
     0
  0
VISUALSTYLE
  5
65AC
102
{ACAD_XDICTIONARY
360
6D30
102
}
102
{ACAD_REACTORS
330
6594
102
}
330
6594
100
AcDbVisualStyle
  2
EdgeColorOff
 70
    22
 71
     2
 72
     2
 73
     0
 90
        0
 40
-0.6
 41
-30.0
 62
     5
 63
     7
 74
     1
 91
        4
 64
     7
 65
   257
 75
     1
175
     1
 42
1.0
 92
        8
 66
     7
 43
1.0
 76
     1
 77
     6
 78
     2
 67
     7
 79
     5
170
     0
171
     0
290
     0
174
     0
 93
        1
 44
0.0
173
     0
291
     1
 45
0.0
1001
ACAD
1000
AcDbSavedByObjectVersion
1070
     0
  0
VISUALSTYLE
  5
65A3
102
{ACAD_XDICTIONARY
360
6D1E
102
}
102
{ACAD_REACTORS
330
6594
102
}
330
6594
100
AcDbVisualStyle
  2
Facepattern
 70
    15
 71
     2
 72
     2
 73
     0
 90
        0
 40
-0.6
 41
-30.0
 62
     5
 63
     7
 74
     1
 91
        4
 64
     7
 65
   257
 75
     1
175
     1
 42
1.0
 92
        8
 66
     7
 43
1.0
 76
     1
 77
     6
 78
     2
 67
     7
 79
     5
170
     0
171
     0
290
     0
174
     0
 93
        1
 44
0.0
173
     0
291
     1
 45
0.0
1001
ACAD
1000
AcDbSavedByObjectVersion
1070
     0
  0
VISUALSTYLE
  5
6595
102
{ACAD_XDICTIONARY
360
6D02
102
}
102
{ACAD_REACTORS
330
6594
102
}
330
6594
100
AcDbVisualStyle
  2
Flat
 70
     0
 71
     2
 72
     1
 73
     1
 90
        2
 40
-0.6
 41
30.0
 62
     5
 63
     7
 74
     0
 91
        0
 64
     7
 65
   257
 75
     1
175
     1
 42
1.0
 92
        8
 66
     7
 43
1.0
 76
     1
 77
     6
 78
     2
 67
     7
 79
     5
170
     0
171
     0
290
     0
174
     0
 93
       13
 44
0.0
173
     0
291
     1
 45
0.0
1001
ACAD
1000
AcDbSavedByObjectVersion
1070
     0
  0
VISUALSTYLE
  5
6596
102
{ACAD_XDICTIONARY
360
6D04
102
}
102
{ACAD_REACTORS
330
6594
102
}
330
6594
100
AcDbVisualStyle
  2
FlatWithEdges
 70
     1
 71
     2
 72
     1
 73
     1
 90
        2
 40
-0.6
 41
30.0
 62
     5
 63
     7
 74
     1
 91
        0
 64
     7
 65
   257
 75
     1
175
     1
 42
1.0
 92
        0
 66
   257
 43
1.0
 76
     1
 77
     6
 78
     2
 67
     7
 79
     5
170
     0
171
     0
290
     0
174
     0
 93
       13
 44
0.0
173
     0
291
     1
 45
0.0
1001
ACAD
1000
AcDbSavedByObjectVersion
1070
     0
  0
VISUALSTYLE
  5
6597
102
{ACAD_XDICTIONARY
360
6D06
102
}
102
{ACAD_REACTORS
330
6594
102
}
330
6594
100
AcDbVisualStyle
  2
Gouraud
 70
     2
 71
     2
 72
     2
 73
     1
 90
        2
 40
-0.6
 41
30.0
 62
     5
 63
     7
 74
     0
 91
        0
 64
     7
 65
   257
 75
     1
175
     1
 42
1.0
 92
        0
 66
     7
 43
1.0
 76
     1
 77
     6
 78
     2
 67
     7
 79
     5
170
     0
171
     0
290
     0
174
     0
 93
       13
 44
0.0
173
     0
291
     1
 45
0.0
1001
ACAD
1000
AcDbSavedByObjectVersion
1070
     0
  0
VISUALSTYLE
  5
6598
102
{ACAD_XDICTIONARY
360
6D08
102
}
102
{ACAD_REACTORS
330
6594
102
}
330
6594
100
AcDbVisualStyle
  2
GouraudWithEdges
 70
     3
 71
     2
 72
     2
 73
     1
 90
        2
 40
-0.6
 41
30.0
 62
     5
 63
     7
 74
     1
 91
        0
 64
     7
 65
   257
 75
     1
175
     1
 42
1.0
 92
        0
 66
   257
 43
1.0
 76
     1
 77
     6
 78
     2
 67
     7
 79
     5
170
     0
171
     0
290
     0
174
     0
 93
       13
 44
0.0
173
     0
291
     1
 45
0.0
1001
ACAD
1000
AcDbSavedByObjectVersion
1070
     0
  0
VISUALSTYLE
  5
659C
102
{ACAD_XDICTIONARY
360
6D10
102
}
102
{ACAD_REACTORS
330
6594
102
}
330
6594
100
AcDbVisualStyle
  2
Hidden
 70
     6
 71
     1
 72
     2
 73
     2
 90
        0
 40
-0.6
 41
-30.0
 62
     5
 63
     7
 74
     2
 91
        2
 64
     7
 65
   257
 75
     2
175
     1
 42
40.0
 92
        0
 66
   257
 43
1.0
 76
     1
 77
     6
 78
     2
 67
     7
 79
     3
170
     0
171
     0
290
     0
174
     0
 93
        1
 44
0.0
173
     0
291
     0
 45
0.0
1001
ACAD
1000
AcDbSavedByObjectVersion
1070
     0
  0
VISUALSTYLE
  5
65AA
102
{ACAD_XDICTIONARY
360
6D2C
102
}
102
{ACAD_REACTORS
330
6594
102
}
330
6594
100
AcDbVisualStyle
  2
JitterOff
 70
    20
 71
     2
 72
     2
 73
     0
 90
        0
 40
-0.6
 41
-30.0
 62
     5
 63
     7
 74
     1
 91
        4
 64
     7
 65
   257
 75
     1
175
     1
 42
1.0
 92
       10
 66
     7
 43
1.0
 76
     1
 77
     6
 78
     2
 67
     7
 79
     5
170
     0
171
     0
290
     0
174
     0
 93
        1
 44
0.0
173
     0
291
     1
 45
0.0
1001
ACAD
1000
AcDbSavedByObjectVersion
1070
     0
  0
VISUALSTYLE
  5
65A2
102
{ACAD_XDICTIONARY
360
6D1C
102
}
102
{ACAD_REACTORS
330
6594
102
}
330
6594
100
AcDbVisualStyle
  2
Linepattern
 70
    14
 71
     2
 72
     2
 73
     0
 90
        0
 40
-0.6
 41
-30.0
 62
     5
 63
     7
 74
     1
 91
        4
 64
     7
 65
   257
 75
     7
175
     7
 42
1.0
 92
        8
 66
     7
 43
1.0
 76
     1
 77
     6
 78
     2
 67
     7
 79
     5
170
     0
171
     0
290
     0
174
     0
 93
        1
 44
0.0
173
     0
291
     1
 45
0.0
1001
ACAD
1000
AcDbSavedByObjectVersion
1070
     0
  0
VISUALSTYLE
  5
65AB
102
{ACAD_XDICTIONARY
360
6D2E
102
}
102
{ACAD_REACTORS
330
6594
102
}
330
6594
100
AcDbVisualStyle
  2
OverhangOff
 70
    21
 71
     2
 72
     2
 73
     0
 90
        0
 40
-0.6
 41
-30.0
 62
     5
 63
     7
 74
     1
 91
        4
 64
     7
 65
   257
 75
     1
175
     1
 42
1.0
 92
        9
 66
     7
 43
1.0
 76
     1
 77
     6
 78
     2
 67
     7
 79
     5
170
     0
171
     0
290
     0
174
     0
 93
        1
 44
0.0
173
     0
291
     1
 45
0.0
1001
ACAD
1000
AcDbSavedByObjectVersion
1070
     0
  0
VISUALSTYLE
  5
659E
102
{ACAD_XDICTIONARY
360
6D14
102
}
102
{ACAD_REACTORS
330
6594
102
}
330
6594
100
AcDbVisualStyle
  2
Realistic
 70
     8
 71
     2
 72
     2
 73
     0
 90
        2
 40
-0.6
 41
30.0
 62
     5
 63
     7
 74
     0
 91
        0
 64
     7
 65
   257
 75
     1
175
     1
 42
1.0
 92
        8
 66
   257
 43
1.0
 76
     1
 77
     6
 78
     2
 67
     7
 79
     3
170
     0
171
     0
290
     0
174
     0
 93
       13
 44
0.0
173
     0
291
     0
 45
0.0
1001
ACAD
1000
AcDbSavedByObjectVersion
1070
     0
  0
VISUALSTYLE
  5
65A9
102
{ACAD_XDICTIONARY
360
6D2A
102
}
102
{ACAD_REACTORS
330
6594
102
}
330
6594
100
AcDbVisualStyle
  2
Shaded
 70
    27
 71
     2
 72
     2
 73
     1
 90
        2
 40
-0.6
 41
30.0
 62
     5
 63
     7
 74
     0
 91
        4
 64
     7
 65
   257
 75
     1
175
     1
 42
1.0
 92
        8
 66
   257
 43
1.0
 76
     1
 77
     6
 78
     2
 67
     8
 79
     3
170
     0
171
     0
290
     0
174
     0
 93
        5
 44
0.0
173
     0
291
     0
 45
0.0
1001
ACAD
1000
AcDbSavedByObjectVersion
1070
     0
  0
VISUALSTYLE
  5
65A8
102
{ACAD_XDICTIONARY
360
6D28
102
}
102
{ACAD_REACTORS
330
6594
102
}
330
6594
100
AcDbVisualStyle
  2
Shaded with edges
 70
    26
 71
     2
 72
     2
 73
     1
 90
        2
 40
-0.6
 41
30.0
 62
     5
 63
     7
 74
     1
 91
       10
 64
     7
 65
   257
 75
     2
175
     1
 42
1.0
 92
        8
 66
   257
 43
1.0
 76
     1
 77
     6
 78
     2
 67
     7
 79
     3
170
     0
171
     0
290
     0
174
     0
 93
        5
 44
0.0
173
     0
291
     0
 45
0.0
1001
ACAD
1000
AcDbSavedByObjectVersion
1070
     0
  0
VISUALSTYLE
  5
65A5
102
{ACAD_XDICTIONARY
360
6D22
102
}
102
{ACAD_REACTORS
330
6594
102
}
330
6594
100
AcDbVisualStyle
  2
Shades of Gray
 70
    23
 71
     2
 72
     2
 73
     3
 90
        0
 40
-0.6
 41
-30.0
 62
     5
 63
     7
 74
     2
 91
        2
 64
     7
 65
     7
 75
     1
175
     1
 42
40.0
 92
        8
 66
     7
 43
1.0
 76
     1
 77
     6
 78
     2
 67
     7
 79
     3
170
     0
171
     0
290
     0
174
     0
 93
        1
 44
0.0
173
     0
291
     0
 45
0.0
1001
ACAD
1000
AcDbSavedByObjectVersion
1070
     0
  0
VISUALSTYLE
  5
65A6
102
{ACAD_XDICTIONARY
360
6D24
102
}
102
{ACAD_REACTORS
330
6594
102
}
330
6594
100
AcDbVisualStyle
  2
Sketchy
 70
    24
 71
     1
 72
     2
 73
     2
 90
        0
 40
-0.6
 41
-30.0
 62
     5
 63
     7
 74
     2
 91
        2
 64
     7
 65
     7
 75
     1
175
     1
 42
40.0
 92
       11
 66
     7
 43
1.0
 76
     1
 77
     6
 78
     2
 67
     7
 79
     6
170
     0
171
     0
290
     0
174
     0
 93
        1
 44
0.0
173
     0
291
     0
 45
0.0
1001
ACAD
1000
AcDbSavedByObjectVersion
1070
     0
  0
VISUALSTYLE
  5
65A1
102
{ACAD_XDICTIONARY
360
6D1A
102
}
102
{ACAD_REACTORS
330
6594
102
}
330
6594
100
AcDbVisualStyle
  2
Thicken
 70
    13
 71
     2
 72
     2
 73
     0
 90
        0
 40
-0.6
 41
-30.0
 62
     5
 63
     7
 74
     1
 91
        4
 64
     7
 65
   257
 75
     1
175
     1
 42
1.0
 92
       12
 66
     7
 43
1.0
 76
     1
 77
     6
 78
     2
 67
     7
 79
     5
170
     0
171
     0
290
     0
174
     0
 93
        1
 44
0.0
173
     0
291
     1
 45
0.0
1001
ACAD
1000
AcDbSavedByObjectVersion
1070
     0
  0
VISUALSTYLE
  5
659B
102
{ACAD_XDICTIONARY
360
6D0E
102
}
102
{ACAD_REACTORS
330
6594
102
}
330
6594
100
AcDbVisualStyle
  2
Wireframe
 70
     5
 71
     0
 72
     2
 73
     0
 90
        0
 40
-0.6
 41
-30.0
 62
     5
 63
     7
 74
     1
 91
        4
 64
     7
 65
   257
 75
     1
175
     1
 42
1.0
 92
        0
 66
   257
 43
1.0
 76
     1
 77
     6
 78
     2
 67
     7
 79
     3
170
     0
171
     0
290
     0
174
     0
 93
        1
 44
0.0
173
     0
291
     0
 45
0.0
1001
ACAD
1000
AcDbSavedByObjectVersion
1070
     0
  0
VISUALSTYLE
  5
65A7
102
{ACAD_XDICTIONARY
360
6D26
102
}
102
{ACAD_REACTORS
330
6594
102
}
330
6594
100
AcDbVisualStyle
  2
X-Ray
 70
    25
 71
     2
 72
     2
 73
     1
 90
        1
 40
0.5
 41
-30.0
 62
     5
 63
     7
 74
     1
 91
        0
 64
     7
 65
   257
 75
     1
175
     1
 42
1.0
 92
        8
 66
     7
 43
1.0
 76
     1
 77
     6
 78
     2
 67
     7
 79
     3
170
     0
171
     0
290
     0
174
     0
 93
       13
 44
0.0
173
     0
291
     0
 45
0.0
1001
ACAD
1000
AcDbSavedByObjectVersion
1070
     0
  0
DICTIONARYVAR
  5
663F
102
{ACAD_REACTORS
330
3E
102
}
330
3E
100
DictionaryVariables
280
     0
  1
1:1
  0
DICTIONARYVAR
  5
663E
102
{ACAD_REACTORS
330
3E
102
}
330
3E
100
DictionaryVariables
280
     0
  1
STANDARD
  0
DICTIONARYVAR
  5
663D
102
{ACAD_REACTORS
330
3E
102
}
330
3E
100
DictionaryVariables
280
     0
  1
STANDARD
  0
DICTIONARYVAR
  5
3F
102
{ACAD_REACTORS
330
3E
102
}
330
3E
100
DictionaryVariables
280
     0
  1
0
  0
DICTIONARYVAR
  5
6642
102
{ACAD_REACTORS
330
3E
102
}
330
3E
100
DictionaryVariables
280
     0
  1
1
  0
DICTIONARYVAR
  5
6641
102
{ACAD_REACTORS
330
3E
102
}
330
3E
100
DictionaryVariables
280
     0
  1
0
  0
DICTIONARYVAR
  5
6CE9
102
{ACAD_REACTORS
330
3E
102
}
330
3E
100
DictionaryVariables
280
     0
  1
1
  0
DICTIONARYVAR
  5
6CEA
102
{ACAD_REACTORS
330
3E
102
}
330
3E
100
DictionaryVariables
280
     0
  1
15
  0
DICTIONARYVAR
  5
6CE8
102
{ACAD_REACTORS
330
3E
102
}
330
3E
100
DictionaryVariables
280
     0
  1
0
  0
DICTIONARYVAR
  5
6CE7
102
{ACAD_REACTORS
330
3E
102
}
330
3E
100
DictionaryVariables
280
     0
  1
0
  0
DICTIONARYVAR
  5
6640
102
{ACAD_REACTORS
330
3E
102
}
330
3E
100
DictionaryVariables
280
     0
  1
127
  0
DICTIONARYVAR
  5
6CF5
102
{ACAD_REACTORS
330
3E
102
}
330
3E
100
DictionaryVariables
280
     0
  1
2
  0
DICTIONARY
  5
6CFD
330
485F
100
AcDbDictionary
280
     1
281
     1
  3
ACAD_XREC_ROUNDTRIP
360
6CFE
  0
DICTIONARY
  5
6CFB
330
485E
100
AcDbDictionary
280
     1
281
     1
  3
ACAD_XREC_ROUNDTRIP
360
6CFC
  0
DICTIONARY
  5
6585
330
6584
100
AcDbDictionary
280
     1
281
     1
  3
ACAD_XREC_ROUNDTRIP
360
6D00
  3
BUMPTILE
360
6587
  3
DIFFUSETILE
360
6586
  3
OPACITYTILE
360
658A
  3
REFLECTIONTILE
360
6589
  3
REFRACTIONTILE
360
658B
  3
SPECULARTILE
360
6588
  0
DICTIONARY
  5
657D
330
657C
100
AcDbDictionary
280
     1
281
     1
  3
ACAD_XREC_ROUNDTRIP
360
6CFF
  3
BUMPTILE
360
657F
  3
DIFFUSETILE
360
657E
  3
OPACITYTILE
360
6582
  3
REFLECTIONTILE
360
6581
  3
REFRACTIONTILE
360
6583
  3
SPECULARTILE
360
6580
  0
DICTIONARY
  5
658D
330
658C
100
AcDbDictionary
280
     1
281
     1
  3
ACAD_XREC_ROUNDTRIP
360
6D01
  3
BUMPTILE
360
658F
  3
DIFFUSETILE
360
658E
  3
OPACITYTILE
360
6592
  3
REFLECTIONTILE
360
6591
  3
REFRACTIONTILE
360
6593
  3
SPECULARTILE
360
6590
  0
DICTIONARY
  5
65FE
330
65AF
100
AcDbDictionary
280
     1
281
     1
  3
ACAD_ROUNDTRIP_2008_TABLESTYLE_CELLSTYLEMAP
360
6CF6
  3
ACAD_XREC_ROUNDTRIP
360
6D32
  0
DICTIONARY
  5
6D0C
330
659A
100
AcDbDictionary
280
     1
281
     1
  3
ACAD_XREC_ROUNDTRIP
360
6D0D
  0
DICTIONARY
  5
6D33
330
6C8C
100
AcDbDictionary
280
     1
281
     1
  3
ACAD_XREC_ROUNDTRIP
360
6D34
  0
DICTIONARY
  5
6D35
330
6C8D
100
AcDbDictionary
280
     1
281
     1
  3
ACAD_XREC_ROUNDTRIP
360
6D36
  0
DICTIONARY
  5
6D0A
330
6599
100
AcDbDictionary
280
     1
281
     1
  3
ACAD_XREC_ROUNDTRIP
360
6D0B
  0
DICTIONARY
  5
6D18
330
65A0
100
AcDbDictionary
280
     1
281
     1
  3
ACAD_XREC_ROUNDTRIP
360
6D19
  0
DICTIONARY
  5
6D20
330
65A4
100
AcDbDictionary
280
     1
281
     1
  3
ACAD_XREC_ROUNDTRIP
360
6D21
  0
DICTIONARY
  5
6D12
330
659D
100
AcDbDictionary
280
     1
281
     1
  3
ACAD_XREC_ROUNDTRIP
360
6D13
  0
DICTIONARY
  5
6D16
330
659F
100
AcDbDictionary
280
     1
281
     1
  3
ACAD_XREC_ROUNDTRIP
360
6D17
  0
DICTIONARY
  5
6D30
330
65AC
100
AcDbDictionary
280
     1
281
     1
  3
ACAD_XREC_ROUNDTRIP
360
6D31
  0
DICTIONARY
  5
6D1E
330
65A3
100
AcDbDictionary
280
     1
281
     1
  3
ACAD_XREC_ROUNDTRIP
360
6D1F
  0
DICTIONARY
  5
6D02
330
6595
100
AcDbDictionary
280
     1
281
     1
  3
ACAD_XREC_ROUNDTRIP
360
6D03
  0
DICTIONARY
  5
6D04
330
6596
100
AcDbDictionary
280
     1
281
     1
  3
ACAD_XREC_ROUNDTRIP
360
6D05
  0
DICTIONARY
  5
6D06
330
6597
100
AcDbDictionary
280
     1
281
     1
  3
ACAD_XREC_ROUNDTRIP
360
6D07
  0
DICTIONARY
  5
6D08
330
6598
100
AcDbDictionary
280
     1
281
     1
  3
ACAD_XREC_ROUNDTRIP
360
6D09
  0
DICTIONARY
  5
6D10
330
659C
100
AcDbDictionary
280
     1
281
     1
  3
ACAD_XREC_ROUNDTRIP
360
6D11
  0
DICTIONARY
  5
6D2C
330
65AA
100
AcDbDictionary
280
     1
281
     1
  3
ACAD_XREC_ROUNDTRIP
360
6D2D
  0
DICTIONARY
  5
6D1C
330
65A2
100
AcDbDictionary
280
     1
281
     1
  3
ACAD_XREC_ROUNDTRIP
360
6D1D
  0
DICTIONARY
  5
6D2E
330
65AB
100
AcDbDictionary
280
     1
281
     1
  3
ACAD_XREC_ROUNDTRIP
360
6D2F
  0
DICTIONARY
  5
6D14
330
659E
100
AcDbDictionary
280
     1
281
     1
  3
ACAD_XREC_ROUNDTRIP
360
6D15
  0
DICTIONARY
  5
6D2A
330
65A9
100
AcDbDictionary
280
     1
281
     1
  3
ACAD_XREC_ROUNDTRIP
360
6D2B
  0
DICTIONARY
  5
6D28
330
65A8
100
AcDbDictionary
280
     1
281
     1
  3
ACAD_XREC_ROUNDTRIP
360
6D29
  0
DICTIONARY
  5
6D22
330
65A5
100
AcDbDictionary
280
     1
281
     1
  3
ACAD_XREC_ROUNDTRIP
360
6D23
  0
DICTIONARY
  5
6D24
330
65A6
100
AcDbDictionary
280
     1
281
     1
  3
ACAD_XREC_ROUNDTRIP
360
6D25
  0
DICTIONARY
  5
6D1A
330
65A1
100
AcDbDictionary
280
     1
281
     1
  3
ACAD_XREC_ROUNDTRIP
360
6D1B
  0
DICTIONARY
  5
6D0E
330
659B
100
AcDbDictionary
280
     1
281
     1
  3
ACAD_XREC_ROUNDTRIP
360
6D0F
  0
DICTIONARY
  5
6D26
330
65A7
100
AcDbDictionary
280
     1
281
     1
  3
ACAD_XREC_ROUNDTRIP
360
6D27
  0
XRECORD
  5
6CFE
102
{ACAD_REACTORS
330
6CFD
102
}
330
6CFD
100
AcDbXrecord
280
     1
102
SHADEPLOT
 70
     0
102
SHADEPLOTRESLEVEL
 70
     2
102
SHADEPLOTCUSTOMDPI
 70
   300
  0
XRECORD
  5
6CFC
102
{ACAD_REACTORS
330
6CFB
102
}
330
6CFB
100
AcDbXrecord
280
     1
102
SHADEPLOT
 70
     0
102
SHADEPLOTRESLEVEL
 70
     2
102
SHADEPLOTCUSTOMDPI
 70
   300
  0
XRECORD
  5
6D00
102
{ACAD_REACTORS
330
6585
102
}
330
6585
100
AcDbXrecord
280
     1
102
MATERIAL
148
0.0
149
0.0
149
0.0
 93
        0
 94
      127
282
     0
 72
     0
 77
     0
171
     0
175
     0
179
     0
273
     0
  0
XRECORD
  5
6587
102
{ACAD_REACTORS
330
6585
102
}
330
6585
100
AcDbXrecord
280
     1
270
     1
271
     1
  0
XRECORD
  5
6586
102
{ACAD_REACTORS
330
6585
102
}
330
6585
100
AcDbXrecord
280
     1
270
     1
271
     1
  0
XRECORD
  5
658A
102
{ACAD_REACTORS
330
6585
102
}
330
6585
100
AcDbXrecord
280
     1
270
     1
271
     1
  0
XRECORD
  5
6589
102
{ACAD_REACTORS
330
6585
102
}
330
6585
100
AcDbXrecord
280
     1
270
     1
271
     1
  0
XRECORD
  5
658B
102
{ACAD_REACTORS
330
6585
102
}
330
6585
100
AcDbXrecord
280
     1
270
     1
271
     1
  0
XRECORD
  5
6588
102
{ACAD_REACTORS
330
6585
102
}
330
6585
100
AcDbXrecord
280
     1
270
     1
271
     1
  0
XRECORD
  5
6CFF
102
{ACAD_REACTORS
330
657D
102
}
330
657D
100
AcDbXrecord
280
     1
102
MATERIAL
148
0.0
149
0.0
149
0.0
 93
        0
 94
      127
282
     0
 72
     0
 77
     0
171
     0
175
     0
179
     0
273
     0
  0
XRECORD
  5
657F
102
{ACAD_REACTORS
330
657D
102
}
330
657D
100
AcDbXrecord
280
     1
270
     1
271
     1
  0
XRECORD
  5
657E
102
{ACAD_REACTORS
330
657D
102
}
330
657D
100
AcDbXrecord
280
     1
270
     1
271
     1
  0
XRECORD
  5
6582
102
{ACAD_REACTORS
330
657D
102
}
330
657D
100
AcDbXrecord
280
     1
270
     1
271
     1
  0
XRECORD
  5
6581
102
{ACAD_REACTORS
330
657D
102
}
330
657D
100
AcDbXrecord
280
     1
270
     1
271
     1
  0
XRECORD
  5
6583
102
{ACAD_REACTORS
330
657D
102
}
330
657D
100
AcDbXrecord
280
     1
270
     1
271
     1
  0
XRECORD
  5
6580
102
{ACAD_REACTORS
330
657D
102
}
330
657D
100
AcDbXrecord
280
     1
270
     1
271
     1
  0
XRECORD
  5
6D01
102
{ACAD_REACTORS
330
658D
102
}
330
658D
100
AcDbXrecord
280
     1
102
MATERIAL
148
0.0
149
0.0
149
0.0
 93
        0
 94
      127
282
     0
 72
     0
 77
     0
171
     0
175
     0
179
     0
273
     0
  0
XRECORD
  5
658F
102
{ACAD_REACTORS
330
658D
102
}
330
658D
100
AcDbXrecord
280
     1
270
     1
271
     1
  0
XRECORD
  5
658E
102
{ACAD_REACTORS
330
658D
102
}
330
658D
100
AcDbXrecord
280
     1
270
     1
271
     1
  0
XRECORD
  5
6592
102
{ACAD_REACTORS
330
658D
102
}
330
658D
100
AcDbXrecord
280
     1
270
     1
271
     1
  0
XRECORD
  5
6591
102
{ACAD_REACTORS
330
658D
102
}
330
658D
100
AcDbXrecord
280
     1
270
     1
271
     1
  0
XRECORD
  5
6593
102
{ACAD_REACTORS
330
658D
102
}
330
658D
100
AcDbXrecord
280
     1
270
     1
271
     1
  0
XRECORD
  5
6590
102
{ACAD_REACTORS
330
658D
102
}
330
658D
100
AcDbXrecord
280
     1
270
     1
271
     1
  0
CELLSTYLEMAP
  5
6CF6
102
{ACAD_REACTORS
330
65FE
102
}
330
65FE
100
AcDbCellStyleMap
 90
        3
300
CELLSTYLE
  1
TABLEFORMAT_BEGIN
 90
        5
170
     1
 91
        0
 92
    32768
 62
   257
 93
        1
300
CONTENTFORMAT
  1
CONTENTFORMAT_BEGIN
 90
        0
 91
        0
 92
      512
 93
        0
300

 40
0.0
140
1.0
 94
        5
 62
     0
340
F
144
0.25
309
CONTENTFORMAT_END
171
     0
 94
        0
309
TABLEFORMAT_END
  1
CELLSTYLE_BEGIN
 90
        1
 91
        1
300
_TITLE
309
CELLSTYLE_END
300
CELLSTYLE
  1
TABLEFORMAT_BEGIN
 90
        5
170
     1
 91
        0
 92
        0
 62
   257
 93
        1
300
CONTENTFORMAT
  1
CONTENTFORMAT_BEGIN
 90
        0
 91
        0
 92
      512
 93
        0
300

 40
0.0
140
1.0
 94
        5
 62
     0
340
F
144
0.18
309
CONTENTFORMAT_END
171
     0
 94
        0
309
TABLEFORMAT_END
  1
CELLSTYLE_BEGIN
 90
        2
 91
        1
300
_HEADER
309
CELLSTYLE_END
300
CELLSTYLE
  1
TABLEFORMAT_BEGIN
 90
        5
170
     1
 91
        0
 92
        0
 62
   257
 93
        1
300
CONTENTFORMAT
  1
CONTENTFORMAT_BEGIN
 90
        0
 91
        0
 92
      512
 93
        0
300

 40
0.0
140
1.0
 94
        2
 62
     0
340
F
144
0.18
309
CONTENTFORMAT_END
171
     0
 94
        0
309
TABLEFORMAT_END
  1
CELLSTYLE_BEGIN
 90
        3
 91
        2
300
_DATA
309
CELLSTYLE_END
  0
XRECORD
  5
6D32
102
{ACAD_REACTORS
330
65FE
102
}
330
65FE
100
AcDbXrecord
280
     1
102
ACAD_ROUNDTRIP_PRE2007_TABLESTYLE
 90
      512
 91
        0
  1

 92
      512
 93
        0
  2

 94
      512
 95
        0
  3

  0
XRECORD
  5
6D0D
102
{ACAD_REACTORS
330
6D0C
102
}
330
6D0C
100
AcDbXrecord
280
     1
102
RTVSPropertyOp0
 70
     1
102
RTVSPropertyOp1
 70
     1
102
RTVSPropertyOp2
 70
     1
102
RTVSPropertyOp3
 70
     1
102
RTVSPropertyOp4
 70
     1
102
RTVSPropertyOp5
 70
     1
102
RTVSPropertyOp6
 70
     1
102
RTVSPropertyOp7
 70
     1
102
RTVSPropertyOp8
 70
     1
102
RTVSPropertyOp9
 70
     1
102
RTVSPropertyOp10
 70
     1
102
RTVSPropertyOp11
 70
     1
102
RTVSPropertyOp12
 70
     1
102
RTVSPropertyOp13
 70
     1
102
RTVSPropertyOp14
 70
     1
102
RTVSPropertyOp15
 70
     1
102
RTVSPropertyOp16
 70
     1
102
RTVSPropertyOp17
 70
     1
102
RTVSPropertyOp18
 70
     1
102
RTVSPropertyOp19
 70
     1
102
RTVSPropertyOp20
 70
     1
102
RTVSPropertyOp21
 70
     1
102
RTVSPropertyOp22
 70
     1
102
RTVSPropertyOp23
 70
     1
102
RTVSPropertyOp24
 70
     1
102
RTVSPropertyOp25
 70
     1
102
RTVSPropertyOp26
 70
     1
102
RTVSPropertyOp27
 70
     1
102
RTVSPropertyOp28
 70
     1
102
RTVSPropertyOp29
 70
     1
102
RTVSPropertyOp30
 70
     1
102
RTVSPropertyOp31
 70
     1
102
RTVSPropertyOp32
 70
     1
  0
XRECORD
  5
6D34
102
{ACAD_REACTORS
330
6D33
102
}
330
6D33
100
AcDbXrecord
280
     1
102
RTVSPropertyOp0
 70
     1
102
RTVSPropertyOp1
 70
     1
102
RTVSPropertyOp2
 70
     1
102
RTVSPropertyOp3
 70
     1
102
RTVSPropertyOp4
 70
     1
102
RTVSPropertyOp5
 70
     1
102
RTVSPropertyOp6
 70
     1
102
RTVSPropertyOp7
 70
     1
102
RTVSPropertyOp8
 70
     1
102
RTVSPropertyOp9
 70
     1
102
RTVSPropertyOp10
 70
     1
102
RTVSPropertyOp11
 70
     1
102
RTVSPropertyOp12
 70
     1
102
RTVSPropertyOp13
 70
     1
102
RTVSPropertyOp14
 70
     1
102
RTVSPropertyOp15
 70
     1
102
RTVSPropertyOp16
 70
     1
102
RTVSPropertyOp17
 70
     1
102
RTVSPropertyOp18
 70
     1
102
RTVSPropertyOp19
 70
     1
102
RTVSPropertyOp20
 70
     1
102
RTVSPropertyOp21
 70
     1
102
RTVSPropertyOp22
 70
     1
102
RTVSPropertyOp23
 70
     1
102
RTVSPropertyOp24
 70
     1
102
RTVSPropertyOp25
 70
     1
102
RTVSPropertyOp26
 70
     1
102
RTVSPropertyOp27
 70
     1
102
RTVSPropertyOp28
 70
     1
102
RTVSPropertyOp29
 70
     1
102
RTVSPropertyOp30
 70
     1
102
RTVSPropertyOp31
 70
     1
102
RTVSPropertyOp32
 70
     1
  0
XRECORD
  5
6D36
102
{ACAD_REACTORS
330
6D35
102
}
330
6D35
100
AcDbXrecord
280
     1
102
RTVSPropertyOp0
 70
     1
102
RTVSPropertyOp1
 70
     1
102
RTVSPropertyOp2
 70
     1
102
RTVSPropertyOp3
 70
     1
102
RTVSPropertyOp4
 70
     1
102
RTVSPropertyOp5
 70
     1
102
RTVSPropertyOp6
 70
     1
102
RTVSPropertyOp7
 70
     1
102
RTVSPropertyOp8
 70
     1
102
RTVSPropertyOp9
 70
     1
102
RTVSPropertyOp10
 70
     1
102
RTVSPropertyOp11
 70
     1
102
RTVSPropertyOp12
 70
     1
102
RTVSPropertyOp13
 70
     1
102
RTVSPropertyOp14
 70
     1
102
RTVSPropertyOp15
 70
     1
102
RTVSPropertyOp16
 70
     1
102
RTVSPropertyOp17
 70
     1
102
RTVSPropertyOp18
 70
     1
102
RTVSPropertyOp19
 70
     1
102
RTVSPropertyOp20
 70
     1
102
RTVSPropertyOp21
 70
     1
102
RTVSPropertyOp22
 70
     1
102
RTVSPropertyOp23
 70
     1
102
RTVSPropertyOp24
 70
     1
102
RTVSPropertyOp25
 70
     1
102
RTVSPropertyOp26
 70
     1
102
RTVSPropertyOp27
 70
     1
102
RTVSPropertyOp28
 70
     1
102
RTVSPropertyOp29
 70
     1
102
RTVSPropertyOp30
 70
     1
102
RTVSPropertyOp31
 70
     1
102
RTVSPropertyOp32
 70
     1
  0
XRECORD
  5
6D0B
102
{ACAD_REACTORS
330
6D0A
102
}
330
6D0A
100
AcDbXrecord
280
     1
102
RTVSPropertyOp0
 70
     1
102
RTVSPropertyOp1
 70
     1
102
RTVSPropertyOp2
 70
     1
102
RTVSPropertyOp3
 70
     1
102
RTVSPropertyOp4
 70
     1
102
RTVSPropertyOp5
 70
     1
102
RTVSPropertyOp6
 70
     1
102
RTVSPropertyOp7
 70
     1
102
RTVSPropertyOp8
 70
     1
102
RTVSPropertyOp9
 70
     1
102
RTVSPropertyOp10
 70
     1
102
RTVSPropertyOp11
 70
     1
102
RTVSPropertyOp12
 70
     1
102
RTVSPropertyOp13
 70
     1
102
RTVSPropertyOp14
 70
     1
102
RTVSPropertyOp15
 70
     1
102
RTVSPropertyOp16
 70
     1
102
RTVSPropertyOp17
 70
     1
102
RTVSPropertyOp18
 70
     1
102
RTVSPropertyOp19
 70
     1
102
RTVSPropertyOp20
 70
     1
102
RTVSPropertyOp21
 70
     1
102
RTVSPropertyOp22
 70
     1
102
RTVSPropertyOp23
 70
     1
102
RTVSPropertyOp24
 70
     1
102
RTVSPropertyOp25
 70
     1
102
RTVSPropertyOp26
 70
     1
102
RTVSPropertyOp27
 70
     1
102
RTVSPropertyOp28
 70
     1
102
RTVSPropertyOp29
 70
     1
102
RTVSPropertyOp30
 70
     1
102
RTVSPropertyOp31
 70
     1
102
RTVSPropertyOp32
 70
     1
  0
XRECORD
  5
6D19
102
{ACAD_REACTORS
330
6D18
102
}
330
6D18
100
AcDbXrecord
280
     1
102
RTVSPropertyOp0
 70
     1
102
RTVSPropertyOp1
 70
     1
102
RTVSPropertyOp2
 70
     1
102
RTVSPropertyOp3
 70
     1
102
RTVSPropertyOp4
 70
     1
102
RTVSPropertyOp5
 70
     1
102
RTVSPropertyOp6
 70
     1
102
RTVSPropertyOp7
 70
     1
102
RTVSPropertyOp8
 70
     1
102
RTVSPropertyOp9
 70
     1
102
RTVSPropertyOp10
 70
     1
102
RTVSPropertyOp11
 70
     1
102
RTVSPropertyOp12
 70
     1
102
RTVSPropertyOp13
 70
     1
102
RTVSPropertyOp14
 70
     1
102
RTVSPropertyOp15
 70
     1
102
RTVSPropertyOp16
 70
     1
102
RTVSPropertyOp17
 70
     1
102
RTVSPropertyOp18
 70
     1
102
RTVSPropertyOp19
 70
     1
102
RTVSPropertyOp20
 70
     1
102
RTVSPropertyOp21
 70
     1
102
RTVSPropertyOp22
 70
     1
102
RTVSPropertyOp23
 70
     1
102
RTVSPropertyOp24
 70
     1
102
RTVSPropertyOp25
 70
     1
102
RTVSPropertyOp26
 70
     1
102
RTVSPropertyOp27
 70
     1
102
RTVSPropertyOp28
 70
     1
102
RTVSPropertyOp29
 70
     1
102
RTVSPropertyOp30
 70
     1
102
RTVSPropertyOp31
 70
     1
102
RTVSPropertyOp32
 70
     1
  0
XRECORD
  5
6D21
102
{ACAD_REACTORS
330
6D20
102
}
330
6D20
100
AcDbXrecord
280
     1
102
RTVSPropertyOp0
 70
     1
102
RTVSPropertyOp1
 70
     1
102
RTVSPropertyOp2
 70
     1
102
RTVSPropertyOp3
 70
     1
102
RTVSPropertyOp4
 70
     1
102
RTVSPropertyOp5
 70
     1
102
RTVSPropertyOp6
 70
     1
102
RTVSPropertyOp7
 70
     1
102
RTVSPropertyOp8
 70
     1
102
RTVSPropertyOp9
 70
     1
102
RTVSPropertyOp10
 70
     1
102
RTVSPropertyOp11
 70
     1
102
RTVSPropertyOp12
 70
     1
102
RTVSPropertyOp13
 70
     1
102
RTVSPropertyOp14
 70
     1
102
RTVSPropertyOp15
 70
     1
102
RTVSPropertyOp16
 70
     1
102
RTVSPropertyOp17
 70
     1
102
RTVSPropertyOp18
 70
     1
102
RTVSPropertyOp19
 70
     1
102
RTVSPropertyOp20
 70
     1
102
RTVSPropertyOp21
 70
     1
102
RTVSPropertyOp22
 70
     1
102
RTVSPropertyOp23
 70
     1
102
RTVSPropertyOp24
 70
     1
102
RTVSPropertyOp25
 70
     1
102
RTVSPropertyOp26
 70
     1
102
RTVSPropertyOp27
 70
     1
102
RTVSPropertyOp28
 70
     1
102
RTVSPropertyOp29
 70
     1
102
RTVSPropertyOp30
 70
     1
102
RTVSPropertyOp31
 70
     1
102
RTVSPropertyOp32
 70
     1
  0
XRECORD
  5
6D13
102
{ACAD_REACTORS
330
6D12
102
}
330
6D12
100
AcDbXrecord
280
     1
102
RTVSPropertyOp0
 70
     1
102
RTVSPropertyOp1
 70
     1
102
RTVSPropertyOp2
 70
     1
102
RTVSPropertyOp3
 70
     1
102
RTVSPropertyOp4
 70
     1
102
RTVSPropertyOp5
 70
     1
102
RTVSPropertyOp6
 70
     1
102
RTVSPropertyOp7
 70
     1
102
RTVSPropertyOp8
 70
     1
102
RTVSPropertyOp9
 70
     1
102
RTVSPropertyOp10
 70
     1
102
RTVSPropertyOp11
 70
     1
102
RTVSPropertyOp12
 70
     1
102
RTVSPropertyOp13
 70
     1
102
RTVSPropertyOp14
 70
     1
102
RTVSPropertyOp15
 70
     1
102
RTVSPropertyOp16
 70
     1
102
RTVSPropertyOp17
 70
     1
102
RTVSPropertyOp18
 70
     1
102
RTVSPropertyOp19
 70
     1
102
RTVSPropertyOp20
 70
     1
102
RTVSPropertyOp21
 70
     1
102
RTVSPropertyOp22
 70
     1
102
RTVSPropertyOp23
 70
     1
102
RTVSPropertyOp24
 70
     1
102
RTVSPropertyOp25
 70
     1
102
RTVSPropertyOp26
 70
     1
102
RTVSPropertyOp27
 70
     1
102
RTVSPropertyOp28
 70
     1
102
RTVSPropertyOp29
 70
     1
102
RTVSPropertyOp30
 70
     1
102
RTVSPropertyOp31
 70
     1
102
RTVSPropertyOp32
 70
     1
  0
XRECORD
  5
6D17
102
{ACAD_REACTORS
330
6D16
102
}
330
6D16
100
AcDbXrecord
280
     1
102
RTVSPropertyOp0
 70
     1
102
RTVSPropertyOp1
 70
     1
102
RTVSPropertyOp2
 70
     1
102
RTVSPropertyOp3
 70
     1
102
RTVSPropertyOp4
 70
     1
102
RTVSPropertyOp5
 70
     1
102
RTVSPropertyOp6
 70
     1
102
RTVSPropertyOp7
 70
     1
102
RTVSPropertyOp8
 70
     1
102
RTVSPropertyOp9
 70
     1
102
RTVSPropertyOp10
 70
     1
102
RTVSPropertyOp11
 70
     1
102
RTVSPropertyOp12
 70
     1
102
RTVSPropertyOp13
 70
     1
102
RTVSPropertyOp14
 70
     1
102
RTVSPropertyOp15
 70
     1
102
RTVSPropertyOp16
 70
     1
102
RTVSPropertyOp17
 70
     1
102
RTVSPropertyOp18
 70
     1
102
RTVSPropertyOp19
 70
     1
102
RTVSPropertyOp20
 70
     1
102
RTVSPropertyOp21
 70
     1
102
RTVSPropertyOp22
 70
     1
102
RTVSPropertyOp23
 70
     1
102
RTVSPropertyOp24
 70
     1
102
RTVSPropertyOp25
 70
     1
102
RTVSPropertyOp26
 70
     1
102
RTVSPropertyOp27
 70
     1
102
RTVSPropertyOp28
 70
     1
102
RTVSPropertyOp29
 70
     1
102
RTVSPropertyOp30
 70
     1
102
RTVSPropertyOp31
 70
     1
102
RTVSPropertyOp32
 70
     1
  0
XRECORD
  5
6D31
102
{ACAD_REACTORS
330
6D30
102
}
330
6D30
100
AcDbXrecord
280
     1
102
RTVSPropertyOp0
 70
     0
102
RTVSPropertyOp1
 70
     0
102
RTVSPropertyOp2
 70
     0
102
RTVSPropertyOp3
 70
     0
102
RTVSPropertyOp4
 70
     0
102
RTVSPropertyOp5
 70
     0
102
RTVSPropertyOp6
 70
     0
102
RTVSPropertyOp7
 70
     0
102
RTVSPropertyOp8
 70
     0
102
RTVSPropertyOp9
 70
     0
102
RTVSPropertyOp10
 70
     0
102
RTVSPropertyOp11
 70
     0
102
RTVSPropertyOp12
 70
     0
102
RTVSPropertyOp13
 70
     0
102
RTVSPropertyOp14
 70
     2
102
RTVSPropertyOp15
 70
     0
102
RTVSPropertyOp16
 70
     0
102
RTVSPropertyOp17
 70
     0
102
RTVSPropertyOp18
 70
     0
102
RTVSPropertyOp19
 70
     0
102
RTVSPropertyOp20
 70
     0
102
RTVSPropertyOp21
 70
     0
102
RTVSPropertyOp22
 70
     0
102
RTVSPropertyOp23
 70
     0
102
RTVSPropertyOp24
 70
     0
102
RTVSPropertyOp25
 70
     0
102
RTVSPropertyOp26
 70
     0
102
RTVSPropertyOp27
 70
     0
102
RTVSPropertyOp28
 70
     1
102
RTVSPropertyOp29
 70
     1
102
RTVSPropertyOp30
 70
     1
102
RTVSPropertyOp31
 70
     1
102
RTVSPropertyOp32
 70
     1
  0
XRECORD
  5
6D1F
102
{ACAD_REACTORS
330
6D1E
102
}
330
6D1E
100
AcDbXrecord
280
     1
102
RTVSPropertyOp0
 70
     1
102
RTVSPropertyOp1
 70
     1
102
RTVSPropertyOp2
 70
     1
102
RTVSPropertyOp3
 70
     1
102
RTVSPropertyOp4
 70
     1
102
RTVSPropertyOp5
 70
     1
102
RTVSPropertyOp6
 70
     1
102
RTVSPropertyOp7
 70
     1
102
RTVSPropertyOp8
 70
     1
102
RTVSPropertyOp9
 70
     1
102
RTVSPropertyOp10
 70
     1
102
RTVSPropertyOp11
 70
     1
102
RTVSPropertyOp12
 70
     1
102
RTVSPropertyOp13
 70
     1
102
RTVSPropertyOp14
 70
     1
102
RTVSPropertyOp15
 70
     1
102
RTVSPropertyOp16
 70
     1
102
RTVSPropertyOp17
 70
     1
102
RTVSPropertyOp18
 70
     1
102
RTVSPropertyOp19
 70
     1
102
RTVSPropertyOp20
 70
     1
102
RTVSPropertyOp21
 70
     1
102
RTVSPropertyOp22
 70
     1
102
RTVSPropertyOp23
 70
     1
102
RTVSPropertyOp24
 70
     1
102
RTVSPropertyOp25
 70
     1
102
RTVSPropertyOp26
 70
     1
102
RTVSPropertyOp27
 70
     1
102
RTVSPropertyOp28
 70
     1
102
RTVSPropertyOp29
 70
     1
102
RTVSPropertyOp30
 70
     1
102
RTVSPropertyOp31
 70
     1
102
RTVSPropertyOp32
 70
     1
  0
XRECORD
  5
6D03
102
{ACAD_REACTORS
330
6D02
102
}
330
6D02
100
AcDbXrecord
280
     1
102
RTVSPropertyOp0
 70
     1
102
RTVSPropertyOp1
 70
     1
102
RTVSPropertyOp2
 70
     1
102
RTVSPropertyOp3
 70
     1
102
RTVSPropertyOp4
 70
     1
102
RTVSPropertyOp5
 70
     1
102
RTVSPropertyOp6
 70
     1
102
RTVSPropertyOp7
 70
     1
102
RTVSPropertyOp8
 70
     1
102
RTVSPropertyOp9
 70
     1
102
RTVSPropertyOp10
 70
     1
102
RTVSPropertyOp11
 70
     1
102
RTVSPropertyOp12
 70
     1
102
RTVSPropertyOp13
 70
     1
102
RTVSPropertyOp14
 70
     1
102
RTVSPropertyOp15
 70
     1
102
RTVSPropertyOp16
 70
     1
102
RTVSPropertyOp17
 70
     1
102
RTVSPropertyOp18
 70
     1
102
RTVSPropertyOp19
 70
     1
102
RTVSPropertyOp20
 70
     1
102
RTVSPropertyOp21
 70
     1
102
RTVSPropertyOp22
 70
     1
102
RTVSPropertyOp23
 70
     1
102
RTVSPropertyOp24
 70
     1
102
RTVSPropertyOp25
 70
     1
102
RTVSPropertyOp26
 70
     1
102
RTVSPropertyOp27
 70
     1
102
RTVSPropertyOp28
 70
     1
102
RTVSPropertyOp29
 70
     1
102
RTVSPropertyOp30
 70
     1
102
RTVSPropertyOp31
 70
     1
102
RTVSPropertyOp32
 70
     1
  0
XRECORD
  5
6D05
102
{ACAD_REACTORS
330
6D04
102
}
330
6D04
100
AcDbXrecord
280
     1
102
RTVSPropertyOp0
 70
     1
102
RTVSPropertyOp1
 70
     1
102
RTVSPropertyOp2
 70
     1
102
RTVSPropertyOp3
 70
     1
102
RTVSPropertyOp4
 70
     1
102
RTVSPropertyOp5
 70
     1
102
RTVSPropertyOp6
 70
     1
102
RTVSPropertyOp7
 70
     1
102
RTVSPropertyOp8
 70
     1
102
RTVSPropertyOp9
 70
     1
102
RTVSPropertyOp10
 70
     1
102
RTVSPropertyOp11
 70
     1
102
RTVSPropertyOp12
 70
     1
102
RTVSPropertyOp13
 70
     1
102
RTVSPropertyOp14
 70
     1
102
RTVSPropertyOp15
 70
     1
102
RTVSPropertyOp16
 70
     1
102
RTVSPropertyOp17
 70
     1
102
RTVSPropertyOp18
 70
     1
102
RTVSPropertyOp19
 70
     1
102
RTVSPropertyOp20
 70
     1
102
RTVSPropertyOp21
 70
     1
102
RTVSPropertyOp22
 70
     1
102
RTVSPropertyOp23
 70
     1
102
RTVSPropertyOp24
 70
     1
102
RTVSPropertyOp25
 70
     1
102
RTVSPropertyOp26
 70
     1
102
RTVSPropertyOp27
 70
     1
102
RTVSPropertyOp28
 70
     1
102
RTVSPropertyOp29
 70
     1
102
RTVSPropertyOp30
 70
     1
102
RTVSPropertyOp31
 70
     1
102
RTVSPropertyOp32
 70
     1
  0
XRECORD
  5
6D07
102
{ACAD_REACTORS
330
6D06
102
}
330
6D06
100
AcDbXrecord
280
     1
102
RTVSPropertyOp0
 70
     1
102
RTVSPropertyOp1
 70
     1
102
RTVSPropertyOp2
 70
     1
102
RTVSPropertyOp3
 70
     1
102
RTVSPropertyOp4
 70
     1
102
RTVSPropertyOp5
 70
     1
102
RTVSPropertyOp6
 70
     1
102
RTVSPropertyOp7
 70
     1
102
RTVSPropertyOp8
 70
     1
102
RTVSPropertyOp9
 70
     1
102
RTVSPropertyOp10
 70
     1
102
RTVSPropertyOp11
 70
     1
102
RTVSPropertyOp12
 70
     1
102
RTVSPropertyOp13
 70
     1
102
RTVSPropertyOp14
 70
     1
102
RTVSPropertyOp15
 70
     1
102
RTVSPropertyOp16
 70
     1
102
RTVSPropertyOp17
 70
     1
102
RTVSPropertyOp18
 70
     1
102
RTVSPropertyOp19
 70
     1
102
RTVSPropertyOp20
 70
     1
102
RTVSPropertyOp21
 70
     1
102
RTVSPropertyOp22
 70
     1
102
RTVSPropertyOp23
 70
     1
102
RTVSPropertyOp24
 70
     1
102
RTVSPropertyOp25
 70
     1
102
RTVSPropertyOp26
 70
     1
102
RTVSPropertyOp27
 70
     1
102
RTVSPropertyOp28
 70
     1
102
RTVSPropertyOp29
 70
     1
102
RTVSPropertyOp30
 70
     1
102
RTVSPropertyOp31
 70
     1
102
RTVSPropertyOp32
 70
     1
  0
XRECORD
  5
6D09
102
{ACAD_REACTORS
330
6D08
102
}
330
6D08
100
AcDbXrecord
280
     1
102
RTVSPropertyOp0
 70
     1
102
RTVSPropertyOp1
 70
     1
102
RTVSPropertyOp2
 70
     1
102
RTVSPropertyOp3
 70
     1
102
RTVSPropertyOp4
 70
     1
102
RTVSPropertyOp5
 70
     1
102
RTVSPropertyOp6
 70
     1
102
RTVSPropertyOp7
 70
     1
102
RTVSPropertyOp8
 70
     1
102
RTVSPropertyOp9
 70
     1
102
RTVSPropertyOp10
 70
     1
102
RTVSPropertyOp11
 70
     1
102
RTVSPropertyOp12
 70
     1
102
RTVSPropertyOp13
 70
     1
102
RTVSPropertyOp14
 70
     1
102
RTVSPropertyOp15
 70
     1
102
RTVSPropertyOp16
 70
     1
102
RTVSPropertyOp17
 70
     1
102
RTVSPropertyOp18
 70
     1
102
RTVSPropertyOp19
 70
     1
102
RTVSPropertyOp20
 70
     1
102
RTVSPropertyOp21
 70
     1
102
RTVSPropertyOp22
 70
     1
102
RTVSPropertyOp23
 70
     1
102
RTVSPropertyOp24
 70
     1
102
RTVSPropertyOp25
 70
     1
102
RTVSPropertyOp26
 70
     1
102
RTVSPropertyOp27
 70
     1
102
RTVSPropertyOp28
 70
     1
102
RTVSPropertyOp29
 70
     1
102
RTVSPropertyOp30
 70
     1
102
RTVSPropertyOp31
 70
     1
102
RTVSPropertyOp32
 70
     1
  0
XRECORD
  5
6D11
102
{ACAD_REACTORS
330
6D10
102
}
330
6D10
100
AcDbXrecord
280
     1
102
RTVSPropertyOp0
 70
     1
102
RTVSPropertyOp1
 70
     1
102
RTVSPropertyOp2
 70
     1
102
RTVSPropertyOp3
 70
     1
102
RTVSPropertyOp4
 70
     1
102
RTVSPropertyOp5
 70
     1
102
RTVSPropertyOp6
 70
     1
102
RTVSPropertyOp7
 70
     1
102
RTVSPropertyOp8
 70
     1
102
RTVSPropertyOp9
 70
     1
102
RTVSPropertyOp10
 70
     1
102
RTVSPropertyOp11
 70
     1
102
RTVSPropertyOp12
 70
     1
102
RTVSPropertyOp13
 70
     1
102
RTVSPropertyOp14
 70
     1
102
RTVSPropertyOp15
 70
     1
102
RTVSPropertyOp16
 70
     1
102
RTVSPropertyOp17
 70
     1
102
RTVSPropertyOp18
 70
     1
102
RTVSPropertyOp19
 70
     1
102
RTVSPropertyOp20
 70
     1
102
RTVSPropertyOp21
 70
     1
102
RTVSPropertyOp22
 70
     1
102
RTVSPropertyOp23
 70
     1
102
RTVSPropertyOp24
 70
     1
102
RTVSPropertyOp25
 70
     1
102
RTVSPropertyOp26
 70
     1
102
RTVSPropertyOp27
 70
     1
102
RTVSPropertyOp28
 70
     1
102
RTVSPropertyOp29
 70
     1
102
RTVSPropertyOp30
 70
     1
102
RTVSPropertyOp31
 70
     1
102
RTVSPropertyOp32
 70
     1
  0
XRECORD
  5
6D2D
102
{ACAD_REACTORS
330
6D2C
102
}
330
6D2C
100
AcDbXrecord
280
     1
102
RTVSPropertyOp0
 70
     0
102
RTVSPropertyOp1
 70
     0
102
RTVSPropertyOp2
 70
     0
102
RTVSPropertyOp3
 70
     0
102
RTVSPropertyOp4
 70
     0
102
RTVSPropertyOp5
 70
     0
102
RTVSPropertyOp6
 70
     0
102
RTVSPropertyOp7
 70
     0
102
RTVSPropertyOp8
 70
     0
102
RTVSPropertyOp9
 70
     0
102
RTVSPropertyOp10
 70
     0
102
RTVSPropertyOp11
 70
     0
102
RTVSPropertyOp12
 70
     0
102
RTVSPropertyOp13
 70
     0
102
RTVSPropertyOp14
 70
     2
102
RTVSPropertyOp15
 70
     0
102
RTVSPropertyOp16
 70
     0
102
RTVSPropertyOp17
 70
     0
102
RTVSPropertyOp18
 70
     0
102
RTVSPropertyOp19
 70
     0
102
RTVSPropertyOp20
 70
     0
102
RTVSPropertyOp21
 70
     0
102
RTVSPropertyOp22
 70
     0
102
RTVSPropertyOp23
 70
     0
102
RTVSPropertyOp24
 70
     0
102
RTVSPropertyOp25
 70
     0
102
RTVSPropertyOp26
 70
     0
102
RTVSPropertyOp27
 70
     0
102
RTVSPropertyOp28
 70
     1
102
RTVSPropertyOp29
 70
     1
102
RTVSPropertyOp30
 70
     1
102
RTVSPropertyOp31
 70
     1
102
RTVSPropertyOp32
 70
     1
  0
XRECORD
  5
6D1D
102
{ACAD_REACTORS
330
6D1C
102
}
330
6D1C
100
AcDbXrecord
280
     1
102
RTVSPropertyOp0
 70
     1
102
RTVSPropertyOp1
 70
     1
102
RTVSPropertyOp2
 70
     1
102
RTVSPropertyOp3
 70
     1
102
RTVSPropertyOp4
 70
     1
102
RTVSPropertyOp5
 70
     1
102
RTVSPropertyOp6
 70
     1
102
RTVSPropertyOp7
 70
     1
102
RTVSPropertyOp8
 70
     1
102
RTVSPropertyOp9
 70
     1
102
RTVSPropertyOp10
 70
     1
102
RTVSPropertyOp11
 70
     1
102
RTVSPropertyOp12
 70
     1
102
RTVSPropertyOp13
 70
     1
102
RTVSPropertyOp14
 70
     1
102
RTVSPropertyOp15
 70
     1
102
RTVSPropertyOp16
 70
     1
102
RTVSPropertyOp17
 70
     1
102
RTVSPropertyOp18
 70
     1
102
RTVSPropertyOp19
 70
     1
102
RTVSPropertyOp20
 70
     1
102
RTVSPropertyOp21
 70
     1
102
RTVSPropertyOp22
 70
     1
102
RTVSPropertyOp23
 70
     1
102
RTVSPropertyOp24
 70
     1
102
RTVSPropertyOp25
 70
     1
102
RTVSPropertyOp26
 70
     1
102
RTVSPropertyOp27
 70
     1
102
RTVSPropertyOp28
 70
     1
102
RTVSPropertyOp29
 70
     1
102
RTVSPropertyOp30
 70
     1
102
RTVSPropertyOp31
 70
     1
102
RTVSPropertyOp32
 70
     1
  0
XRECORD
  5
6D2F
102
{ACAD_REACTORS
330
6D2E
102
}
330
6D2E
100
AcDbXrecord
280
     1
102
RTVSPropertyOp0
 70
     0
102
RTVSPropertyOp1
 70
     0
102
RTVSPropertyOp2
 70
     0
102
RTVSPropertyOp3
 70
     0
102
RTVSPropertyOp4
 70
     0
102
RTVSPropertyOp5
 70
     0
102
RTVSPropertyOp6
 70
     0
102
RTVSPropertyOp7
 70
     0
102
RTVSPropertyOp8
 70
     0
102
RTVSPropertyOp9
 70
     0
102
RTVSPropertyOp10
 70
     0
102
RTVSPropertyOp11
 70
     0
102
RTVSPropertyOp12
 70
     0
102
RTVSPropertyOp13
 70
     0
102
RTVSPropertyOp14
 70
     2
102
RTVSPropertyOp15
 70
     0
102
RTVSPropertyOp16
 70
     0
102
RTVSPropertyOp17
 70
     0
102
RTVSPropertyOp18
 70
     0
102
RTVSPropertyOp19
 70
     0
102
RTVSPropertyOp20
 70
     0
102
RTVSPropertyOp21
 70
     0
102
RTVSPropertyOp22
 70
     0
102
RTVSPropertyOp23
 70
     0
102
RTVSPropertyOp24
 70
     0
102
RTVSPropertyOp25
 70
     0
102
RTVSPropertyOp26
 70
     0
102
RTVSPropertyOp27
 70
     0
102
RTVSPropertyOp28
 70
     1
102
RTVSPropertyOp29
 70
     1
102
RTVSPropertyOp30
 70
     1
102
RTVSPropertyOp31
 70
     1
102
RTVSPropertyOp32
 70
     1
  0
XRECORD
  5
6D15
102
{ACAD_REACTORS
330
6D14
102
}
330
6D14
100
AcDbXrecord
280
     1
102
RTVSPropertyOp0
 70
     1
102
RTVSPropertyOp1
 70
     1
102
RTVSPropertyOp2
 70
     1
102
RTVSPropertyOp3
 70
     1
102
RTVSPropertyOp4
 70
     1
102
RTVSPropertyOp5
 70
     1
102
RTVSPropertyOp6
 70
     1
102
RTVSPropertyOp7
 70
     1
102
RTVSPropertyOp8
 70
     1
102
RTVSPropertyOp9
 70
     1
102
RTVSPropertyOp10
 70
     1
102
RTVSPropertyOp11
 70
     1
102
RTVSPropertyOp12
 70
     1
102
RTVSPropertyOp13
 70
     1
102
RTVSPropertyOp14
 70
     1
102
RTVSPropertyOp15
 70
     1
102
RTVSPropertyOp16
 70
     1
102
RTVSPropertyOp17
 70
     1
102
RTVSPropertyOp18
 70
     1
102
RTVSPropertyOp19
 70
     1
102
RTVSPropertyOp20
 70
     1
102
RTVSPropertyOp21
 70
     1
102
RTVSPropertyOp22
 70
     1
102
RTVSPropertyOp23
 70
     1
102
RTVSPropertyOp24
 70
     1
102
RTVSPropertyOp25
 70
     1
102
RTVSPropertyOp26
 70
     1
102
RTVSPropertyOp27
 70
     1
102
RTVSPropertyOp28
 70
     1
102
RTVSPropertyOp29
 70
     1
102
RTVSPropertyOp30
 70
     1
102
RTVSPropertyOp31
 70
     1
102
RTVSPropertyOp32
 70
     1
  0
XRECORD
  5
6D2B
102
{ACAD_REACTORS
330
6D2A
102
}
330
6D2A
100
AcDbXrecord
280
     1
102
RTVSPropertyOp0
 70
     1
102
RTVSPropertyOp1
 70
     1
102
RTVSPropertyOp2
 70
     1
102
RTVSPropertyOp3
 70
     1
102
RTVSPropertyOp4
 70
     1
102
RTVSPropertyOp5
 70
     1
102
RTVSPropertyOp6
 70
     1
102
RTVSPropertyOp7
 70
     1
102
RTVSPropertyOp8
 70
     1
102
RTVSPropertyOp9
 70
     1
102
RTVSPropertyOp10
 70
     1
102
RTVSPropertyOp11
 70
     1
102
RTVSPropertyOp12
 70
     1
102
RTVSPropertyOp13
 70
     1
102
RTVSPropertyOp14
 70
     1
102
RTVSPropertyOp15
 70
     1
102
RTVSPropertyOp16
 70
     1
102
RTVSPropertyOp17
 70
     1
102
RTVSPropertyOp18
 70
     1
102
RTVSPropertyOp19
 70
     1
102
RTVSPropertyOp20
 70
     1
102
RTVSPropertyOp21
 70
     1
102
RTVSPropertyOp22
 70
     1
102
RTVSPropertyOp23
 70
     1
102
RTVSPropertyOp24
 70
     1
102
RTVSPropertyOp25
 70
     1
102
RTVSPropertyOp26
 70
     1
102
RTVSPropertyOp27
 70
     1
102
RTVSPropertyOp28
 70
     1
102
RTVSPropertyOp29
 70
     1
102
RTVSPropertyOp30
 70
     1
102
RTVSPropertyOp31
 70
     1
102
RTVSPropertyOp32
 70
     1
  0
XRECORD
  5
6D29
102
{ACAD_REACTORS
330
6D28
102
}
330
6D28
100
AcDbXrecord
280
     1
102
RTVSPropertyOp0
 70
     1
102
RTVSPropertyOp1
 70
     1
102
RTVSPropertyOp2
 70
     1
102
RTVSPropertyOp3
 70
     1
102
RTVSPropertyOp4
 70
     1
102
RTVSPropertyOp5
 70
     1
102
RTVSPropertyOp6
 70
     1
102
RTVSPropertyOp7
 70
     1
102
RTVSPropertyOp8
 70
     1
102
RTVSPropertyOp9
 70
     1
102
RTVSPropertyOp10
 70
     1
102
RTVSPropertyOp11
 70
     1
102
RTVSPropertyOp12
 70
     1
102
RTVSPropertyOp13
 70
     1
102
RTVSPropertyOp14
 70
     1
102
RTVSPropertyOp15
 70
     1
102
RTVSPropertyOp16
 70
     1
102
RTVSPropertyOp17
 70
     1
102
RTVSPropertyOp18
 70
     1
102
RTVSPropertyOp19
 70
     1
102
RTVSPropertyOp20
 70
     1
102
RTVSPropertyOp21
 70
     1
102
RTVSPropertyOp22
 70
     1
102
RTVSPropertyOp23
 70
     1
102
RTVSPropertyOp24
 70
     1
102
RTVSPropertyOp25
 70
     1
102
RTVSPropertyOp26
 70
     1
102
RTVSPropertyOp27
 70
     1
102
RTVSPropertyOp28
 70
     1
102
RTVSPropertyOp29
 70
     1
102
RTVSPropertyOp30
 70
     1
102
RTVSPropertyOp31
 70
     1
102
RTVSPropertyOp32
 70
     1
  0
XRECORD
  5
6D23
102
{ACAD_REACTORS
330
6D22
102
}
330
6D22
100
AcDbXrecord
280
     1
102
RTVSPropertyOp0
 70
     1
102
RTVSPropertyOp1
 70
     1
102
RTVSPropertyOp2
 70
     1
102
RTVSPropertyOp3
 70
     1
102
RTVSPropertyOp4
 70
     1
102
RTVSPropertyOp5
 70
     1
102
RTVSPropertyOp6
 70
     1
102
RTVSPropertyOp7
 70
     1
102
RTVSPropertyOp8
 70
     1
102
RTVSPropertyOp9
 70
     1
102
RTVSPropertyOp10
 70
     1
102
RTVSPropertyOp11
 70
     1
102
RTVSPropertyOp12
 70
     1
102
RTVSPropertyOp13
 70
     1
102
RTVSPropertyOp14
 70
     1
102
RTVSPropertyOp15
 70
     1
102
RTVSPropertyOp16
 70
     1
102
RTVSPropertyOp17
 70
     1
102
RTVSPropertyOp18
 70
     1
102
RTVSPropertyOp19
 70
     1
102
RTVSPropertyOp20
 70
     1
102
RTVSPropertyOp21
 70
     1
102
RTVSPropertyOp22
 70
     1
102
RTVSPropertyOp23
 70
     1
102
RTVSPropertyOp24
 70
     1
102
RTVSPropertyOp25
 70
     1
102
RTVSPropertyOp26
 70
     1
102
RTVSPropertyOp27
 70
     1
102
RTVSPropertyOp28
 70
     1
102
RTVSPropertyOp29
 70
     1
102
RTVSPropertyOp30
 70
     1
102
RTVSPropertyOp31
 70
     1
102
RTVSPropertyOp32
 70
     1
  0
XRECORD
  5
6D25
102
{ACAD_REACTORS
330
6D24
102
}
330
6D24
100
AcDbXrecord
280
     1
102
RTVSPropertyOp0
 70
     1
102
RTVSPropertyOp1
 70
     1
102
RTVSPropertyOp2
 70
     1
102
RTVSPropertyOp3
 70
     1
102
RTVSPropertyOp4
 70
     1
102
RTVSPropertyOp5
 70
     1
102
RTVSPropertyOp6
 70
     1
102
RTVSPropertyOp7
 70
     1
102
RTVSPropertyOp8
 70
     1
102
RTVSPropertyOp9
 70
     1
102
RTVSPropertyOp10
 70
     1
102
RTVSPropertyOp11
 70
     1
102
RTVSPropertyOp12
 70
     1
102
RTVSPropertyOp13
 70
     1
102
RTVSPropertyOp14
 70
     1
102
RTVSPropertyOp15
 70
     1
102
RTVSPropertyOp16
 70
     1
102
RTVSPropertyOp17
 70
     1
102
RTVSPropertyOp18
 70
     1
102
RTVSPropertyOp19
 70
     1
102
RTVSPropertyOp20
 70
     1
102
RTVSPropertyOp21
 70
     1
102
RTVSPropertyOp22
 70
     1
102
RTVSPropertyOp23
 70
     1
102
RTVSPropertyOp24
 70
     1
102
RTVSPropertyOp25
 70
     1
102
RTVSPropertyOp26
 70
     1
102
RTVSPropertyOp27
 70
     1
102
RTVSPropertyOp28
 70
     1
102
RTVSPropertyOp29
 70
     1
102
RTVSPropertyOp30
 70
     1
102
RTVSPropertyOp31
 70
     1
102
RTVSPropertyOp32
 70
     1
  0
XRECORD
  5
6D1B
102
{ACAD_REACTORS
330
6D1A
102
}
330
6D1A
100
AcDbXrecord
280
     1
102
RTVSPropertyOp0
 70
     1
102
RTVSPropertyOp1
 70
     1
102
RTVSPropertyOp2
 70
     1
102
RTVSPropertyOp3
 70
     1
102
RTVSPropertyOp4
 70
     1
102
RTVSPropertyOp5
 70
     1
102
RTVSPropertyOp6
 70
     1
102
RTVSPropertyOp7
 70
     1
102
RTVSPropertyOp8
 70
     1
102
RTVSPropertyOp9
 70
     1
102
RTVSPropertyOp10
 70
     1
102
RTVSPropertyOp11
 70
     1
102
RTVSPropertyOp12
 70
     1
102
RTVSPropertyOp13
 70
     1
102
RTVSPropertyOp14
 70
     1
102
RTVSPropertyOp15
 70
     1
102
RTVSPropertyOp16
 70
     1
102
RTVSPropertyOp17
 70
     1
102
RTVSPropertyOp18
 70
     1
102
RTVSPropertyOp19
 70
     1
102
RTVSPropertyOp20
 70
     1
102
RTVSPropertyOp21
 70
     1
102
RTVSPropertyOp22
 70
     1
102
RTVSPropertyOp23
 70
     1
102
RTVSPropertyOp24
 70
     1
102
RTVSPropertyOp25
 70
     1
102
RTVSPropertyOp26
 70
     1
102
RTVSPropertyOp27
 70
     1
102
RTVSPropertyOp28
 70
     1
102
RTVSPropertyOp29
 70
     1
102
RTVSPropertyOp30
 70
     1
102
RTVSPropertyOp31
 70
     1
102
RTVSPropertyOp32
 70
     1
  0
XRECORD
  5
6D0F
102
{ACAD_REACTORS
330
6D0E
102
}
330
6D0E
100
AcDbXrecord
280
     1
102
RTVSPropertyOp0
 70
     1
102
RTVSPropertyOp1
 70
     1
102
RTVSPropertyOp2
 70
     1
102
RTVSPropertyOp3
 70
     1
102
RTVSPropertyOp4
 70
     1
102
RTVSPropertyOp5
 70
     1
102
RTVSPropertyOp6
 70
     1
102
RTVSPropertyOp7
 70
     1
102
RTVSPropertyOp8
 70
     1
102
RTVSPropertyOp9
 70
     1
102
RTVSPropertyOp10
 70
     1
102
RTVSPropertyOp11
 70
     1
102
RTVSPropertyOp12
 70
     1
102
RTVSPropertyOp13
 70
     1
102
RTVSPropertyOp14
 70
     1
102
RTVSPropertyOp15
 70
     1
102
RTVSPropertyOp16
 70
     1
102
RTVSPropertyOp17
 70
     1
102
RTVSPropertyOp18
 70
     1
102
RTVSPropertyOp19
 70
     1
102
RTVSPropertyOp20
 70
     1
102
RTVSPropertyOp21
 70
     1
102
RTVSPropertyOp22
 70
     1
102
RTVSPropertyOp23
 70
     1
102
RTVSPropertyOp24
 70
     1
102
RTVSPropertyOp25
 70
     1
102
RTVSPropertyOp26
 70
     1
102
RTVSPropertyOp27
 70
     1
102
RTVSPropertyOp28
 70
     1
102
RTVSPropertyOp29
 70
     1
102
RTVSPropertyOp30
 70
     1
102
RTVSPropertyOp31
 70
     1
102
RTVSPropertyOp32
 70
     1
  0
XRECORD
  5
6D27
102
{ACAD_REACTORS
330
6D26
102
}
330
6D26
100
AcDbXrecord
280
     1
102
RTVSPropertyOp0
 70
     1
102
RTVSPropertyOp1
 70
     1
102
RTVSPropertyOp2
 70
     1
102
RTVSPropertyOp3
 70
     1
102
RTVSPropertyOp4
 70
     1
102
RTVSPropertyOp5
 70
     1
102
RTVSPropertyOp6
 70
     1
102
RTVSPropertyOp7
 70
     1
102
RTVSPropertyOp8
 70
     1
102
RTVSPropertyOp9
 70
     1
102
RTVSPropertyOp10
 70
     1
102
RTVSPropertyOp11
 70
     1
102
RTVSPropertyOp12
 70
     1
102
RTVSPropertyOp13
 70
     1
102
RTVSPropertyOp14
 70
     1
102
RTVSPropertyOp15
 70
     1
102
RTVSPropertyOp16
 70
     1
102
RTVSPropertyOp17
 70
     1
102
RTVSPropertyOp18
 70
     1
102
RTVSPropertyOp19
 70
     1
102
RTVSPropertyOp20
 70
     1
102
RTVSPropertyOp21
 70
     1
102
RTVSPropertyOp22
 70
     1
102
RTVSPropertyOp23
 70
     1
102
RTVSPropertyOp24
 70
     1
102
RTVSPropertyOp25
 70
     1
102
RTVSPropertyOp26
 70
     1
102
RTVSPropertyOp27
 70
     1
102
RTVSPropertyOp28
 70
     1
102
RTVSPropertyOp29
 70
     1
102
RTVSPropertyOp30
 70
     1
102
RTVSPropertyOp31
 70
     1
102
RTVSPropertyOp32
 70
     1
  0
ENDSEC
  0
EOF
