  0
SECTION
  2
HEADER
  9
$ACADVER
  1
AC1015
  9
$ACADMAINTVER
 70
    20
  9
$DWGCODEPAGE
  3
ANSI_1252
  9
$INSBASE
 10
0.0
 20
0.0
 30
0.0
  9
$EXTMIN
 10
-0.0020305976743771
 20
-0.0012224883046201
 30
-0.0015258207003583
  9
$EXTMAX
 10
66.54573230532122
 20
40.06277584804668
 30
0.0000000349246037
  9
$LIMMIN
 10
0.0
 20
0.0
  9
$LIMMAX
 10
12.0
 20
9.0
  9
$ORTHOMODE
 70
     0
  9
$REGENMODE
 70
     1
  9
$FILLMODE
 70
     1
  9
$QTEXTMODE
 70
     0
  9
$MIRRTEXT
 70
     1
  9
$LTSCALE
 40
0.5
  9
$ATTMODE
 70
     1
  9
$TEXTSIZE
 40
0.25
  9
$TRACEWID
 40
0.05
  9
$TEXTSTYLE
  7
STANDARD
  9
$CLAYER
  8
0
  9
$CELTYPE
  6
BYLAYER
  9
$CECOLOR
 62
   256
  9
$CELTSCALE
 40
1.0
  9
$DISPSILH
 70
     0
  9
$DIMSCALE
 40
1.0
  9
$DIMASZ
 40
0.2
  9
$DIMEXO
 40
0.125
  9
$DIMDLI
 40
0.375
  9
$DIMRND
 40
0.0
  9
$DIMDLE
 40
0.0
  9
$DIMEXE
 40
0.125
  9
$DIMTP
 40
0.0
  9
$DIMTM
 40
0.0
  9
$DIMTXT
 40
0.25
  9
$DIMCEN
 40
0.0
  9
$DIMTSZ
 40
0.0
  9
$DIMTOL
 70
     0
  9
$DIMLIM
 70
     0
  9
$DIMTIH
 70
     0
  9
$DIMTOH
 70
     0
  9
$DIMSE1
 70
     0
  9
$DIMSE2
 70
     0
  9
$DIMTAD
 70
     1
  9
$DIMZIN
 70
     3
  9
$DIMBLK
  1

  9
$DIMASO
 70
     1
  9
$DIMSHO
 70
     1
  9
$DIMPOST
  1

  9
$DIMAPOST
  1

  9
$DIMALT
 70
     0
  9
$DIMALTD
 70
     2
  9
$DIMALTF
 40
25.4
  9
$DIMLFAC
 40
1.0
  9
$DIMTOFL
 70
     0
  9
$DIMTVP
 40
0.0
  9
$DIMTIX
 70
     0
  9
$DIMSOXD
 70
     0
  9
$DIMSAH
 70
     0
  9
$DIMBLK1
  1

  9
$DIMBLK2
  1

  9
$DIMSTYLE
  2
STANDARD
  9
$DIMCLRD
 70
     0
  9
$DIMCLRE
 70
     0
  9
$DIMCLRT
 70
     0
  9
$DIMTFAC
 40
1.0
  9
$DIMGAP
 40
0.125
  9
$DIMJUST
 70
     0
  9
$DIMSD1
 70
     0
  9
$DIMSD2
 70
     0
  9
$DIMTOLJ
 70
     1
  9
$DIMTZIN
 70
     3
  9
$DIMALTZ
 70
     3
  9
$DIMALTTZ
 70
     3
  9
$DIMUPT
 70
     0
  9
$DIMDEC
 70
     5
  9
$DIMTDEC
 70
     5
  9
$DIMALTU
 70
     4
  9
$DIMALTTD
 70
     2
  9
$DIMTXSTY
  7
STANDARD
  9
$DIMAUNIT
 70
     0
  9
$DIMADEC
 70
     0
  9
$DIMALTRND
 40
0.0
  9
$DIMAZIN
 70
     0
  9
$DIMDSEP
 70
    46
  9
$DIMATFIT
 70
     0
  9
$DIMFRAC
 70
     2
  9
$DIMLDRBLK
  1

  9
$DIMLUNIT
 70
     4
  9
$DIMLWD
 70
    -2
  9
$DIMLWE
 70
    -2
  9
$DIMTMOVE
 70
     0
  9
$LUNITS
 70
     2
  9
$LUPREC
 70
     5
  9
$SKETCHINC
 40
0.1
  9
$FILLETRAD
 40
0.0
  9
$AUNITS
 70
     0
  9
$AUPREC
 70
     0
  9
$MENU
  1
ACAD
  9
$ELEVATION
 40
0.0
  9
$PELEVATION
 40
0.0
  9
$THICKNESS
 40
0.0
  9
$LIMCHECK
 70
     0
  9
$CHAMFERA
 40
0.0
  9
$CHAMFERB
 40
0.0
  9
$CHAMFERC
 40
0.0
  9
$CHAMFERD
 40
0.0
  9
$SKPOLY
 70
     0
  9
$TDCREATE
 40
2450777.579237616
  9
$TDUCREATE
 40
2450777.745904282
  9
$TDUPDATE
 40
2457827.602219630
  9
$TDUUPDATE
 40
2457827.768886296
  9
$TDINDWG
 40
0.6255182176
  9
$TDUSRTIMER
 40
0.6255182176
  9
$USRTIMER
 70
     1
  9
$ANGBASE
 50
0.0
  9
$ANGDIR
 70
     0
  9
$PDMODE
 70
     0
  9
$PDSIZE
 40
0.0
  9
$PLINEWID
 40
0.0
  9
$SPLFRAME
 70
     0
  9
$SPLINETYPE
 70
     6
  9
$SPLINESEGS
 70
     8
  9
$HANDSEED
  5
6FB2
  9
$SURFTAB1
 70
     6
  9
$SURFTAB2
 70
     6
  9
$SURFTYPE
 70
     6
  9
$SURFU
 70
     6
  9
$SURFV
 70
     6
  9
$UCSBASE
  2

  9
$UCSNAME
  2

  9
$UCSORG
 10
0.0
 20
0.0
 30
0.0
  9
$UCSXDIR
 10
1.0
 20
0.0
 30
0.0
  9
$UCSYDIR
 10
0.0
 20
1.0
 30
0.0
  9
$UCSORTHOREF
  2

  9
$UCSORTHOVIEW
 70
     0
  9
$UCSORGTOP
 10
0.0
 20
0.0
 30
0.0
  9
$UCSORGBOTTOM
 10
0.0
 20
0.0
 30
0.0
  9
$UCSORGLEFT
 10
0.0
 20
0.0
 30
0.0
  9
$UCSORGRIGHT
 10
0.0
 20
0.0
 30
0.0
  9
$UCSORGFRONT
 10
0.0
 20
0.0
 30
0.0
  9
$UCSORGBACK
 10
0.0
 20
0.0
 30
0.0
  9
$PUCSBASE
  2

  9
$PUCSNAME
  2

  9
$PUCSORG
 10
0.0
 20
0.0
 30
0.0
  9
$PUCSXDIR
 10
1.0
 20
0.0
 30
0.0
  9
$PUCSYDIR
 10
0.0
 20
1.0
 30
0.0
  9
$PUCSORTHOREF
  2

  9
$PUCSORTHOVIEW
 70
     0
  9
$PUCSORGTOP
 10
0.0
 20
0.0
 30
0.0
  9
$PUCSORGBOTTOM
 10
0.0
 20
0.0
 30
0.0
  9
$PUCSORGLEFT
 10
0.0
 20
0.0
 30
0.0
  9
$PUCSORGRIGHT
 10
0.0
 20
0.0
 30
0.0
  9
$PUCSORGFRONT
 10
0.0
 20
0.0
 30
0.0
  9
$PUCSORGBACK
 10
0.0
 20
0.0
 30
0.0
  9
$USERI1
 70
     0
  9
$USERI2
 70
     0
  9
$USERI3
 70
     0
  9
$USERI4
 70
     0
  9
$USERI5
 70
     0
  9
$USERR1
 40
0.0
  9
$USERR2
 40
0.0
  9
$USERR3
 40
0.0
  9
$USERR4
 40
0.0
  9
$USERR5
 40
0.0
  9
$WORLDVIEW
 70
     1
  9
$SHADEDGE
 70
     3
  9
$SHADEDIF
 70
    70
  9
$TILEMODE
 70
     1
  9
$MAXACTVP
 70
    16
  9
$PINSBASE
 10
0.0
 20
0.0
 30
0.0
  9
$PLIMCHECK
 70
     0
  9
$PEXTMIN
 10
1.000000000000000E+20
 20
1.000000000000000E+20
 30
1.000000000000000E+20
  9
$PEXTMAX
 10
-1.000000000000000E+20
 20
-1.000000000000000E+20
 30
-1.000000000000000E+20
  9
$PLIMMIN
 10
0.0
 20
0.0
  9
$PLIMMAX
 10
12.0
 20
9.0
  9
$UNITMODE
 70
     0
  9
$VISRETAIN
 70
     0
  9
$PLINEGEN
 70
     0
  9
$PSLTSCALE
 70
     1
  9
$TREEDEPTH
 70
  3020
  9
$CMLSTYLE
  2
STANDARD
  9
$CMLJUST
 70
     0
  9
$CMLSCALE
 40
1.0
  9
$PROXYGRAPHICS
 70
     1
  9
$MEASUREMENT
 70
     0
  9
$CELWEIGHT
370
    -1
  9
$ENDCAPS
280
     0
  9
$JOINSTYLE
280
     0
  9
$LWDISPLAY
290
     0
  9
$INSUNITS
 70
     0
  9
$HYPERLINKBASE
  1

  9
$STYLESHEET
  1
monochrome2.ctb
  9
$XEDIT
290
     1
  9
$CEPSNTYPE
380
     0
  9
$PSTYLEMODE
290
     1
  9
$FINGERPRINTGUID
  2
{AFB9463B-F323-4607-850C-DC68DBB64F67}
  9
$VERSIONGUID
  2
{3E21A11F-95D3-4D64-B3AB-8A7695BD172E}
  9
$EXTNAMES
290
     1
  9
$PSVPSCALE
 40
0.0
  9
$OLESTARTUP
290
     0
  0
ENDSEC
  0
SECTION
  2
CLASSES
  0
CLASS
  1
DICTIONARYVAR
  2
AcDbDictionaryVar
  3
ObjectDBX Classes
 90
        0
280
     0
281
     0
  0
CLASS
  1
ACDBDICTIONARYWDFLT
  2
AcDbDictionaryWithDefault
  3
ObjectDBX Classes
 90
        0
280
     0
281
     0
  0
CLASS
  1
ACDBPLACEHOLDER
  2
AcDbPlaceHolder
  3
ObjectDBX Classes
 90
        0
280
     0
281
     0
  0
CLASS
  1
LAYOUT
  2
AcDbLayout
  3
ObjectDBX Classes
 90
        0
280
     0
281
     0
  0
CLASS
  1
MATERIAL
  2
AcDbMaterial
  3
ObjectDBX Classes
 90
     1153
280
     0
281
     0
  0
CLASS
  1
VISUALSTYLE
  2
AcDbVisualStyle
  3
ObjectDBX Classes
 90
     4095
280
     0
281
     0
  0
CLASS
  1
TABLESTYLE
  2
AcDbTableStyle
  3
ObjectDBX Classes
 90
     4095
280
     0
281
     0
  0
CLASS
  1
SCALE
  2
AcDbScale
  3
ObjectDBX Classes
 90
     1153
280
     0
281
     0
  0
CLASS
  1
MLEADERSTYLE
  2
AcDbMLeaderStyle
  3
ACDB_MLEADERSTYLE_CLASS
 90
     4095
280
     0
281
     0
  0
CLASS
  1
SORTENTSTABLE
  2
AcDbSortentsTable
  3
ObjectDBX Classes
 90
        0
280
     0
281
     0
  0
CLASS
  1
CELLSTYLEMAP
  2
AcDbCellStyleMap
  3
ObjectDBX Classes
 90
     1152
280
     0
281
     0
  0
CLASS
  1
EXACXREFPANELOBJECT
  2
ExAcXREFPanelObject
  3
EXAC_ESW
 90
     1025
280
     0
281
     0
  0
CLASS
  1
NPOCOLLECTION
  2
AcDbImpNonPersistentObjectsCollection
  3
ObjectDBX Classes
 90
     1153
280
     0
281
     0
  0
CLASS
  1
FIELD
  2
AcDbField
  3
ObjectDBX Classes
 90
    33920
280
     0
281
     0
  0
CLASS
  1
FIELDLIST
  2
AcDbFieldList
  3
ObjectDBX Classes
 90
     1152
280
     0
281
     0
  0
ENDSEC
  0
SECTION
  2
TABLES
  0
TABLE
  2
VPORT
  5
8
102
{ACAD_XDICTIONARY
360
6BD3
102
}
330
0
100
AcDbSymbolTable
 70
     1
  0
VPORT
  5
6B4A
330
8
100
AcDbSymbolTableRecord
100
AcDbViewportTableRecord
  2
*Active
 70
     0
 10
0.0
 20
0.0
 11
1.0
 21
1.0
 12
33.27185085382343
 22
20.03077667987103
 13
0.0
 23
0.0
 14
1.0
 24
1.0
 15
0.0
 25
0.0
 16
0.0
 26
0.0
 36
1.0
 17
0.0
 27
0.0
 37
0.0
 40
40.33778420197556
 41
2.123147092360319
 42
50.0
 43
0.0
 44
0.0
 50
0.0
 51
0.0
 71
     0
 72
  2000
 73
     1
 74
     0
 75
     0
 76
     0
 77
     0
 78
     0
281
     0
 65
     1
110
0.0
120
0.0
130
0.0
111
1.0
121
0.0
131
0.0
112
0.0
122
1.0
132
0.0
 79
     0
146
0.0
1001
ACAD_NAV_VCDISPLAY
1070
     3
  0
ENDTAB
  0
TABLE
  2
LTYPE
  5
5
330
0
100
AcDbSymbolTable
 70
     8
  0
LTYPE
  5
11
330
5
100
AcDbSymbolTableRecord
100
AcDbLinetypeTableRecord
  2
BYBLOCK
 70
     0
  3

 72
    65
 73
     0
 40
0.0
  0
LTYPE
  5
12
330
5
100
AcDbSymbolTableRecord
100
AcDbLinetypeTableRecord
  2
BYLAYER
 70
     0
  3

 72
    65
 73
     0
 40
0.0
  0
LTYPE
  5
13
330
5
100
AcDbSymbolTableRecord
100
AcDbLinetypeTableRecord
  2
CONTINUOUS
 70
     0
  3
Solid line
 72
    65
 73
     0
 40
0.0
  0
LTYPE
  5
5A68
330
5
100
AcDbSymbolTableRecord
100
AcDbLinetypeTableRecord
  2
HIDDEN
 70
     0
  3
Hidden __ __ __ __ __ __ __ __ __ __ __ __ __ _
 72
    65
 73
     2
 40
0.375
 49
0.25
 74
     0
 49
-0.125
 74
     0
  0
LTYPE
  5
5A69
330
5
100
AcDbSymbolTableRecord
100
AcDbLinetypeTableRecord
  2
CENTER
 70
     0
  3
CENTER LINE
 72
    65
 73
     4
 40
2.0
 49
1.25
 74
     0
 49
-0.25
 74
     0
 49
0.25
 74
     0
 49
-0.25
 74
     0
  0
LTYPE
  5
5B00
330
5
100
AcDbSymbolTableRecord
100
AcDbLinetypeTableRecord
  2
HIDDEN2
 70
     0
  3
Hidden (.5x) _ _ _ _ _ _ _ _ _ _ _ _ _ _ _ _ _
 72
    65
 73
     2
 40
0.1875
 49
0.125
 74
     0
 49
-0.0625
 74
     0
  0
LTYPE
  5
66C8
330
5
100
AcDbSymbolTableRecord
100
AcDbLinetypeTableRecord
  2
PHANTOM
 70
     0
  3
PHANTOM LINE
 72
    65
 73
     6
 40
2.5
 49
1.25
 74
     0
 49
-0.25
 74
     0
 49
0.25
 74
     0
 49
-0.25
 74
     0
 49
0.25
 74
     0
 49
-0.25
 74
     0
  0
ENDTAB
  0
TABLE
  2
LAYER
  5
2
102
{ACAD_XDICTIONARY
360
6BB2
102
}
330
0
100
AcDbSymbolTable
 70
     9
  0
LAYER
  5
E
102
{ACAD_XDICTIONARY
360
6BC2
102
}
330
2
100
AcDbSymbolTableRecord
100
AcDbLayerTableRecord
  2
0
 70
     0
 62
     7
  6
CONTINUOUS
370
    -3
390
485B
  0
LAYER
  5
5A6B
102
{ACAD_XDICTIONARY
360
6BC4
102
}
330
2
100
AcDbSymbolTableRecord
100
AcDbLayerTableRecord
  2
R-SWTS-DET1
 70
     0
 62
     1
  6
CONTINUOUS
370
    -3
390
485B
  0
LAYER
  5
5A6C
102
{ACAD_XDICTIONARY
360
6BC6
102
}
330
2
100
AcDbSymbolTableRecord
100
AcDbLayerTableRecord
  2
PART_NUMBERS
 70
     0
 62
     6
  6
CONTINUOUS
370
    -3
390
485B
  0
LAYER
  5
5A6D
102
{ACAD_XDICTIONARY
360
6BC8
102
}
330
2
100
AcDbSymbolTableRecord
100
AcDbLayerTableRecord
  2
R-ANNO-DIMS
 70
     0
 62
     3
  6
CONTINUOUS
370
    -3
390
485B
  0
LAYER
  5
5A6E
102
{ACAD_XDICTIONARY
360
6BCA
102
}
330
2
100
AcDbSymbolTableRecord
100
AcDbLayerTableRecord
  2
R-SWTS-DET2
 70
     0
 62
     4
  6
CONTINUOUS
370
    -3
390
485B
  0
LAYER
  5
5A6F
102
{ACAD_XDICTIONARY
360
6BCC
102
}
330
2
100
AcDbSymbolTableRecord
100
AcDbLayerTableRecord
  2
R-SWTS-DET3
 70
     0
 62
     5
  6
CONTINUOUS
370
    -3
390
485B
  0
LAYER
  5
6BB0
102
{ACAD_XDICTIONARY
360
6BB1
102
}
330
2
100
AcDbSymbolTableRecord
100
AcDbLayerTableRecord
  2
Kawneer Logo-English
 70
     0
 62
     7
  6
CONTINUOUS
370
    -3
390
485B
  0
LAYER
  5
6C2C
102
{ACAD_XDICTIONARY
360
6C2D
102
}
330
2
100
AcDbSymbolTableRecord
100
AcDbLayerTableRecord
  2
TEXT
 70
     0
 62
     3
  6
CONTINUOUS
370
    -3
390
485B
  0
ENDTAB
  0
TABLE
  2
STYLE
  5
3
330
0
100
AcDbSymbolTable
 70
     1
  0
STYLE
  5
F
330
3
100
AcDbSymbolTableRecord
100
AcDbTextStyleTableRecord
  2
STANDARD
 70
     0
 40
0.0
 41
1.0
 50
0.0
 71
     0
 42
0.25
  3
arial.ttf
  4

1001
ACAD
1000
Arial
1071
       34
  0
ENDTAB
  0
TABLE
  2
VIEW
  5
6
330
0
100
AcDbSymbolTable
 70
     0
  0
ENDTAB
  0
TABLE
  2
UCS
  5
7
330
0
100
AcDbSymbolTable
 70
     0
  0
ENDTAB
  0
TABLE
  2
APPID
  5
9
330
0
100
AcDbSymbolTable
 70
    26
  0
APPID
  5
10
330
9
100
AcDbSymbolTableRecord
100
AcDbRegAppTableRecord
  2
ACAD
 70
     0
  0
APPID
  5
6C30
330
9
100
AcDbSymbolTableRecord
100
AcDbRegAppTableRecord
  2
ACAD_NAV_VCDISPLAY
 70
     0
  0
APPID
  5
6FB1
330
9
100
AcDbSymbolTableRecord
100
AcDbRegAppTableRecord
  2
ACAD_MLEADERVER
 70
     0
  0
ENDTAB
  0
TABLE
  2
DIMSTYLE
  5
A
330
0
100
AcDbSymbolTable
 70
     3
100
AcDbDimStyleTable
 71
     0
  0
DIMSTYLE
105
26C
330
A
100
AcDbSymbolTableRecord
100
AcDbDimStyleTableRecord
  2
STANDARD
 70
     0
340
F
  0
DIMSTYLE
105
5B4C
330
A
100
AcDbSymbolTableRecord
100
AcDbDimStyleTableRecord
  2
FULL
 70
     0
  4
mm
 41
0.125
 42
0.125
 43
0.375
 44
0.09
 73
     0
 74
     0
 77
     3
140
0.09
141
0.0
147
0.04
171
     3
179
     8
271
     3
272
     3
273
     5
274
     3
276
     2
284
     3
285
     3
286
     3
289
     0
340
F
  0
ENDTAB
  0
TABLE
  2
BLOCK_RECORD
  5
1
330
0
100
AcDbSymbolTable
 70
     4
  0
BLOCK_RECORD
  5
17
102
{ACAD_XDICTIONARY
360
4A11
102
}
330
1
100
AcDbSymbolTableRecord
100
AcDbBlockTableRecord
  2
*MODEL_SPACE
340
485E
  0
BLOCK_RECORD
  5
14
102
{ACAD_XDICTIONARY
360
4A0F
102
}
330
1
100
AcDbSymbolTableRecord
100
AcDbBlockTableRecord
  2
*PAPER_SPACE
340
485F
  0
BLOCK_RECORD
  5
6F46
102
{ACAD_XDICTIONARY
360
6F47
102
}
330
1
100
AcDbSymbolTableRecord
100
AcDbBlockTableRecord
  2
Kawneer Logo English
340
0
102
{BLKREFS
331
6F59
331
6F61
102
}
1001
ACAD
1000
DesignCenter Data
1002
{
1070
     1
1070
     1
1002
}
  0
ENDTAB
  0
ENDSEC
  0
SECTION
  2
BLOCKS
  0
BLOCK
  5
3C
330
17
100
AcDbEntity
  8
0
100
AcDbBlockBegin
  2
*MODEL_SPACE
 70
     0
 10
0.0
 20
0.0
 30
0.0
  3
*MODEL_SPACE
  1

  0
ENDBLK
  5
3D
330
17
100
AcDbEntity
  8
0
100
AcDbBlockEnd
  0
BLOCK
  5
3A
330
14
100
AcDbEntity
 67
     1
  8
0
100
AcDbBlockBegin
  2
*PAPER_SPACE
 70
     0
 10
0.0
 20
0.0
 30
0.0
  3
*PAPER_SPACE
  1

  0
ENDBLK
  5
3B
330
14
100
AcDbEntity
 67
     1
  8
0
100
AcDbBlockEnd
  0
BLOCK
  5
6F49
330
6F46
100
AcDbEntity
  8
0
100
AcDbBlockBegin
  2
Kawneer Logo English
 70
     0
 10
0.0
 20
0.0
 30
0.0
  3
Kawneer Logo English
  1

  0
MTEXT
  5
6F4A
102
{ACAD_XDICTIONARY
360
6F75
102
}
330
6F46
100
AcDbEntity
  8
Kawneer Logo-English
100
AcDbMText
 10
1.510096758583198
 20
0.0372523876656778
 30
0.0
 40
0.036
 41
0.6125900866323382
 71
     3
 72
     5
  1
{\fArial TUR|b0|i0|c0|p34;\T1.05;AN ARCONIC COMPANY}
 73
     1
 44
1.0
1001
ACAD
1000
ACAD_MTEXT_COLUMN_INFO_BEGIN
1070
    75
1070
     2
1070
    79
1070
     0
1070
    76
1070
     1
1070
    78
1070
     0
1070
    48
1040
0.6125900866323382
1070
    49
1040
1.0
1070
    50
1070
     1
1040
0.0
1000
ACAD_MTEXT_COLUMN_INFO_END
1000
MTEXTBEGIN
1070
    73
1070
     1
1070
    44
1040
1.0
1070
    74
1070
     0
1000
MTEXTEND
  0
HATCH
  5
6F4B
330
6F46
100
AcDbEntity
  8
Kawneer Logo-English
100
AcDbHatch
 10
0.0
 20
0.0
 30
0.0
210
0.0
220
0.0
230
1.0
  2
SOLID
 70
     1
 71
     0
 91
        1
 92
        1
 93
       81
 72
     1
 10
0.2706169776412204
 20
0.0336337282279411
 11
0.2687512969786691
 21
0.0350329887248546
 72
     1
 10
0.2687512969786696
 20
0.0350329887248547
 11
0.2633408230572721
 21
0.039137486182467
 72
     1
 10
0.2633408230572729
 20
0.0391374861824669
 11
0.2550385441089194
 21
0.0453875164020133
 72
     1
 10
0.2550385441089191
 20
0.0453875164020132
 11
0.2442175962661241
 21
0.053596511317238
 72
     1
 10
0.2442175962661235
 20
0.0535965113172379
 11
0.2314376837276472
 21
0.0632980507625037
 72
     1
 10
0.2314376837276479
 20
0.0632980507625037
 11
0.2172585106922595
 21
0.0741189986052996
 72
     1
 10
0.2172585106922598
 20
0.0741189986052996
 11
0.2019599292593419
 21
0.0856862187131167
 72
     1
 10
0.201959929259341
 20
0.0856862187131167
 11
0.1862882116939105
 21
0.0976265749534437
 72
     1
 10
0.1862882116939102
 20
0.0976265749534437
 11
0.1706164941284813
 21
0.1095669311937706
 72
     1
 10
0.1706164941284811
 20
0.1095669311937709
 11
0.1553179126955632
 21
0.1211341513015875
 72
     1
 10
0.1553179126955642
 20
0.1211341513015876
 11
0.1411387396601757
 21
0.131955099144384
 72
     1
 10
0.1411387396601755
 20
0.1319550991443839
 11
0.1284521111548274
 21
0.141749922622777
 72
     1
 10
0.1284521111548278
 20
0.1417499226227768
 11
0.117631163312031
 21
0.1499589175380016
 72
     1
 10
0.1176311633120304
 20
0.1499589175380017
 11
0.1094221683968068
 21
0.1563022317906752
 72
     1
 10
0.1094221683968062
 20
0.1563022317906754
 11
0.1041049785085351
 21
0.1604067292482882
 72
     1
 10
0.1041049785085351
 20
0.1604067292482878
 11
0.1023325818791119
 21
0.1618992737783286
 72
     1
 10
0.1023325818791116
 20
0.1618992737783289
 11
0.1043848306079176
 21
0.1636716704077524
 72
     1
 10
0.1043848306079194
 20
0.1636716704077524
 11
0.1100751566286996
 21
0.1683358720641301
 72
     1
 10
0.1100751566286986
 20
0.1683358720641301
 11
0.1189371397758159
 21
0.1757053106812067
 72
     1
 10
0.1189371397758161
 20
0.1757053106812067
 11
0.1304110758505067
 21
0.1851269980270901
 72
     1
 10
0.1304110758505059
 20
0.1851269980270902
 11
0.1439372606540007
 21
0.1963210820023967
 72
     1
 10
0.1439372606540017
 20
0.1963210820023967
 11
0.1589559899875385
 21
0.2087278584083611
 72
     1
 10
0.1589559899875379
 20
0.2087278584083611
 11
0.1750941277186041
 21
0.2220674751456017
 72
     1
 10
0.1750941277186047
 20
0.2220674751456017
 11
0.19169868561531
 21
0.2358735120484796
 72
     1
 10
0.1916986856153105
 20
0.2358735120484796
 11
0.208303243512014
 21
0.2495862649182301
 72
     1
 10
0.2083032435120131
 20
0.2495862649182304
 11
0.2244413812430811
 21
0.2628325976223432
 72
     1
 10
0.2244413812430812
 20
0.2628325976223429
 11
0.239460110576618
 21
0.2753326580614352
 72
     1
 10
0.2394601105766174
 20
0.2753326580614351
 11
0.2529862953801122
 21
0.2864334580036143
 72
     1
 10
0.2529862953801132
 20
0.2864334580036143
 11
0.2643669474216756
 21
0.2958551453494973
 72
     1
 10
0.2643669474216757
 20
0.2958551453494973
 11
0.2731356465356649
 21
0.3031312999334466
 72
     1
 10
0.273135646535664
 20
0.3031312999334466
 11
0.2788259725564443
 21
0.3077955015898243
 72
     1
 10
0.278825972556445
 20
0.3077955015898246
 11
0.2807849372521245
 21
0.3094746141861208
 72
     1
 10
0.2807849372521249
 20
0.3094746141861205
 11
0.2798520969208501
 21
0.3094746141861205
 72
     1
 10
0.2798520969208496
 20
0.3094746141861205
 11
0.2769602918938953
 21
0.3095678982192478
 72
     1
 10
0.2769602918938943
 20
0.3095678982192481
 11
0.2724826583037715
 21
0.3095678982192481
 72
     1
 10
0.2724826583037729
 20
0.3095678982192481
 11
0.2666057642167363
 21
0.3095678982192481
 72
     1
 10
0.266605764216735
 20
0.3095678982192481
 11
0.2597027457652953
 21
0.3095678982192481
 72
     1
 10
0.2597027457652956
 20
0.3095678982192481
 11
0.2519601710157094
 21
0.3095678982192481
 72
     1
 10
0.2519601710157104
 20
0.3095678982192481
 11
0.2437511761004851
 21
0.3095678982192481
 72
     1
 10
0.243751176100484
 20
0.3095678982192481
 11
0.2351690450527495
 21
0.3095678982192481
 72
     1
 10
0.2351690450527495
 20
0.3095678982192481
 11
0.2266801980381413
 21
0.3095678982192481
 72
     1
 10
0.2266801980381423
 20
0.3095678982192481
 11
0.2183779190897905
 21
0.3094746141861208
 72
     1
 10
0.2183779190897899
 20
0.3094746141861205
 11
0.2106353443402037
 21
0.3094746141861205
 72
     1
 10
0.2106353443402029
 20
0.3094746141861205
 11
0.2037323258887632
 21
0.3094746141861205
 72
     1
 10
0.203732325888764
 20
0.3094746141861205
 11
0.1978554318017273
 21
0.3094746141861205
 72
     1
 10
0.1978554318017278
 20
0.3094746141861205
 11
0.1932845141784786
 21
0.3094746141861205
 72
     1
 10
0.1932845141784787
 20
0.3094746141861205
 11
0.1903927091515244
 21
0.3094746141861205
 72
     1
 10
0.1903927091515234
 20
0.3094746141861205
 11
0.1893665847871204
 21
0.3094746141861205
 72
     1
 10
0.1893665847871206
 20
0.3094746141861205
 11
0.1879673242902067
 21
0.3077955015898243
 72
     1
 10
0.1879673242902076
 20
0.3077955015898246
 11
0.1841426789319786
 21
0.3030380159003196
 72
     1
 10
0.1841426789319787
 20
0.3030380159003192
 11
0.1780792167786874
 21
0.29576186131637
 72
     1
 10
0.1780792167786873
 20
0.29576186131637
 11
0.170243357995973
 21
0.2862468899373593
 72
     1
 10
0.170243357995973
 20
0.2862468899373593
 11
0.1610082387163447
 21
0.2750528059620528
 72
     1
 10
0.1610082387163438
 20
0.2750528059620528
 11
0.1507469950723126
 21
0.2624594614898328
 72
     1
 10
0.1507469950723133
 20
0.2624594614898328
 11
0.1396461951301336
 21
0.2491198447525922
 72
     1
 10
0.1396461951301333
 20
0.2491198447525922
 11
0.1282655430885727
 21
0.2352205238165866
 72
     1
 10
0.1282655430885726
 20
0.2352205238165868
 11
0.1168848910470102
 21
0.2214144869137089
 72
     1
 10
0.1168848910470102
 20
0.2214144869137087
 11
0.1058773751379587
 21
0.2079815861433408
 72
     1
 10
0.105877375137958
 20
0.2079815861433408
 11
0.0955228474608004
 21
0.1954815257042486
 72
     1
 10
0.0955228474608019
 20
0.1954815257042488
 11
0.0862877281811736
 21
0.1842874417289424
 72
     1
 10
0.0862877281811727
 20
0.1842874417289424
 11
0.0784518693984583
 21
0.1747724703499316
 72
     1
 10
0.0784518693984584
 20
0.1747724703499314
 11
0.0723884072451672
 21
0.1674963157659821
 72
     1
 10
0.0723884072451671
 20
0.1674963157659822
 11
0.0685637618869363
 21
0.1627388300764767
 72
     1
 10
0.0685637618869364
 20
0.1627388300764767
 11
0.0671645013900242
 21
0.1611530015133082
 72
     1
 10
0.0671645013900251
 20
0.1611530015133082
 11
0.0680040576881734
 21
0.1596604569832674
 72
     1
 10
0.0680040576881726
 20
0.1596604569832674
 11
0.0704294425494878
 21
0.1556492435587824
 72
     1
 10
0.0704294425494871
 20
0.1556492435587824
 11
0.0742540879077179
 21
0.1493059293061089
 72
     1
 10
0.0742540879077192
 20
0.1493059293061089
 11
0.0791048576303511
 21
0.1411902184240116
 72
     1
 10
0.0791048576303508
 20
0.1411902184240116
 11
0.0848884676842594
 21
0.1314886789787458
 72
     1
 10
0.0848884676842596
 20
0.1314886789787459
 11
0.0913250659700619
 21
0.1207610151690772
 72
     1
 10
0.0913250659700613
 20
0.1207610151690775
 11
0.0982280844214992
 21
0.1091937950612604
 72
     1
 10
0.0982280844214985
 20
0.1091937950612603
 11
0.1053176709391927
 21
0.0973467228540611
 72
     1
 10
0.105317670939193
 20
0.0973467228540612
 11
0.1124072574568872
 21
0.0854996506468619
 72
     1
 10
0.1124072574568871
 20
0.0854996506468617
 11
0.1193102759083267
 21
0.0739324305390446
 72
     1
 10
0.1193102759083278
 20
0.0739324305390448
 11
0.1257468741941283
 21
0.0632047667293762
 72
     1
 10
0.1257468741941277
 20
0.063204766729376
 11
0.1315304842480362
 21
0.0535032272841102
 72
     1
 10
0.1315304842480365
 20
0.0535032272841104
 11
0.1363812539706702
 21
0.0453875164020132
 72
     1
 10
0.1363812539706699
 20
0.0453875164020132
 11
0.1402058993288989
 21
0.0391374861824667
 72
     1
 10
0.1402058993288988
 20
0.0391374861824669
 11
0.1426312841902157
 21
0.0350329887248546
 72
     1
 10
0.1426312841902164
 20
0.0350329887248547
 11
0.1434708404883648
 21
0.0336337282279412
 72
     1
 10
0.143470840488364
 20
0.0336337282279411
 11
0.2706169776412211
 21
0.0336337282279411
 97
        0
 75
     0
 76
     1
 98
        1
 10
-0.3743130907707726
 20
-0.2500502867693841
1001
ACAD
1010
0.0
1020
0.0
1030
0.0
  0
HATCH
  5
6F4C
330
6F46
100
AcDbEntity
  8
Kawneer Logo-English
100
AcDbHatch
 10
0.0
 20
0.0
 30
0.0
210
0.0
220
0.0
230
1.0
  2
SOLID
 70
     1
 71
     0
 91
        1
 92
        1
 93
       18
 72
     1
 10
0.0001865656044393
 20
0.2563959993365415
 11
-0.0000000024618153
 21
0.113671428651383
 72
     1
 10
-0.0000000024618159
 20
0.1136714286513832
 11
0.0012126899688416
 21
0.1152572572145516
 72
     1
 10
0.0012126899688421
 20
0.1152572572145516
 11
0.0045709151614355
 21
0.1197348908046738
 72
     1
 10
0.004570915161435
 20
0.119734890804674
 11
0.0098881050497044
 21
0.1268244773223682
 72
     1
 10
0.0098881050497044
 20
0.1268244773223682
 11
0.0166978394680158
 21
0.1359663125688683
 72
     1
 10
0.016697839468016
 20
0.1359663125688683
 11
0.0248135503501131
 21
0.1467872604116651
 72
     1
 10
0.024813550350113
 20
0.1467872604116652
 11
0.0338621015634867
 21
0.1588209006851195
 72
     1
 10
0.0338621015634872
 20
0.1588209006851194
 11
0.0434703569756247
 21
0.1716940972567221
 72
     1
 10
0.0434703569756247
 20
0.1716940972567224
 11
0.0534517485202732
 21
0.1850337139939626
 72
     1
 10
0.0534517485202724
 20
0.1850337139939624
 11
0.0634331400649208
 21
0.1983733307312025
 72
     1
 10
0.0634331400649222
 20
0.1983733307312024
 11
0.0730413954770597
 21
0.2112465273028051
 72
     1
 10
0.0730413954770595
 20
0.2112465273028053
 11
0.0820899466904331
 21
0.2233734516093873
 72
     1
 10
0.0820899466904321
 20
0.2233734516093873
 11
0.0902056575725293
 21
0.2341943994521837
 72
     1
 10
0.0902056575725308
 20
0.2341943994521837
 11
0.0970153919908422
 21
0.2433362346986839
 72
     1
 10
0.0970153919908405
 20
0.2433362346986839
 11
0.1022392978459834
 21
0.2503325371832507
 72
     1
 10
0.1022392978459843
 20
0.2503325371832508
 11
0.1056908070717041
 21
0.2549034548065008
 72
     1
 10
0.1056908070717046
 20
0.254903454806501
 11
0.1069034995023621
 21
0.2564892833696694
 72
     1
 10
0.1069034995023625
 20
0.2564892833696695
 11
0.0001865656044399
 21
0.2563959993365418
 97
        0
 75
     0
 76
     1
 98
        1
 10
-0.3743130907707726
 20
-0.2500502867693841
1001
ACAD
1010
0.0
1020
0.0
1030
0.0
  0
HATCH
  5
6F4D
330
6F46
100
AcDbEntity
  8
Kawneer Logo-English
100
AcDbHatch
 10
0.0
 20
0.0
 30
0.0
210
0.0
220
0.0
230
1.0
  2
SOLID
 70
     1
 71
     0
 91
        2
 92
       16
 93
       76
 72
     1
 10
1.358402087941634
 20
0.1650709309046659
 11
1.358402087941634
 21
0.16796273593162
 72
     1
 10
1.358402087941634
 20
0.1679627359316202
 11
1.358402087941634
 21
0.1729067896873803
 72
     1
 10
1.358402087941634
 20
0.1729067896873803
 11
1.358402087941634
 21
0.1791568199069267
 72
     1
 10
1.358402087941634
 20
0.1791568199069267
 11
1.358402087941634
 21
0.1861531223914932
 72
     1
 10
1.358402087941634
 20
0.186153122391493
 11
1.358402087941634
 21
0.1931494248760595
 72
     1
 10
1.358402087941634
 20
0.1931494248760596
 11
1.358402087941634
 21
0.1994927391287338
 72
     1
 10
1.358402087941634
 20
0.1994927391287336
 11
1.358402087941634
 21
0.2044367928844937
 72
     1
 10
1.358402087941634
 20
0.2044367928844937
 11
1.358402087941634
 21
0.2072353138783208
 72
     1
 10
1.358402087941634
 20
0.2072353138783208
 11
1.359894632471676
 21
0.2072353138783208
 72
     1
 10
1.359894632471676
 20
0.2072353138783208
 11
1.362693153465502
 21
0.2072353138783208
 72
     1
 10
1.362693153465502
 20
0.2072353138783208
 11
1.366424514790605
 21
0.2072353138783208
 72
     1
 10
1.366424514790606
 20
0.2072353138783208
 11
1.371088716446983
 21
0.2072353138783208
 72
     1
 10
1.371088716446982
 20
0.2072353138783208
 11
1.376405906335254
 21
0.2072353138783208
 72
     1
 10
1.376405906335254
 20
0.2072353138783208
 11
1.382282800422289
 21
0.2072353138783208
 72
     1
 10
1.38228280042229
 20
0.2072353138783208
 11
1.388346262575581
 21
0.2072353138783208
 72
     1
 10
1.388346262575579
 20
0.2072353138783208
 11
1.394596292795125
 21
0.2072353138783208
 72
     1
 10
1.394596292795125
 20
0.2072353138783208
 11
1.400753038981545
 21
0.2072353138783208
 72
     1
 10
1.400753038981546
 20
0.2072353138783208
 11
1.406723217101709
 21
0.2072353138783208
 72
     1
 10
1.406723217101708
 20
0.2072353138783208
 11
1.412320259089362
 21
0.2072353138783208
 72
     1
 10
1.412320259089362
 20
0.2072353138783208
 11
1.417264312845122
 21
0.2072353138783208
 72
     1
 10
1.417264312845123
 20
0.2072353138783208
 11
1.421368810302735
 21
0.2072353138783208
 72
     1
 10
1.421368810302734
 20
0.2072353138783208
 11
1.424540467429071
 21
0.2072353138783208
 72
     1
 10
1.424540467429072
 20
0.2072353138783208
 11
1.426592716157878
 21
0.2072353138783208
 72
     1
 10
1.426592716157878
 20
0.2072353138783208
 11
1.427338988422898
 21
0.2072353138783208
 72
     1
 10
1.427338988422898
 20
0.2072353138783208
 11
1.430977065714873
 21
0.207142029845193
 72
     1
 10
1.430977065714872
 20
0.207142029845193
 11
1.434335290907465
 21
0.2068621777458102
 72
     1
 10
1.434335290907465
 20
0.2068621777458102
 11
1.435921119470633
 21
0.2066756096795552
 72
     1
 10
1.435921119470633
 20
0.206675609679555
 11
1.437413664000673
 21
0.2063957575801723
 72
     1
 10
1.437413664000674
 20
0.2063957575801723
 11
1.438906208530714
 21
0.2061159054807895
 72
     1
 10
1.438906208530714
 20
0.2061159054807898
 11
1.440398753060756
 21
0.2056494853151523
 72
     1
 10
1.440398753060756
 20
0.2056494853151521
 11
1.441704729524542
 21
0.2050897811163865
 72
     1
 10
1.441704729524542
 20
0.2050897811163866
 11
1.443010705988328
 21
0.204530076917621
 72
     1
 10
1.443010705988329
 20
0.204530076917621
 11
1.444223398418986
 21
0.2036905206194736
 72
     1
 10
1.444223398418985
 20
0.2036905206194736
 11
1.445436090849643
 21
0.2028509643213252
 72
     1
 10
1.445436090849643
 20
0.2028509643213252
 11
1.446555499247174
 21
0.2018248399569224
 72
     1
 10
1.446555499247173
 20
0.2018248399569223
 11
1.447581623611576
 21
0.2007054315593917
 72
     1
 10
1.447581623611578
 20
0.2007054315593915
 11
1.448607747975981
 21
0.1993061710624781
 72
     1
 10
1.448607747975981
 20
0.1993061710624781
 11
1.449540588307258
 21
0.1978136265324374
 72
     1
 10
1.449540588307256
 20
0.1978136265324373
 11
1.450380144605403
 21
0.1961345139361415
 72
     1
 10
1.450380144605404
 20
0.1961345139361415
 11
1.451126416870426
 21
0.1944554013398453
 72
     1
 10
1.451126416870426
 20
0.1944554013398454
 11
1.451592837036063
 21
0.1929628568098046
 72
     1
 10
1.451592837036062
 20
0.1929628568098046
 11
1.451965973168573
 21
0.1913770282466361
 72
     1
 10
1.451965973168574
 20
0.1913770282466361
 11
1.452245825267955
 21
0.1899777677497231
 72
     1
 10
1.452245825267954
 20
0.1899777677497231
 11
1.452432393334211
 21
0.188671791285937
 72
     1
 10
1.452432393334211
 20
0.1886717912859369
 11
1.452432393334211
 21
0.1874590988552789
 72
     1
 10
1.452432393334211
 20
0.1874590988552789
 11
1.452525677367338
 21
0.1863396904577482
 72
     1
 10
1.452525677367337
 20
0.1863396904577481
 11
1.452432393334211
 21
0.1844740097951972
 72
     1
 10
1.452432393334211
 20
0.1844740097951974
 11
1.452245825267955
 21
0.1827948971989012
 72
     1
 10
1.452245825267954
 20
0.1827948971989009
 11
1.451872689135445
 21
0.1810225005694773
 72
     1
 10
1.451872689135446
 20
0.1810225005694774
 11
1.451406268969809
 21
0.1794366720063093
 72
     1
 10
1.451406268969809
 20
0.1794366720063094
 11
1.450846564771043
 21
0.1779441274762682
 72
     1
 10
1.450846564771041
 20
0.1779441274762681
 11
1.450100292506021
 21
0.1764515829462274
 72
     1
 10
1.450100292506023
 20
0.1764515829462275
 11
1.449260736207875
 21
0.1750523224493141
 72
     1
 10
1.449260736207873
 20
0.1750523224493139
 11
1.448327895876597
 21
0.1737463459855283
 72
     1
 10
1.448327895876596
 20
0.1737463459855281
 11
1.44702191941281
 21
0.1723470854886151
 72
     1
 10
1.447021919412811
 20
0.1723470854886151
 11
1.445715942949025
 21
0.1711343930579568
 72
     1
 10
1.445715942949026
 20
0.1711343930579568
 11
1.444316682452114
 21
0.1700149846604262
 72
     1
 10
1.444316682452114
 20
0.1700149846604259
 11
1.442824137922072
 21
0.168988860296023
 72
     1
 10
1.442824137922072
 20
0.168988860296023
 11
1.441238309358904
 21
0.1682425880310024
 72
     1
 10
1.441238309358902
 20
0.1682425880310024
 11
1.439559196762608
 21
0.1674963157659821
 72
     1
 10
1.439559196762608
 20
0.1674963157659822
 11
1.437880084166311
 21
0.1669366115672166
 72
     1
 10
1.437880084166311
 20
0.1669366115672167
 11
1.436107687536888
 21
0.1664701914015788
 72
     1
 10
1.436107687536888
 20
0.1664701914015789
 11
1.434242006874337
 21
0.166003771235941
 72
     1
 10
1.434242006874337
 20
0.1660037712359412
 11
1.432376326211786
 21
0.1657239191365588
 72
     1
 10
1.432376326211785
 20
0.1657239191365585
 11
1.430417361516107
 21
0.1655373510703035
 72
     1
 10
1.430417361516108
 20
0.1655373510703037
 11
1.428458396820429
 21
0.1653507830040482
 72
     1
 10
1.428458396820428
 20
0.1653507830040482
 11
1.424353899362817
 21
0.1651642149377932
 72
     1
 10
1.424353899362817
 20
0.1651642149377932
 11
1.420156117872077
 21
0.1650709309046658
 72
     1
 10
1.420156117872076
 20
0.1650709309046659
 11
1.41773073301076
 21
0.1650709309046659
 72
     1
 10
1.417730733010761
 20
0.1650709309046659
 11
1.411107566658704
 21
0.1650709309046659
 72
     1
 10
1.411107566658702
 20
0.1650709309046659
 11
1.401779163345947
 21
0.1650709309046659
 72
     1
 10
1.401779163345949
 20
0.1650709309046659
 11
1.390958215503152
 21
0.1650709309046659
 72
     1
 10
1.390958215503152
 20
0.1650709309046659
 11
1.379950699594101
 21
0.1650709309046659
 72
     1
 10
1.379950699594099
 20
0.1650709309046659
 11
1.369969308049451
 21
0.1650709309046659
 72
     1
 10
1.369969308049451
 20
0.1650709309046659
 11
1.362320017332992
 21
0.1650709309046659
 72
     1
 10
1.362320017332992
 20
0.1650709309046659
 11
1.358402087941635
 21
0.1650709309046659
 97
        0
 92
        1
 93
      107
 72
     1
 10
1.443756978253348
 20
0.1485596570410883
 11
1.446928635379685
 21
0.1492126452729816
 72
     1
 10
1.446928635379685
 20
0.1492126452729817
 11
1.449540588307256
 21
0.1498656335048746
 72
     1
 10
1.449540588307256
 20
0.1498656335048745
 11
1.451872689135445
 21
0.1506119057698948
 72
     1
 10
1.451872689135446
 20
0.1506119057698946
 11
1.45401822189738
 21
0.1514514620680426
 72
     1
 10
1.45401822189738
 20
0.1514514620680425
 11
1.455883902559929
 21
0.1521977343330632
 72
     1
 10
1.455883902559929
 20
0.1521977343330631
 11
1.457563015156225
 21
0.1530372906312111
 72
     1
 10
1.457563015156225
 20
0.1530372906312111
 11
1.459148843719394
 21
0.1539701309624869
 72
     1
 10
1.459148843719394
 20
0.1539701309624866
 11
1.460641388249434
 21
0.1549029712937624
 72
     1
 10
1.460641388249434
 20
0.1549029712937622
 11
1.462133932779476
 21
0.155835811625038
 72
     1
 10
1.462133932779476
 20
0.155835811625038
 11
1.463439909243262
 21
0.1568619359894408
 72
     1
 10
1.463439909243262
 20
0.1568619359894408
 11
1.464745885707048
 21
0.1579813443869714
 72
     1
 10
1.464745885707047
 20
0.1579813443869716
 11
1.465865294104579
 21
0.1591007527845022
 72
     1
 10
1.465865294104579
 20
0.1591007527845025
 11
1.466984702502109
 21
0.1602201611820331
 72
     1
 10
1.466984702502108
 20
0.1602201611820328
 11
1.468010826866511
 21
0.1613395695795634
 72
     1
 10
1.468010826866511
 20
0.1613395695795637
 11
1.468943667197788
 21
0.1625522620102216
 72
     1
 10
1.468943667197788
 20
0.1625522620102216
 11
1.469876507529063
 21
0.1636716704077522
 72
     1
 10
1.469876507529063
 20
0.1636716704077524
 11
1.470622779794084
 21
0.1648843628384107
 72
     1
 10
1.470622779794084
 20
0.1648843628384107
 11
1.471462336092232
 21
0.1661903393021964
 72
     1
 10
1.471462336092232
 20
0.1661903393021967
 11
1.472115324324125
 21
0.1674030317328546
 72
     1
 10
1.472115324324124
 20
0.1674030317328546
 11
1.472768312556016
 21
0.1686157241635125
 72
     1
 10
1.472768312556017
 20
0.1686157241635125
 11
1.473328016754783
 21
0.1699217006272986
 72
     1
 10
1.473328016754782
 20
0.1699217006272989
 11
1.47379443692042
 21
0.1711343930579568
 72
     1
 10
1.47379443692042
 20
0.1711343930579568
 11
1.474260857086057
 21
0.1724403695217425
 72
     1
 10
1.474260857086058
 20
0.1724403695217424
 11
1.474727277251697
 21
0.1736530619524008
 72
     1
 10
1.474727277251697
 20
0.173653061952401
 11
1.475380265483589
 21
0.1760784468137175
 72
     1
 10
1.475380265483588
 20
0.1760784468137173
 11
1.475846685649225
 21
0.1785038316750338
 72
     1
 10
1.475846685649226
 20
0.1785038316750335
 11
1.476219821781737
 21
0.1808359325032223
 72
     1
 10
1.476219821781738
 20
0.1808359325032223
 11
1.47649967388112
 21
0.1830747492982838
 72
     1
 10
1.47649967388112
 20
0.1830747492982838
 11
1.476592957914248
 21
0.1851269980270901
 72
     1
 10
1.476592957914248
 20
0.1851269980270902
 11
1.476686241947374
 21
0.1870859627227688
 72
     1
 10
1.476686241947375
 20
0.1870859627227687
 11
1.476592957914249
 21
0.1888583593521923
 72
     1
 10
1.476592957914248
 20
0.1888583593521922
 11
1.476499673881119
 21
0.1906307559816158
 72
     1
 10
1.47649967388112
 20
0.1906307559816159
 11
1.476406389847991
 21
0.1924031526110394
 72
     1
 10
1.476406389847991
 20
0.1924031526110394
 11
1.476126537748608
 21
0.1940822652073352
 72
     1
 10
1.476126537748608
 20
0.1940822652073352
 11
1.475846685649226
 21
0.195761377803631
 72
     1
 10
1.475846685649226
 20
0.1957613778036309
 11
1.475566833549843
 21
0.1974404903999272
 72
     1
 10
1.475566833549843
 20
0.1974404903999272
 11
1.475100413384206
 21
0.1990263189630953
 72
     1
 10
1.475100413384205
 20
0.1990263189630952
 11
1.474633993218568
 21
0.2006121475262637
 72
     1
 10
1.474633993218568
 20
0.2006121475262639
 11
1.47416757305293
 21
0.2021046920563051
 72
     1
 10
1.474167573052932
 20
0.2021046920563049
 11
1.473514584821038
 21
0.2035972365863457
 72
     1
 10
1.473514584821037
 20
0.2035972365863459
 11
1.472954880622271
 21
0.2050897811163867
 72
     1
 10
1.472954880622272
 20
0.2050897811163866
 11
1.472208608357252
 21
0.2064890416133
 72
     1
 10
1.472208608357252
 20
0.2064890416133001
 11
1.471462336092232
 21
0.2078883021102135
 72
     1
 10
1.471462336092232
 20
0.2078883021102136
 11
1.470622779794083
 21
0.2091942785739993
 72
     1
 10
1.470622779794084
 20
0.2091942785739991
 11
1.469783223495935
 21
0.2105002550377848
 72
     1
 10
1.469783223495934
 20
0.2105002550377851
 11
1.468850383164659
 21
0.2118062315015707
 72
     1
 10
1.468850383164661
 20
0.2118062315015709
 11
1.467917542833386
 21
0.2130189239322288
 72
     1
 10
1.467917542833385
 20
0.2130189239322289
 11
1.466891418468982
 21
0.2141383323297595
 72
     1
 10
1.466891418468982
 20
0.2141383323297595
 11
1.465772010071451
 21
0.2153510247604178
 72
     1
 10
1.46577201007145
 20
0.215351024760418
 11
1.464652601673919
 21
0.2163771491248209
 72
     1
 10
1.46465260167392
 20
0.2163771491248209
 11
1.463533193276389
 21
0.2174032734892238
 72
     1
 10
1.463533193276389
 20
0.2174032734892238
 11
1.462227216812603
 21
0.2184293978536266
 72
     1
 10
1.462227216812602
 20
0.2184293978536266
 11
1.461014524381945
 21
0.2193622381849024
 72
     1
 10
1.461014524381946
 20
0.2193622381849023
 11
1.459615263885032
 21
0.2202950785161781
 72
     1
 10
1.459615263885031
 20
0.2202950785161782
 11
1.458309287421245
 21
0.2211346348143262
 72
     1
 10
1.458309287421246
 20
0.221134634814326
 11
1.456816742891206
 21
0.221974191112474
 72
     1
 10
1.456816742891206
 20
0.2219741911124738
 11
1.455417482394292
 21
0.2227204633774945
 72
     1
 10
1.455417482394291
 20
0.2227204633774944
 11
1.453831653831122
 21
0.2233734516093874
 72
     1
 10
1.453831653831123
 20
0.2233734516093873
 11
1.452339109301082
 21
0.2240264398412803
 72
     1
 10
1.452339109301082
 20
0.2240264398412803
 11
1.450659996704785
 21
0.2245861440400459
 72
     1
 10
1.450659996704787
 20
0.2245861440400457
 11
1.44907416814162
 21
0.2251458482388108
 72
     1
 10
1.449074168141619
 20
0.2251458482388109
 11
1.447301771512194
 21
0.2256122684044489
 72
     1
 10
1.447301771512194
 20
0.2256122684044488
 11
1.445249522783388
 21
0.2261719726032139
 72
     1
 10
1.445249522783388
 20
0.226171972603214
 11
1.44329055808771
 21
0.2265451087357246
 72
     1
 10
1.443290558087712
 20
0.2265451087357244
 11
1.441145025325778
 21
0.2269182448682345
 72
     1
 10
1.441145025325776
 20
0.2269182448682345
 11
1.438906208530714
 21
0.2271980969676173
 72
     1
 10
1.438906208530714
 20
0.2271980969676173
 11
1.436387539636271
 21
0.2273846650338724
 72
     1
 10
1.436387539636271
 20
0.2273846650338724
 11
1.433495734609316
 21
0.2275712331001274
 72
     1
 10
1.433495734609317
 20
0.2275712331001274
 11
1.430044225383597
 21
0.2276645171332552
 72
     1
 10
1.430044225383597
 20
0.2276645171332549
 11
1.42612629599224
 21
0.2277578011663822
 72
     1
 10
1.42612629599224
 20
0.2277578011663825
 11
1.426033011959112
 21
0.2277578011663825
 72
     1
 10
1.426033011959111
 20
0.2277578011663825
 11
1.33489451159349
 21
0.2277578011663825
 72
     1
 10
1.334894511593491
 20
0.2277578011663825
 11
1.334894511593491
 21
0.0926825211976832
 72
     1
 10
1.334894511593491
 20
0.0926825211976832
 11
1.358588656007891
 21
0.0926825211976832
 72
     1
 10
1.358588656007891
 20
0.0926825211976832
 11
1.358588656007891
 21
0.0947347699264896
 72
     1
 10
1.358588656007891
 20
0.0947347699264896
 11
1.358588656007891
 21
0.1001452438478876
 72
     1
 10
1.358588656007891
 20
0.1001452438478875
 11
1.358588656007891
 21
0.1079811026306024
 72
     1
 10
1.358588656007891
 20
0.1079811026306024
 11
1.358588656007891
 21
0.1170296538439752
 72
     1
 10
1.358588656007891
 20
0.1170296538439753
 11
1.358588656007891
 21
0.1262647731236032
 72
     1
 10
1.358588656007891
 20
0.1262647731236031
 11
1.358588656007891
 21
0.1347536201382103
 72
     1
 10
1.358588656007891
 20
0.1347536201382104
 11
1.358588656007891
 21
0.1412835024571394
 72
     1
 10
1.358588656007891
 20
0.1412835024571393
 11
1.358588656007891
 21
0.1448282957159864
 72
     1
 10
1.358588656007891
 20
0.1448282957159865
 11
1.362320017332992
 21
0.1448282957159865
 72
     1
 10
1.362320017332992
 20
0.1448282957159865
 11
1.369409603850688
 21
0.1448282957159865
 72
     1
 10
1.369409603850688
 20
0.1448282957159865
 11
1.378738007163443
 21
0.1448282957159865
 72
     1
 10
1.378738007163443
 20
0.1448282957159865
 11
1.388999250807475
 21
0.1448282957159865
 72
     1
 10
1.388999250807473
 20
0.1448282957159865
 11
1.399260494451505
 21
0.1448282957159865
 72
     1
 10
1.399260494451506
 20
0.1448282957159865
 11
1.408215761631749
 21
0.1448282957159865
 72
     1
 10
1.408215761631748
 20
0.1448282957159865
 11
1.414745643950677
 21
0.1448282957159865
 72
     1
 10
1.414745643950678
 20
0.1448282957159865
 11
1.41773073301076
 21
0.1448282957159865
 72
     1
 10
1.417730733010761
 20
0.1448282957159865
 11
1.420062833838949
 21
0.1420297747221594
 72
     1
 10
1.420062833838949
 20
0.1420297747221597
 11
1.425193455660966
 21
0.1359663125688683
 72
     1
 10
1.425193455660965
 20
0.1359663125688683
 11
1.432283042178659
 21
0.1275707495873888
 72
     1
 10
1.432283042178659
 20
0.1275707495873886
 11
1.440305469027628
 21
0.1180557782083779
 72
     1
 10
1.440305469027629
 20
0.1180557782083781
 11
1.448234611843471
 21
0.1087273748956225
 72
     1
 10
1.448234611843471
 20
0.1087273748956225
 11
1.455044346261782
 21
0.1006116640135252
 72
     1
 10
1.455044346261782
 20
0.1006116640135252
 11
1.459895115984414
 21
0.0948280539596167
 72
     1
 10
1.459895115984414
 20
0.0948280539596169
 11
1.461760796646965
 21
0.0926825211976832
 72
     1
 10
1.461760796646967
 20
0.0926825211976832
 11
1.49254452757906
 21
0.0926825211976832
 72
     1
 10
1.492544527579059
 20
0.0926825211976832
 11
1.490678846916508
 21
0.0948280539596169
 72
     1
 10
1.490678846916508
 20
0.0948280539596169
 11
1.48564150912762
 21
0.100518379980398
 72
     1
 10
1.48564150912762
 20
0.1005183799803981
 11
1.478458638576797
 21
0.1088206589287502
 72
     1
 10
1.478458638576798
 20
0.1088206589287502
 11
1.470063075595318
 21
0.1183356303077609
 72
     1
 10
1.470063075595317
 20
0.118335630307761
 11
1.461480944547582
 21
0.1282237378192818
 72
     1
 10
1.461480944547582
 20
0.1282237378192818
 11
1.453551801731739
 21
0.1372722890326546
 72
     1
 10
1.45355180173174
 20
0.1372722890326546
 11
1.447395055545323
 21
0.1444551595834761
 72
     1
 10
1.447395055545323
 20
0.1444551595834759
 11
1.443756978253349
 21
0.1485596570410882
 97
        0
 75
     0
 76
     1
 98
        1
 10
-0.3743130907707726
 20
-0.2500502867693841
1001
ACAD
1010
0.0
1020
0.0
1030
0.0
  0
HATCH
  5
6F4E
330
6F46
100
AcDbEntity
  8
Kawneer Logo-English
100
AcDbHatch
 10
0.0
 20
0.0
 30
0.0
210
0.0
220
0.0
230
1.0
  2
SOLID
 70
     1
 71
     0
 91
        1
 92
        1
 93
       87
 72
     1
 10
1.205602841678699
 20
0.1525708704655737
 11
1.207468522341251
 21
0.1525708704655737
 72
     1
 10
1.207468522341252
 20
0.1525708704655737
 11
1.211199883666355
 21
0.1525708704655737
 72
     1
 10
1.211199883666355
 20
0.1525708704655737
 11
1.216517073554626
 21
0.1525708704655737
 72
     1
 10
1.216517073554626
 20
0.1525708704655737
 11
1.223046955873555
 21
0.1525708704655737
 72
     1
 10
1.223046955873553
 20
0.1525708704655737
 11
1.230602962556885
 21
0.1525708704655737
 72
     1
 10
1.230602962556885
 20
0.1525708704655737
 11
1.238998525538365
 21
0.1525708704655737
 72
     1
 10
1.238998525538365
 20
0.1525708704655737
 11
1.247767224652354
 21
0.1525708704655737
 72
     1
 10
1.247767224652355
 20
0.1525708704655737
 11
1.256815775865728
 21
0.1525708704655737
 72
     1
 10
1.256815775865729
 20
0.1525708704655737
 11
1.265771043045974
 21
0.1525708704655737
 72
     1
 10
1.265771043045973
 20
0.1525708704655737
 11
1.274446458126836
 21
0.1525708704655737
 72
     1
 10
1.274446458126837
 20
0.1525708704655737
 11
1.282562169008935
 21
0.1525708704655737
 72
     1
 10
1.282562169008935
 20
0.1525708704655737
 11
1.289745039559756
 21
0.1525708704655737
 72
     1
 10
1.289745039559755
 20
0.1525708704655737
 11
1.295808501713046
 21
0.1525708704655737
 72
     1
 10
1.295808501713046
 20
0.1525708704655737
 11
1.300472703369423
 21
0.1525708704655737
 72
     1
 10
1.300472703369423
 20
0.1525708704655737
 11
1.303457792429505
 21
0.1525708704655737
 72
     1
 10
1.303457792429505
 20
0.1525708704655737
 11
1.304483916793908
 21
0.1525708704655737
 72
     1
 10
1.304483916793908
 20
0.1525708704655737
 11
1.304483916793908
 21
0.1730000737205081
 72
     1
 10
1.304483916793908
 20
0.1730000737205078
 11
1.303457792429505
 21
0.1730000737205078
 72
     1
 10
1.303457792429505
 20
0.1730000737205078
 11
1.300472703369423
 21
0.1730000737205078
 72
     1
 10
1.300472703369423
 20
0.1730000737205078
 11
1.295808501713045
 21
0.1730000737205078
 72
     1
 10
1.295808501713046
 20
0.1730000737205078
 11
1.289745039559754
 21
0.1730000737205078
 72
     1
 10
1.289745039559755
 20
0.1730000737205078
 11
1.282562169008934
 21
0.1730000737205078
 72
     1
 10
1.282562169008935
 20
0.1730000737205078
 11
1.274446458126837
 21
0.1730000737205078
 72
     1
 10
1.274446458126837
 20
0.1730000737205078
 11
1.265771043045975
 21
0.1730000737205078
 72
     1
 10
1.265771043045973
 20
0.1730000737205078
 11
1.256815775865728
 21
0.1730000737205078
 72
     1
 10
1.256815775865729
 20
0.1730000737205078
 11
1.247767224652355
 21
0.1730000737205078
 72
     1
 10
1.247767224652355
 20
0.1730000737205078
 11
1.238998525538365
 21
0.1730000737205078
 72
     1
 10
1.238998525538365
 20
0.1730000737205078
 11
1.230602962556885
 21
0.1730000737205078
 72
     1
 10
1.230602962556885
 20
0.1730000737205078
 11
1.223046955873553
 21
0.1730000737205078
 72
     1
 10
1.223046955873553
 20
0.1730000737205078
 11
1.216517073554625
 21
0.1730000737205078
 72
     1
 10
1.216517073554626
 20
0.1730000737205078
 11
1.211199883666355
 21
0.1730000737205078
 72
     1
 10
1.211199883666355
 20
0.1730000737205078
 11
1.207468522341252
 21
0.1730000737205078
 72
     1
 10
1.207468522341252
 20
0.1730000737205078
 11
1.205602841678701
 21
0.1730000737205078
 72
     1
 10
1.205602841678699
 20
0.1730000737205078
 11
1.205602841678699
 21
0.1754254585818243
 72
     1
 10
1.205602841678699
 20
0.1754254585818245
 11
1.205602841678699
 21
0.1794366720063095
 72
     1
 10
1.205602841678699
 20
0.1794366720063094
 11
1.205602841678699
 21
0.1843807257620694
 72
     1
 10
1.205602841678699
 20
0.1843807257620694
 11
1.205602841678699
 21
0.1898844837165951
 72
     1
 10
1.205602841678699
 20
0.1898844837165951
 11
1.205602841678699
 21
0.1952949576379935
 72
     1
 10
1.205602841678699
 20
0.1952949576379937
 11
1.205602841678699
 21
0.2003322954268815
 72
     1
 10
1.205602841678699
 20
0.2003322954268814
 11
1.205602841678699
 21
0.2042502248182386
 72
     1
 10
1.205602841678699
 20
0.2042502248182386
 11
1.205602841678699
 21
0.206675609679555
 72
     1
 10
1.205602841678699
 20
0.206675609679555
 11
1.207468522341251
 21
0.206675609679555
 72
     1
 10
1.207468522341252
 20
0.206675609679555
 11
1.211293167699483
 21
0.206675609679555
 72
     1
 10
1.211293167699483
 20
0.206675609679555
 11
1.21670364162088
 21
0.206675609679555
 72
     1
 10
1.216703641620879
 20
0.206675609679555
 11
1.223420092006063
 21
0.206675609679555
 72
     1
 10
1.223420092006064
 20
0.206675609679555
 11
1.231255950788778
 21
0.206675609679555
 72
     1
 10
1.231255950788778
 20
0.206675609679555
 11
1.239744797803386
 21
0.206675609679555
 72
     1
 10
1.239744797803385
 20
0.206675609679555
 11
1.248886633049885
 21
0.206675609679555
 72
     1
 10
1.248886633049885
 20
0.206675609679555
 11
1.258121752329513
 21
0.206675609679555
 72
     1
 10
1.258121752329514
 20
0.206675609679555
 11
1.267356871609143
 21
0.206675609679555
 72
     1
 10
1.267356871609142
 20
0.206675609679555
 11
1.276218854756259
 21
0.206675609679555
 72
     1
 10
1.276218854756259
 20
0.206675609679555
 11
1.284521133704611
 21
0.206675609679555
 72
     1
 10
1.284521133704611
 20
0.206675609679555
 11
1.291890572321688
 21
0.206675609679555
 72
     1
 10
1.291890572321688
 20
0.206675609679555
 11
1.298140602541234
 21
0.206675609679555
 72
     1
 10
1.298140602541234
 20
0.206675609679555
 11
1.30289808823074
 21
0.206675609679555
 72
     1
 10
1.30289808823074
 20
0.206675609679555
 11
1.305976461323949
 21
0.206675609679555
 72
     1
 10
1.305976461323949
 20
0.206675609679555
 11
1.30709586972148
 21
0.206675609679555
 72
     1
 10
1.307095869721479
 20
0.206675609679555
 11
1.307095869721479
 21
0.2277578011663822
 72
     1
 10
1.307095869721479
 20
0.2277578011663825
 11
1.304577200827036
 21
0.2277578011663825
 72
     1
 10
1.304577200827037
 20
0.2277578011663825
 11
1.182188549363684
 21
0.2277578011663825
 72
     1
 10
1.182188549363684
 20
0.2277578011663825
 11
1.182188549363684
 21
0.0926825211976832
 72
     1
 10
1.182188549363684
 20
0.0926825211976832
 11
1.311853355410986
 21
0.0926825211976832
 72
     1
 10
1.311853355410985
 20
0.0926825211976832
 11
1.311853355410985
 21
0.113671428651383
 72
     1
 10
1.311853355410985
 20
0.1136714286513832
 11
1.310733947013454
 21
0.1136714286513832
 72
     1
 10
1.310733947013455
 20
0.1136714286513832
 11
1.307469005853991
 21
0.1136714286513832
 72
     1
 10
1.307469005853991
 20
0.1136714286513832
 11
1.302431668065102
 21
0.1136714286513832
 72
     1
 10
1.302431668065103
 20
0.1136714286513832
 11
1.295901785746174
 21
0.1136714286513832
 72
     1
 10
1.295901785746174
 20
0.1136714286513832
 11
1.288159210996586
 21
0.1136714286513832
 72
     1
 10
1.288159210996587
 20
0.1136714286513832
 11
1.279483795915724
 21
0.1136714286513832
 72
     1
 10
1.279483795915723
 20
0.1136714286513832
 11
1.270155392602968
 21
0.1136714286513832
 72
     1
 10
1.270155392602969
 20
0.1136714286513832
 11
1.260547137190832
 21
0.1136714286513832
 72
     1
 10
1.260547137190831
 20
0.1136714286513832
 11
1.250752313712437
 21
0.1136714286513832
 72
     1
 10
1.250752313712437
 20
0.1136714286513832
 11
1.241330626366554
 21
0.1136714286513832
 72
     1
 10
1.241330626366555
 20
0.1136714286513832
 11
1.23237535918631
 21
0.1136714286513832
 72
     1
 10
1.232375359186308
 20
0.1136714286513832
 11
1.224166364271082
 21
0.1136714286513832
 72
     1
 10
1.224166364271083
 20
0.1136714286513832
 11
1.217170061786517
 21
0.1136714286513832
 72
     1
 10
1.217170061786517
 20
0.1136714286513832
 11
1.211479735765737
 21
0.1136714286513832
 72
     1
 10
1.211479735765737
 20
0.1136714286513832
 11
1.20756180637438
 21
0.1136714286513832
 72
     1
 10
1.207561806374379
 20
0.1136714286513832
 11
1.2056028416787
 21
0.1136714286513832
 72
     1
 10
1.205602841678699
 20
0.1136714286513832
 11
1.205602841678699
 21
0.1163766656120825
 72
     1
 10
1.205602841678699
 20
0.1163766656120823
 11
1.205602841678699
 21
0.1209475832353323
 72
     1
 10
1.205602841678699
 20
0.1209475832353325
 11
1.205602841678699
 21
0.1267311932892411
 72
     1
 10
1.205602841678699
 20
0.1267311932892408
 11
1.205602841678699
 21
0.1330745075419143
 72
     1
 10
1.205602841678699
 20
0.1330745075419144
 11
1.205602841678699
 21
0.1395111058277156
 72
     1
 10
1.205602841678699
 20
0.1395111058277158
 11
1.205602841678699
 21
0.1452947158816239
 72
     1
 10
1.205602841678699
 20
0.145294715881624
 11
1.205602841678699
 21
0.1498656335048746
 72
     1
 10
1.205602841678699
 20
0.1498656335048745
 11
1.205602841678699
 21
0.1525708704655738
 97
        0
 75
     0
 76
     1
 98
        1
 10
-0.3743130907707726
 20
-0.2500502867693841
1001
ACAD
1010
0.0
1020
0.0
1030
0.0
  0
HATCH
  5
6F4F
330
6F46
100
AcDbEntity
  8
Kawneer Logo-English
100
AcDbHatch
 10
0.0
 20
0.0
 30
0.0
210
0.0
220
0.0
230
1.0
  2
SOLID
 70
     1
 71
     0
 91
        1
 92
        1
 93
       87
 72
     1
 10
1.049352086190046
 20
0.1525708704655737
 11
1.051217766852597
 21
0.1525708704655737
 72
     1
 10
1.051217766852596
 20
0.1525708704655737
 11
1.054949128177699
 21
0.1525708704655737
 72
     1
 10
1.0549491281777
 20
0.1525708704655737
 11
1.060173034032843
 21
0.1525708704655737
 72
     1
 10
1.060173034032843
 20
0.1525708704655737
 11
1.0667962003849
 21
0.1525708704655737
 72
     1
 10
1.0667962003849
 20
0.1525708704655737
 11
1.074352207068231
 21
0.1525708704655737
 72
     1
 10
1.074352207068232
 20
0.1525708704655737
 11
1.082747770049711
 21
0.1525708704655737
 72
     1
 10
1.082747770049711
 20
0.1525708704655737
 11
1.0915164691637
 21
0.1525708704655737
 72
     1
 10
1.091516469163701
 20
0.1525708704655737
 11
1.100565020377075
 21
0.1525708704655737
 72
     1
 10
1.100565020377073
 20
0.1525708704655737
 11
1.109520287557319
 21
0.1525708704655737
 72
     1
 10
1.10952028755732
 20
0.1525708704655737
 11
1.118195702638183
 21
0.1525708704655737
 72
     1
 10
1.118195702638182
 20
0.1525708704655737
 11
1.126218129487151
 21
0.1525708704655737
 72
     1
 10
1.126218129487152
 20
0.1525708704655737
 11
1.133401000037974
 21
0.1525708704655737
 72
     1
 10
1.133401000037974
 20
0.1525708704655737
 11
1.139557746224391
 21
0.1525708704655737
 72
     1
 10
1.139557746224392
 20
0.1525708704655737
 11
1.14422194788077
 21
0.1525708704655737
 72
     1
 10
1.144221947880769
 20
0.1525708704655737
 11
1.147207036940851
 21
0.1525708704655737
 72
     1
 10
1.147207036940852
 20
0.1525708704655737
 11
1.148233161305255
 21
0.1525708704655737
 72
     1
 10
1.148233161305255
 20
0.1525708704655737
 11
1.148233161305255
 21
0.1730000737205081
 72
     1
 10
1.148233161305255
 20
0.1730000737205078
 11
1.147207036940852
 21
0.1730000737205078
 72
     1
 10
1.147207036940852
 20
0.1730000737205078
 11
1.14422194788077
 21
0.1730000737205078
 72
     1
 10
1.144221947880769
 20
0.1730000737205078
 11
1.139557746224391
 21
0.1730000737205078
 72
     1
 10
1.139557746224392
 20
0.1730000737205078
 11
1.133494284071101
 21
0.1730000737205078
 72
     1
 10
1.133494284071101
 20
0.1730000737205078
 11
1.126218129487152
 21
0.1730000737205078
 72
     1
 10
1.126218129487152
 20
0.1730000737205078
 11
1.118195702638183
 21
0.1730000737205078
 72
     1
 10
1.118195702638182
 20
0.1730000737205078
 11
1.10952028755732
 21
0.1730000737205078
 72
     1
 10
1.10952028755732
 20
0.1730000737205078
 11
1.100565020377074
 21
0.1730000737205078
 72
     1
 10
1.100565020377073
 20
0.1730000737205078
 11
1.0915164691637
 21
0.1730000737205078
 72
     1
 10
1.091516469163701
 20
0.1730000737205078
 11
1.082747770049712
 21
0.1730000737205078
 72
     1
 10
1.082747770049711
 20
0.1730000737205078
 11
1.074352207068231
 21
0.1730000737205078
 72
     1
 10
1.074352207068232
 20
0.1730000737205078
 11
1.0667962003849
 21
0.1730000737205078
 72
     1
 10
1.0667962003849
 20
0.1730000737205078
 11
1.060173034032843
 21
0.1730000737205078
 72
     1
 10
1.060173034032843
 20
0.1730000737205078
 11
1.054949128177701
 21
0.1730000737205078
 72
     1
 10
1.0549491281777
 20
0.1730000737205078
 11
1.051217766852597
 21
0.1730000737205078
 72
     1
 10
1.051217766852596
 20
0.1730000737205078
 11
1.049352086190045
 21
0.1730000737205078
 72
     1
 10
1.049352086190046
 20
0.1730000737205078
 11
1.049352086190046
 21
0.1754254585818243
 72
     1
 10
1.049352086190046
 20
0.1754254585818245
 11
1.049352086190046
 21
0.1794366720063095
 72
     1
 10
1.049352086190046
 20
0.1794366720063094
 11
1.049352086190046
 21
0.1843807257620694
 72
     1
 10
1.049352086190046
 20
0.1843807257620694
 11
1.049352086190046
 21
0.1898844837165951
 72
     1
 10
1.049352086190046
 20
0.1898844837165951
 11
1.049352086190046
 21
0.1952949576379935
 72
     1
 10
1.049352086190046
 20
0.1952949576379937
 11
1.049352086190046
 21
0.2003322954268815
 72
     1
 10
1.049352086190046
 20
0.2003322954268814
 11
1.049352086190046
 21
0.2042502248182386
 72
     1
 10
1.049352086190046
 20
0.2042502248182386
 11
1.049352086190046
 21
0.206675609679555
 72
     1
 10
1.049352086190046
 20
0.206675609679555
 11
1.051217766852597
 21
0.206675609679555
 72
     1
 10
1.051217766852596
 20
0.206675609679555
 11
1.055042412210825
 21
0.206675609679555
 72
     1
 10
1.055042412210827
 20
0.206675609679555
 11
1.060452886132226
 21
0.206675609679555
 72
     1
 10
1.060452886132225
 20
0.206675609679555
 11
1.067169336517409
 21
0.206675609679555
 72
     1
 10
1.06716933651741
 20
0.206675609679555
 11
1.075005195300124
 21
0.206675609679555
 72
     1
 10
1.075005195300123
 20
0.206675609679555
 11
1.083494042314731
 21
0.206675609679555
 72
     1
 10
1.083494042314732
 20
0.206675609679555
 11
1.092542593528105
 21
0.206675609679555
 72
     1
 10
1.092542593528106
 20
0.206675609679555
 11
1.10187099684086
 21
0.206675609679555
 72
     1
 10
1.101870996840861
 20
0.206675609679555
 11
1.111106116120489
 21
0.206675609679555
 72
     1
 10
1.111106116120488
 20
0.206675609679555
 11
1.119968099267605
 21
0.206675609679555
 72
     1
 10
1.119968099267605
 20
0.206675609679555
 11
1.128270378215957
 21
0.206675609679555
 72
     1
 10
1.128270378215957
 20
0.206675609679555
 11
1.135639816833034
 21
0.206675609679555
 72
     1
 10
1.135639816833034
 20
0.206675609679555
 11
1.14188984705258
 21
0.206675609679555
 72
     1
 10
1.141889847052581
 20
0.206675609679555
 11
1.146647332742086
 21
0.206675609679555
 72
     1
 10
1.146647332742086
 20
0.206675609679555
 11
1.149725705835295
 21
0.206675609679555
 72
     1
 10
1.149725705835296
 20
0.206675609679555
 11
1.150845114232827
 21
0.206675609679555
 72
     1
 10
1.150845114232826
 20
0.206675609679555
 11
1.150845114232826
 21
0.2277578011663822
 72
     1
 10
1.150845114232826
 20
0.2277578011663825
 11
1.148326445338383
 21
0.2277578011663825
 72
     1
 10
1.148326445338383
 20
0.2277578011663825
 11
1.025937793875031
 21
0.2277578011663825
 72
     1
 10
1.025937793875032
 20
0.2277578011663825
 11
1.025937793875032
 21
0.0926825211976832
 72
     1
 10
1.025937793875032
 20
0.0926825211976832
 11
1.155602599922332
 21
0.0926825211976832
 72
     1
 10
1.155602599922332
 20
0.0926825211976832
 11
1.155602599922332
 21
0.113671428651383
 72
     1
 10
1.155602599922332
 20
0.1136714286513832
 11
1.154483191524801
 21
0.1136714286513832
 72
     1
 10
1.154483191524799
 20
0.1136714286513832
 11
1.151218250365336
 21
0.1136714286513832
 72
     1
 10
1.151218250365338
 20
0.1136714286513832
 11
1.146180912576449
 21
0.1136714286513832
 72
     1
 10
1.146180912576449
 20
0.1136714286513832
 11
1.13965103025752
 21
0.1136714286513832
 72
     1
 10
1.13965103025752
 20
0.1136714286513832
 11
1.131908455507932
 21
0.1136714286513832
 72
     1
 10
1.131908455507931
 20
0.1136714286513832
 11
1.12323304042707
 21
0.1136714286513832
 72
     1
 10
1.123233040427071
 20
0.1136714286513832
 11
1.113904637114314
 21
0.1136714286513832
 72
     1
 10
1.113904637114314
 20
0.1136714286513832
 11
1.104296381702177
 21
0.1136714286513832
 72
     1
 10
1.104296381702177
 20
0.1136714286513832
 11
1.094501558223783
 21
0.1136714286513832
 72
     1
 10
1.094501558223784
 20
0.1136714286513832
 11
1.085079870877901
 21
0.1136714286513832
 72
     1
 10
1.085079870877899
 20
0.1136714286513832
 11
1.076124603697654
 21
0.1136714286513832
 72
     1
 10
1.076124603697655
 20
0.1136714286513832
 11
1.067915608782429
 21
0.1136714286513832
 72
     1
 10
1.067915608782429
 20
0.1136714286513832
 11
1.060919306297863
 21
0.1136714286513832
 72
     1
 10
1.060919306297863
 20
0.1136714286513832
 11
1.055228980277083
 21
0.1136714286513832
 72
     1
 10
1.055228980277082
 20
0.1136714286513832
 11
1.051311050885725
 21
0.1136714286513832
 72
     1
 10
1.051311050885726
 20
0.1136714286513832
 11
1.049352086190046
 21
0.1136714286513832
 72
     1
 10
1.049352086190046
 20
0.1136714286513832
 11
1.049352086190046
 21
0.1163766656120825
 72
     1
 10
1.049352086190046
 20
0.1163766656120823
 11
1.049352086190046
 21
0.1209475832353323
 72
     1
 10
1.049352086190046
 20
0.1209475832353325
 11
1.049352086190046
 21
0.1267311932892411
 72
     1
 10
1.049352086190046
 20
0.1267311932892408
 11
1.049352086190046
 21
0.1330745075419143
 72
     1
 10
1.049352086190046
 20
0.1330745075419144
 11
1.049352086190046
 21
0.1395111058277156
 72
     1
 10
1.049352086190046
 20
0.1395111058277158
 11
1.049352086190046
 21
0.1452947158816239
 72
     1
 10
1.049352086190046
 20
0.145294715881624
 11
1.049352086190046
 21
0.1498656335048746
 72
     1
 10
1.049352086190046
 20
0.1498656335048745
 11
1.049352086190046
 21
0.1525708704655738
 97
        0
 75
     0
 76
     1
 98
        1
 10
-0.3743130907707726
 20
-0.2500502867693841
1001
ACAD
1010
0.0
1020
0.0
1030
0.0
  0
HATCH
  5
6F50
330
6F46
100
AcDbEntity
  8
Kawneer Logo-English
100
AcDbHatch
 10
0.0
 20
0.0
 30
0.0
210
0.0
220
0.0
230
1.0
  2
SOLID
 70
     1
 71
     0
 91
        1
 92
        1
 93
       42
 72
     1
 10
0.9725793269260698
 20
0.2277578011663825
 11
0.9725793269260698
 21
0.1354998924032311
 72
     1
 10
0.9725793269260698
 20
0.1354998924032311
 11
0.9729524630585808
 21
0.1264513411898582
 72
     1
 10
0.9729524630585796
 20
0.1264513411898583
 11
0.9729524630585796
 21
0.1255185008585825
 72
     1
 10
0.9729524630585796
 20
0.1255185008585824
 11
0.9731390311248343
 21
0.1238393882622866
 72
     1
 10
0.9731390311248349
 20
0.1238393882622866
 11
0.9717397706279211
 21
0.1254252168254551
 72
     1
 10
0.97173977062792
 20
0.1254252168254551
 11
0.9710867823960281
 21
0.1262647731236031
 72
     1
 10
0.9710867823960294
 20
0.1262647731236031
 11
0.9641837639445897
 21
0.1339140638400625
 72
     1
 10
0.9641837639445899
 20
0.1339140638400624
 11
0.8755639324734129
 21
0.2277578011663823
 72
     1
 10
0.8755639324734115
 20
0.2277578011663825
 11
0.8529891964565429
 21
0.2277578011663825
 72
     1
 10
0.8529891964565434
 20
0.2277578011663825
 11
0.8529891964565434
 21
0.0926825211976832
 72
     1
 10
0.8529891964565434
 20
0.0926825211976832
 11
0.8756572165065401
 21
0.0926825211976832
 72
     1
 10
0.875657216506541
 20
0.0926825211976832
 11
0.875657216506541
 21
0.1927762887435495
 72
     1
 10
0.875657216506541
 20
0.1927762887435495
 11
0.875657216506541
 21
0.1931494248760597
 72
     1
 10
0.875657216506541
 20
0.1931494248760596
 11
0.8755639324734129
 21
0.193988981174208
 72
     1
 10
0.8755639324734115
 20
0.1939889811742079
 11
0.8754706484402849
 21
0.1952949576379935
 72
     1
 10
0.8754706484402859
 20
0.1952949576379937
 11
0.8753773644071577
 21
0.1967875021680344
 72
     1
 10
0.875377364407158
 20
0.1967875021680343
 11
0.8755639324734126
 21
0.1965076500686515
 72
     1
 10
0.8755639324734115
 20
0.1965076500686517
 11
0.8756572165065396
 21
0.1963210820023967
 72
     1
 10
0.875657216506541
 20
0.1963210820023967
 11
0.8764967728046894
 21
0.1954815257042487
 72
     1
 10
0.8764967728046887
 20
0.1954815257042488
 11
0.8781758854009835
 21
0.1936158450416976
 72
     1
 10
0.8781758854009842
 20
0.1936158450416973
 11
0.8797617139641527
 21
0.1917501643791464
 72
     1
 10
0.879761713964152
 20
0.1917501643791466
 11
0.8805079862291723
 21
0.1909106080809982
 72
     1
 10
0.8805079862291727
 20
0.190910608080998
 11
0.8816273946267036
 21
0.1897911996834678
 72
     1
 10
0.8816273946267028
 20
0.1897911996834681
 11
0.884519199653657
 21
0.1867128265902584
 72
     1
 10
0.8845191996536581
 20
0.1867128265902582
 11
0.8891834013100353
 21
0.1818620568676254
 72
     1
 10
0.889183401310035
 20
0.1818620568676252
 11
0.8951535794301982
 21
0.1756120266480794
 72
     1
 10
0.8951535794301985
 20
0.1756120266480794
 11
0.9021498819147662
 21
0.1681493039978751
 72
     1
 10
0.9021498819147669
 20
0.1681493039978752
 11
0.9099857406974814
 21
0.1598470250495227
 72
     1
 10
0.9099857406974813
 20
0.1598470250495225
 11
0.9183813036789613
 21
0.1509850419024051
 72
     1
 10
0.9183813036789612
 20
0.1509850419024052
 11
0.9271500027929521
 21
0.1418432066559046
 72
     1
 10
0.9271500027929509
 20
0.1418432066559046
 11
0.9358254178738118
 21
0.1326080873762767
 72
     1
 10
0.9358254178738132
 20
0.1326080873762767
 11
0.9442209808552931
 21
0.1237461042291589
 72
     1
 10
0.9442209808552931
 20
0.1237461042291589
 11
0.9520568396380092
 21
0.1154438252808068
 72
     1
 10
0.9520568396380092
 20
0.1154438252808068
 11
0.9590531421225751
 21
0.1079811026306025
 72
     1
 10
0.959053142122574
 20
0.1079811026306024
 11
0.9650233202427372
 21
0.101731072411056
 72
     1
 10
0.9650233202427376
 20
0.101731072411056
 11
0.9695942378659868
 21
0.0968803026884232
 72
     1
 10
0.9695942378659871
 20
0.096880302688423
 11
0.9725793269260696
 21
0.0938019295952138
 72
     1
 10
0.9725793269260698
 20
0.093801929595214
 11
0.9736054512904727
 21
0.0926825211976834
 72
     1
 10
0.9736054512904726
 20
0.0926825211976832
 11
0.9952473469760661
 21
0.0926825211976832
 72
     1
 10
0.9952473469760651
 20
0.0926825211976832
 11
0.9952473469760651
 21
0.2277578011663825
 72
     1
 10
0.9952473469760651
 20
0.2277578011663825
 11
0.9927286780816201
 21
0.2277578011663825
 72
     1
 10
0.9927286780816203
 20
0.2277578011663825
 11
0.9725793269260686
 21
0.2277578011663825
 97
        0
 75
     0
 76
     1
 98
        1
 10
-0.3743130907707726
 20
-0.2500502867693841
1001
ACAD
1010
0.0
1020
0.0
1030
0.0
  0
HATCH
  5
6F51
330
6F46
100
AcDbEntity
  8
Kawneer Logo-English
100
AcDbHatch
 10
0.0
 20
0.0
 30
0.0
210
0.0
220
0.0
230
1.0
  2
SOLID
 70
     1
 71
     0
 91
        2
 92
       16
 93
       32
 72
     1
 10
0.5269615006757409
 20
0.144641727649731
 11
0.5290137494045469
 21
0.148652941074216
 72
     1
 10
0.5290137494045464
 20
0.1486529410742159
 11
0.5322786905640116
 21
0.1551828233931449
 72
     1
 10
0.532278690564012
 20
0.1551828233931452
 11
0.5364764720547521
 21
0.1633918183083696
 72
     1
 10
0.5364764720547526
 20
0.1633918183083696
 11
0.5409541056448736
 21
0.1722538014554874
 72
     1
 10
0.5409541056448726
 20
0.1722538014554873
 11
0.545338455201869
 21
0.1808359325032223
 72
     1
 10
0.5453384552018701
 20
0.1808359325032223
 11
0.5490698165269726
 21
0.1882053711202994
 72
     1
 10
0.549069816526973
 20
0.1882053711202996
 11
0.5515884854214162
 21
0.1932427089091875
 72
     1
 10
0.5515884854214148
 20
0.1932427089091872
 11
0.5526146097858177
 21
0.1952016736048658
 72
     1
 10
0.5526146097858194
 20
0.1952016736048658
 11
0.552801177852074
 21
0.195761377803631
 72
     1
 10
0.5528011778520723
 20
0.1957613778036309
 11
0.5533608820508379
 21
0.1970673542674166
 72
     1
 10
0.5533608820508378
 20
0.1970673542674169
 11
0.5542004383489863
 21
0.1990263189630955
 72
     1
 10
0.5542004383489872
 20
0.1990263189630952
 11
0.5550399946471356
 21
0.2012651357581567
 72
     1
 10
0.5550399946471352
 20
0.2012651357581567
 11
0.5555064148127727
 21
0.2001457273606265
 72
     1
 10
0.5555064148127729
 20
0.2001457273606264
 11
0.5560661190115385
 21
0.198933034929968
 72
     1
 10
0.5560661190115379
 20
0.198933034929968
 11
0.5567191072434298
 21
0.197533774433055
 72
     1
 10
0.5567191072434304
 20
0.197533774433055
 11
0.5574653795084506
 21
0.1959479458698865
 72
     1
 10
0.557465379508451
 20
0.1959479458698865
 11
0.5583049358065995
 21
0.1942688332735902
 72
     1
 10
0.5583049358065986
 20
0.1942688332735903
 11
0.5606370366347874
 21
0.1896046316172126
 72
     1
 10
0.5606370366347871
 20
0.1896046316172126
 11
0.5639952618273804
 21
0.1828881812320289
 72
     1
 10
0.5639952618273814
 20
0.1828881812320287
 11
0.5680064752518651
 21
0.1748657543830587
 72
     1
 10
0.5680064752518637
 20
0.1748657543830589
 11
0.57239082480886
 21
0.1661903393021966
 72
     1
 10
0.5723908248088612
 20
0.1661903393021967
 11
0.5765886062996012
 21
0.1577947763207168
 72
     1
 10
0.5765886062996
 20
0.1577947763207165
 11
0.5803199676247008
 21
0.1503320536705122
 72
     1
 10
0.5803199676247015
 20
0.1503320536705122
 11
0.5831184886185295
 21
0.144641727649731
 72
     1
 10
0.5831184886185295
 20
0.144641727649731
 11
0.5791072751940441
 21
0.144641727649731
 72
     1
 10
0.5791072751940436
 20
0.144641727649731
 11
0.5724841088419869
 21
0.144641727649731
 72
     1
 10
0.5724841088419872
 20
0.144641727649731
 11
0.5641818298936356
 21
0.144641727649731
 72
     1
 10
0.5641818298936352
 20
0.144641727649731
 11
0.5550399946471351
 21
0.144641727649731
 72
     1
 10
0.5550399946471352
 20
0.144641727649731
 11
0.5458981594006351
 21
0.144641727649731
 72
     1
 10
0.5458981594006352
 20
0.144641727649731
 11
0.5375958804522815
 21
0.144641727649731
 72
     1
 10
0.5375958804522814
 20
0.144641727649731
 11
0.5310659981333528
 21
0.144641727649731
 72
     1
 10
0.5310659981333524
 20
0.144641727649731
 11
0.5269615006757405
 21
0.144641727649731
 97
        0
 92
        1
 93
      141
 72
     1
 10
0.5656743744236757
 20
0.2277578011663825
 11
0.544405614870593
 21
0.2277578011663825
 72
     1
 10
0.544405614870593
 20
0.2277578011663825
 11
0.4748157261574382
 21
0.0934287934627039
 72
     1
 10
0.4748157261574378
 20
0.0934287934627039
 11
0.4729500454948865
 21
0.0955743262246376
 72
     1
 10
0.4729500454948874
 20
0.0955743262246376
 11
0.4699649564348049
 21
0.0991191194834847
 72
     1
 10
0.4699649564348043
 20
0.0991191194834847
 11
0.4661403110765752
 21
0.1036900371067346
 72
     1
 10
0.4661403110765754
 20
0.1036900371067347
 11
0.4615693934533244
 21
0.1091005110281331
 72
     1
 10
0.461569393453325
 20
0.109100511028133
 11
0.456345487598182
 21
0.1152572572145517
 72
     1
 10
0.4563454875981812
 20
0.1152572572145516
 11
0.4506551615774008
 21
0.1219737075997353
 72
     1
 10
0.4506551615774015
 20
0.1219737075997354
 11
0.4447782674903648
 21
0.1290632941174296
 72
     1
 10
0.4447782674903636
 20
0.1290632941174296
 11
0.4387148053370722
 21
0.1362461646682511
 72
     1
 10
0.4387148053370727
 20
0.1362461646682512
 11
0.4326513431837832
 21
0.1433357511859454
 72
     1
 10
0.4326513431837844
 20
0.1433357511859453
 11
0.4268677331298759
 21
0.1502387696373844
 72
     1
 10
0.4268677331298756
 20
0.1502387696373844
 11
0.4214572592084763
 21
0.1566753679231857
 72
     1
 10
0.4214572592084754
 20
0.1566753679231858
 11
0.4165132054527153
 21
0.1625522620102216
 72
     1
 10
0.4165132054527163
 20
0.1625522620102216
 11
0.4123154239619763
 21
0.1674963157659821
 72
     1
 10
0.4123154239619753
 20
0.1674963157659822
 11
0.4088639147362555
 21
0.1715075291904667
 72
     1
 10
0.4088639147362568
 20
0.1715075291904669
 11
0.4065318139080681
 21
0.1743993342174211
 72
     1
 10
0.4065318139080665
 20
0.1743993342174211
 11
0.405319121477409
 21
0.1757985947143345
 72
     1
 10
0.4053191214774104
 20
0.1757985947143345
 11
0.4067183819743243
 21
0.1769180031118651
 72
     1
 10
0.4067183819743235
 20
0.1769180031118651
 11
0.4094236189350213
 21
0.1788769678075437
 72
     1
 10
0.4094236189350218
 20
0.1788769678075437
 11
0.4132482642932526
 21
0.1816754888013702
 72
     1
 10
0.4132482642932525
 20
0.1816754888013703
 11
0.4179124659496298
 21
0.1852202820602174
 72
     1
 10
0.417912465949629
 20
0.1852202820602174
 11
0.4232296558379
 21
0.189138211451575
 72
     1
 10
0.4232296558379001
 20
0.1891382114515751
 11
0.4291065499249351
 21
0.1935225610085696
 72
     1
 10
0.4291065499249367
 20
0.1935225610085698
 11
0.4352632961113562
 21
0.1981867626649482
 72
     1
 10
0.4352632961113554
 20
0.1981867626649479
 11
0.4416066103640296
 21
0.2028509643213252
 72
     1
 10
0.4416066103640293
 20
0.2028509643213252
 11
0.4479499246167016
 21
0.2076084500108307
 72
     1
 10
0.4479499246167018
 20
0.2076084500108307
 11
0.4540133867699932
 21
0.2120860836009535
 72
     1
 10
0.4540133867699927
 20
0.2120860836009535
 11
0.4596104287576467
 21
0.2162838650916932
 72
     1
 10
0.4596104287576468
 20
0.216283865091693
 11
0.4646477665465351
 21
0.2200152264167952
 72
     1
 10
0.464647766546535
 20
0.2200152264167951
 11
0.4689388320704013
 21
0.223186883543132
 72
     1
 10
0.4689388320704016
 20
0.2231868835431323
 11
0.4721104891967386
 21
0.2256122684044488
 72
     1
 10
0.4721104891967376
 20
0.2256122684044488
 11
0.4742560219586717
 21
0.2271980969676172
 72
     1
 10
0.4742560219586727
 20
0.2271980969676173
 11
0.475002294223693
 21
0.2277578011663825
 72
     1
 10
0.4750022942236929
 20
0.2277578011663825
 11
0.4674462875403612
 21
0.2277578011663825
 72
     1
 10
0.4674462875403611
 20
0.2277578011663825
 11
0.4395543616352215
 21
0.2277578011663825
 72
     1
 10
0.439554361635222
 20
0.2277578011663825
 11
0.4386215213039473
 21
0.2270115289013622
 72
     1
 10
0.4386215213039466
 20
0.2270115289013622
 11
0.4359162843432469
 21
0.2250525642056836
 72
     1
 10
0.4359162843432465
 20
0.2250525642056836
 11
0.4318117868856346
 21
0.2220674751456017
 72
     1
 10
0.4318117868856351
 20
0.2220674751456017
 11
0.4264013129642376
 21
0.2180562617211167
 72
     1
 10
0.4264013129642379
 20
0.2180562617211168
 11
0.4200579987115638
 21
0.2132987760316117
 72
     1
 10
0.4200579987115641
 20
0.2132987760316114
 11
0.4128751281607416
 21
0.2079815861433408
 72
     1
 10
0.4128751281607408
 20
0.2079815861433408
 11
0.4051325534111546
 21
0.20229126012256
 72
     1
 10
0.4051325534111552
 20
0.20229126012256
 11
0.397016842529058
 21
0.1963210820023964
 72
     1
 10
0.3970168425290583
 20
0.1963210820023967
 11
0.3889011316469611
 21
0.1903509038822331
 72
     1
 10
0.3889011316469611
 20
0.190350903882233
 11
0.3808787047979902
 21
0.1844740097951972
 72
     1
 10
0.3808787047979898
 20
0.1844740097951974
 11
0.3733226981146581
 21
0.1787836837744166
 72
     1
 10
0.373322698114658
 20
0.1787836837744166
 11
0.3663263956300919
 21
0.173653061952401
 72
     1
 10
0.3663263956300931
 20
0.173653061952401
 11
0.3601696494436735
 21
0.169082144329151
 72
     1
 10
0.3601696494436726
 20
0.1690821443291508
 11
0.3550390276216579
 21
0.1653507830040483
 72
     1
 10
0.3550390276216584
 20
0.1653507830040482
 11
0.3513076662965558
 21
0.1625522620102218
 72
     1
 10
0.3513076662965551
 20
0.1625522620102216
 11
0.3490688495014928
 21
0.1609664334470531
 72
     1
 10
0.3490688495014926
 20
0.1609664334470531
 11
0.3490688495014926
 21
0.1631119662089868
 72
     1
 10
0.3490688495014926
 20
0.1631119662089868
 11
0.3490688495014926
 21
0.1662836233353237
 72
     1
 10
0.3490688495014926
 20
0.1662836233353238
 11
0.3490688495014926
 21
0.1702948367598088
 72
     1
 10
0.3490688495014926
 20
0.1702948367598088
 11
0.3490688495014926
 21
0.1749590384161865
 72
     1
 10
0.3490688495014926
 20
0.1749590384161865
 11
0.3490688495014926
 21
0.1801829442713294
 72
     1
 10
0.3490688495014926
 20
0.1801829442713296
 11
0.3490688495014926
 21
0.185779986258983
 72
     1
 10
0.3490688495014926
 20
0.1857799862589829
 11
0.3490688495014926
 21
0.1916568803460187
 72
     1
 10
0.3490688495014926
 20
0.1916568803460186
 11
0.3490688495014926
 21
0.1975337744330549
 72
     1
 10
0.3490688495014926
 20
0.197533774433055
 11
0.3490688495014926
 21
0.2033173844869632
 72
     1
 10
0.3490688495014926
 20
0.2033173844869631
 11
0.3490688495014926
 21
0.2088211424414888
 72
     1
 10
0.3490688495014926
 20
0.2088211424414888
 11
0.3490688495014926
 21
0.2139517642635044
 72
     1
 10
0.3490688495014926
 20
0.2139517642635044
 11
0.3490688495014926
 21
0.2185226818867544
 72
     1
 10
0.3490688495014926
 20
0.2185226818867545
 11
0.3490688495014926
 21
0.2222540432118567
 72
     1
 10
0.3490688495014926
 20
0.2222540432118567
 11
0.3490688495014926
 21
0.2252391322719387
 72
     1
 10
0.3490688495014926
 20
0.2252391322719387
 11
0.3490688495014926
 21
0.2271048129344895
 72
     1
 10
0.3490688495014926
 20
0.2271048129344895
 11
0.3490688495014926
 21
0.2277578011663825
 72
     1
 10
0.3490688495014926
 20
0.2277578011663825
 11
0.3258411252527322
 21
0.2277578011663825
 72
     1
 10
0.3258411252527336
 20
0.2277578011663825
 11
0.3258411252527336
 21
0.0926825211976832
 72
     1
 10
0.3258411252527336
 20
0.0926825211976832
 11
0.3486957133689848
 21
0.0926825211976832
 72
     1
 10
0.3486957133689845
 20
0.0926825211976832
 11
0.3486957133689845
 21
0.0943616337939795
 72
     1
 10
0.3486957133689845
 20
0.0943616337939795
 11
0.3486957133689845
 21
0.0988392673841017
 72
     1
 10
0.3486957133689845
 20
0.0988392673841017
 11
0.3486957133689845
 21
0.1051825816367752
 72
     1
 10
0.3486957133689845
 20
0.1051825816367753
 11
0.3486957133689845
 21
0.1125520202538523
 72
     1
 10
0.3486957133689845
 20
0.1125520202538524
 11
0.3486957133689845
 21
0.1200147429040567
 72
     1
 10
0.3486957133689845
 20
0.1200147429040567
 11
0.3486957133689845
 21
0.1267311932892408
 72
     1
 10
0.3486957133689845
 20
0.1267311932892408
 11
0.3486957133689845
 21
0.1317685310781287
 72
     1
 10
0.3486957133689845
 20
0.1317685310781289
 11
0.3486957133689845
 21
0.1342871999725727
 72
     1
 10
0.3486957133689845
 20
0.1342871999725725
 11
0.3507479620977905
 21
0.1356864604694859
 72
     1
 10
0.35074796209779
 20
0.1356864604694859
 11
0.3548524595554018
 21
0.1387648335626952
 72
     1
 10
0.3548524595554015
 20
0.1387648335626952
 11
0.3605427855761835
 21
0.1428693310203079
 72
     1
 10
0.3605427855761842
 20
0.1428693310203079
 11
0.3668860998288565
 21
0.1476268167098129
 72
     1
 10
0.3668860998288568
 20
0.1476268167098129
 11
0.373322698114659
 21
0.1522910183661906
 72
     1
 10
0.373322698114658
 20
0.1522910183661908
 11
0.3791995922016947
 21
0.1565820838900582
 72
     1
 10
0.3791995922016946
 20
0.1565820838900582
 11
0.3836772257918156
 21
0.1599403090826502
 72
     1
 10
0.3836772257918159
 20
0.1599403090826503
 11
0.386195894686261
 21
0.1618059897452011
 72
     1
 10
0.3861958946862609
 20
0.1618059897452011
 11
0.3873153030837921
 21
0.1604067292482882
 72
     1
 10
0.3873153030837915
 20
0.1604067292482878
 11
0.3894608358457238
 21
0.1577947763207163
 72
     1
 10
0.3894608358457248
 20
0.1577947763207165
 11
0.3925392089389353
 21
0.1541566990287417
 72
     1
 10
0.3925392089389348
 20
0.1541566990287417
 11
0.396457138330292
 21
0.149492497372364
 72
     1
 10
0.3964571383302933
 20
0.149492497372364
 11
0.4009347719204161
 21
0.1442685915172211
 72
     1
 10
0.4009347719204146
 20
0.1442685915172209
 11
0.4057855416430466
 21
0.138391697430185
 72
     1
 10
0.4057855416430463
 20
0.1383916974301853
 11
0.4109161634650628
 21
0.1322349512437666
 72
     1
 10
0.410916163465064
 20
0.1322349512437666
 11
0.4162333533533335
 21
0.1259849210242201
 72
     1
 10
0.4162333533533334
 20
0.1259849210242201
 11
0.4215505432416044
 21
0.1196416067715466
 72
     1
 10
0.4215505432416045
 20
0.1196416067715466
 11
0.4265878810304927
 21
0.113671428651383
 72
     1
 10
0.4265878810304931
 20
0.1136714286513832
 11
0.4312520826868704
 21
0.1079811026306024
 72
     1
 10
0.4312520826868696
 20
0.1079811026306024
 11
0.4355431482107378
 21
0.1029437648417141
 72
     1
 10
0.435543148210738
 20
0.1029437648417139
 11
0.4390879414695842
 21
0.0987459833509739
 72
     1
 10
0.4390879414695843
 20
0.0987459833509741
 11
0.4417931784302841
 21
0.0954810421915098
 72
     1
 10
0.4417931784302845
 20
0.0954810421915096
 11
0.4435655750597076
 21
0.0934287934627037
 72
     1
 10
0.4435655750597074
 20
0.0934287934627039
 11
0.4442185632915993
 21
0.0926825211976832
 72
     1
 10
0.4442185632915985
 20
0.0926825211976832
 11
0.4743493059918004
 21
0.0926825211976832
 72
     1
 10
0.4743493059918001
 20
0.0926825211976832
 11
0.4753754303562029
 21
0.0926825211976832
 72
     1
 10
0.4753754303562033
 20
0.0926825211976832
 11
0.5008419714000258
 21
0.0926825211976832
 72
     1
 10
0.5008419714000265
 20
0.0926825211976832
 11
0.5014949596319184
 21
0.0939884976614689
 72
     1
 10
0.501494959631919
 20
0.0939884976614688
 11
0.5031740722282155
 21
0.0973467228540609
 72
     1
 10
0.503174072228215
 20
0.0973467228540612
 11
0.5055061730564038
 21
0.1021042085435666
 72
     1
 10
0.505506173056403
 20
0.1021042085435665
 11
0.5083046940502291
 21
0.1077012505312196
 72
     1
 10
0.5083046940502292
 20
0.1077012505312194
 11
0.5111032150440553
 21
0.1134848605851279
 72
     1
 10
0.5111032150440549
 20
0.1134848605851281
 11
0.5137151679716264
 21
0.1186154824071433
 72
     1
 10
0.5137151679716277
 20
0.1186154824071433
 11
0.5156741326673071
 21
0.1226266958316283
 72
     1
 10
0.5156741326673076
 20
0.122626695831628
 11
0.5167002570317104
 21
0.1247722285935621
 72
     1
 10
0.5167002570317103
 20
0.1247722285935622
 11
0.5180062334954961
 21
0.1247722285935622
 72
     1
 10
0.5180062334954961
 20
0.1247722285935622
 11
0.5207114704561957
 21
0.1247722285935622
 72
     1
 10
0.5207114704561944
 20
0.1247722285935622
 11
0.5246293998475517
 21
0.1247722285935622
 72
     1
 10
0.5246293998475525
 20
0.1247722285935622
 11
0.5295734536033125
 21
0.1247722285935622
 72
     1
 10
0.5295734536033115
 20
0.1247722285935622
 11
0.5352637796240919
 21
0.1247722285935622
 72
     1
 10
0.5352637796240929
 20
0.1247722285935622
 11
0.5415138098436386
 21
0.1247722285935622
 72
     1
 10
0.5415138098436394
 20
0.1247722285935622
 11
0.5482302602288245
 21
0.1247722285935622
 72
     1
 10
0.5482302602288236
 20
0.1247722285935622
 11
0.5551332786802616
 21
0.1247722285935622
 72
     1
 10
0.5551332786802608
 20
0.1247722285935622
 11
0.5620362971317004
 21
0.1247722285935622
 72
     1
 10
0.5620362971317015
 20
0.1247722285935622
 11
0.5687527475168847
 21
0.1247722285935622
 72
     1
 10
0.5687527475168839
 20
0.1247722285935622
 11
0.5750027777364317
 21
0.1247722285935622
 72
     1
 10
0.5750027777364322
 20
0.1247722285935622
 11
0.5806931037572126
 21
0.1247722285935622
 72
     1
 10
0.5806931037572119
 20
0.1247722285935622
 11
0.585637157512972
 21
0.1247722285935622
 72
     1
 10
0.5856371575129727
 20
0.1247722285935622
 11
0.5895550869043299
 21
0.1247722285935622
 72
     1
 10
0.5895550869043289
 20
0.1247722285935622
 11
0.5922603238650286
 21
0.1247722285935622
 72
     1
 10
0.5922603238650291
 20
0.1247722285935622
 11
0.5935663003288148
 21
0.1247722285935622
 72
     1
 10
0.5935663003288148
 20
0.1247722285935622
 11
0.5945924246932176
 21
0.1226266958316281
 72
     1
 10
0.5945924246932175
 20
0.122626695831628
 11
0.5965513893888953
 21
0.1186154824071431
 72
     1
 10
0.5965513893888957
 20
0.1186154824071433
 11
0.5991633423164672
 21
0.1134848605851281
 72
     1
 10
0.5991633423164667
 20
0.1134848605851281
 11
0.6019618633102946
 21
0.1077012505312196
 72
     1
 10
0.6019618633102959
 20
0.1077012505312194
 11
0.604760384304122
 21
0.1021042085435664
 72
     1
 10
0.6047603843041221
 20
0.1021042085435665
 11
0.6070924851323109
 21
0.0973467228540611
 72
     1
 10
0.6070924851323101
 20
0.0973467228540612
 11
0.6087715977286067
 21
0.0939884976614691
 72
     1
 10
0.6087715977286062
 20
0.0939884976614688
 11
0.609424585960498
 21
0.0926825211976832
 72
     1
 10
0.6094245859604986
 20
0.0926825211976832
 11
0.6363836715343633
 21
0.0926825211976832
 72
     1
 10
0.6363836715343641
 20
0.0926825211976832
 11
0.5671669189537184
 21
0.2277578011663825
 72
     1
 10
0.5671669189537179
 20
0.2277578011663825
 11
0.5656743744236758
 21
0.2277578011663825
 97
        0
 75
     0
 76
     1
 98
        1
 10
-0.3743130907707726
 20
-0.2500502867693841
1001
ACAD
1010
0.0
1020
0.0
1030
0.0
  0
HATCH
  5
6F52
330
6F46
100
AcDbEntity
  8
Kawneer Logo-English
100
AcDbHatch
 10
0.0
 20
0.0
 30
0.0
210
0.0
220
0.0
230
1.0
  2
SOLID
 70
     1
 71
     0
 91
        1
 92
        1
 93
       69
 72
     1
 10
0.8092389849197205
 20
0.2277578011663825
 11
0.778921674153266
 21
0.1309289747799811
 72
     1
 10
0.778921674153267
 20
0.1309289747799809
 11
0.7781754018882468
 21
0.1287834420180468
 72
     1
 10
0.7781754018882468
 20
0.1287834420180467
 11
0.7776156976894812
 21
0.1270110453886236
 72
     1
 10
0.7776156976894813
 20
0.1270110453886237
 11
0.7771492775238438
 21
0.1253319327923275
 72
     1
 10
0.7771492775238436
 20
0.1253319327923274
 11
0.7766828573582045
 21
0.1238393882622867
 72
     1
 10
0.7766828573582046
 20
0.1238393882622866
 11
0.7764030052588217
 21
0.1248655126266895
 72
     1
 10
0.776403005258822
 20
0.1248655126266896
 11
0.7761231531594392
 21
0.1259849210242202
 72
     1
 10
0.7761231531594391
 20
0.1259849210242201
 11
0.7759365850931844
 21
0.1268244773223681
 72
     1
 10
0.7759365850931843
 20
0.1268244773223682
 11
0.7758433010600562
 21
0.1271976134548783
 72
     1
 10
0.7758433010600552
 20
0.1271976134548783
 11
0.7755634489606744
 21
0.1280371697530267
 72
     1
 10
0.775563448960674
 20
0.1280371697530267
 11
0.7750970287950349
 21
0.1291565781505569
 72
     1
 10
0.7750970287950363
 20
0.1291565781505568
 11
0.773977620397507
 21
0.1323282352768938
 72
     1
 10
0.7739776203975062
 20
0.1323282352768939
 11
0.7721119397349549
 21
0.1372722890326544
 72
     1
 10
0.7721119397349554
 20
0.1372722890326546
 11
0.7697798389067666
 21
0.1436156032853281
 72
     1
 10
0.769779838906767
 20
0.1436156032853281
 11
0.7670746019460673
 21
0.1511716099686602
 72
     1
 10
0.7670746019460668
 20
0.15117160996866
 11
0.7639962288528581
 21
0.1595671729501399
 72
     1
 10
0.7639962288528582
 20
0.15956717295014
 11
0.7606380036602665
 21
0.1686157241635125
 72
     1
 10
0.7606380036602652
 20
0.1686157241635125
 11
0.7572797784676718
 21
0.1778508434431408
 72
     1
 10
0.7572797784676726
 20
0.1778508434431408
 11
0.753921553275081
 21
0.187179246755896
 72
     1
 10
0.7539215532750814
 20
0.1871792467558961
 11
0.7505633280824898
 21
0.1962277979692689
 72
     1
 10
0.7505633280824902
 20
0.1962277979692689
 11
0.7474849549892814
 21
0.2046233609507488
 72
     1
 10
0.7474849549892797
 20
0.2046233609507488
 11
0.74477971802858
 21
0.2121793676340809
 72
     1
 10
0.7447797180285814
 20
0.2121793676340809
 11
0.7424476172003926
 21
0.2185226818867544
 72
     1
 10
0.7424476172003929
 20
0.2185226818867545
 11
0.7405819365378416
 21
0.2234667356425151
 72
     1
 10
0.7405819365378408
 20
0.2234667356425151
 11
0.7394625281403098
 21
0.2266383927688516
 72
     1
 10
0.7394625281403103
 20
0.2266383927688516
 11
0.7390893920078009
 21
0.2277578011663822
 72
     1
 10
0.7390893920078004
 20
0.2277578011663825
 11
0.7191266089185034
 21
0.2277578011663825
 72
     1
 10
0.7191266089185029
 20
0.2277578011663825
 11
0.6843316645619254
 21
0.1336342117406798
 72
     1
 10
0.6843316645619267
 20
0.1336342117406795
 11
0.6832122561643957
 21
0.130649122680598
 72
     1
 10
0.6832122561643961
 20
0.1306491226805981
 11
0.6823726998662476
 21
0.1282237378192816
 72
     1
 10
0.6823726998662468
 20
0.1282237378192818
 11
0.6817197116343549
 21
0.1260782050573481
 72
     1
 10
0.6817197116343552
 20
0.1260782050573481
 11
0.6811600074355896
 21
0.1241192403616695
 72
     1
 10
0.6811600074355884
 20
0.1241192403616695
 11
0.6808801553362055
 21
0.1250520806929446
 72
     1
 10
0.6808801553362059
 20
0.1250520806929445
 11
0.6805070192036949
 21
0.1261714890904751
 72
     1
 10
0.680507019203696
 20
0.1261714890904752
 11
0.6802271671043131
 21
0.1272908974880058
 72
     1
 10
0.680227167104313
 20
0.1272908974880061
 11
0.6798540309718037
 21
0.1286901579849195
 72
     1
 10
0.6798540309718031
 20
0.1286901579849194
 11
0.6794808948392922
 21
0.12980956638245
 72
     1
 10
0.6794808948392932
 20
0.1298095663824503
 11
0.6784547704748904
 21
0.1328879394756595
 72
     1
 10
0.67845477047489
 20
0.1328879394756595
 11
0.6769622259448497
 21
0.1378319932314196
 72
     1
 10
0.6769622259448496
 20
0.1378319932314196
 11
0.6750032612491701
 21
0.1441753074840938
 72
     1
 10
0.6750032612491697
 20
0.1441753074840937
 11
0.6725778763878547
 21
0.1516380301342981
 72
     1
 10
0.6725778763878556
 20
0.1516380301342981
 11
0.6699659234602841
 21
0.160033593115778
 72
     1
 10
0.6699659234602829
 20
0.160033593115778
 11
0.6671674024664549
 21
0.168988860296023
 72
     1
 10
0.6671674024664554
 20
0.168988860296023
 11
0.6642755974395012
 21
0.1782239795756509
 72
     1
 10
0.6642755974395019
 20
0.178223979575651
 11
0.6613837924125477
 21
0.1874590988552789
 72
     1
 10
0.6613837924125466
 20
0.1874590988552789
 11
0.6585852714187205
 21
0.1964143660355239
 72
     1
 10
0.6585852714187204
 20
0.1964143660355237
 11
0.6559733184911489
 21
0.2047166449838762
 72
     1
 10
0.6559733184911494
 20
0.2047166449838765
 11
0.6536412176629606
 21
0.2122726516672082
 72
     1
 10
0.6536412176629614
 20
0.2122726516672082
 11
0.6515889689341538
 21
0.2186159659198823
 72
     1
 10
0.6515889689341537
 20
0.2186159659198821
 11
0.6500964244041133
 21
0.2234667356425149
 72
     1
 10
0.6500964244041132
 20
0.2234667356425151
 11
0.6490703000397104
 21
0.2266383927688516
 72
     1
 10
0.6490703000397105
 20
0.2266383927688516
 11
0.6487904479403276
 21
0.2277578011663822
 72
     1
 10
0.648790447940328
 20
0.2277578011663825
 11
0.6237903270621445
 21
0.2277578011663825
 72
     1
 10
0.6237903270621437
 20
0.2277578011663825
 11
0.6676338226320932
 21
0.0926825211976832
 72
     1
 10
0.6676338226320926
 20
0.0926825211976832
 11
0.6922608073777669
 21
0.0926825211976832
 72
     1
 10
0.6922608073777666
 20
0.0926825211976832
 11
0.726029627369941
 21
0.1855001341596003
 72
     1
 10
0.7260296273699423
 20
0.1855001341596003
 11
0.7269624677012189
 21
0.1882986551534267
 72
     1
 10
0.7269624677012177
 20
0.1882986551534266
 11
0.7278020239993661
 21
0.1906307559816158
 72
     1
 10
0.727802023999367
 20
0.1906307559816159
 11
0.7284550122312589
 21
0.1927762887435496
 72
     1
 10
0.7284550122312581
 20
0.1927762887435495
 11
0.7290147164300237
 21
0.1947352534392281
 72
     1
 10
0.7290147164300232
 20
0.1947352534392282
 11
0.7298542727281716
 21
0.192216584544784
 72
     1
 10
0.729854272728173
 20
0.1922165845447839
 11
0.7306938290263214
 21
0.1894180635509575
 72
     1
 10
0.7306938290263206
 20
0.1894180635509575
 11
0.7318132374238499
 21
0.1863396904577483
 72
     1
 10
0.7318132374238511
 20
0.1863396904577481
 11
0.7331192138876387
 21
0.1827016131657736
 72
     1
 10
0.7331192138876382
 20
0.1827016131657737
 11
0.7654887733828987
 21
0.0926825211976834
 72
     1
 10
0.7654887733828986
 20
0.0926825211976832
 11
0.7895560539298075
 21
0.0926825211976832
 72
     1
 10
0.7895560539298075
 20
0.0926825211976832
 11
0.8341458217647785
 21
0.2277578011663825
 72
     1
 10
0.8341458217647783
 20
0.2277578011663825
 11
0.830601028505932
 21
0.2277578011663825
 72
     1
 10
0.8306010285059324
 20
0.2277578011663825
 11
0.8092389849197216
 21
0.2277578011663825
 97
        0
 75
     0
 76
     1
 98
        1
 10
-0.3743130907707726
 20
-0.2500502867693841
1001
ACAD
1010
0.0
1020
0.0
1030
0.0
  0
ENDBLK
  5
6F53
330
6F46
100
AcDbEntity
  8
0
100
AcDbBlockEnd
  0
ENDSEC
  0
SECTION
  2
ENTITIES
  0
MTEXT
  5
2082
330
17
100
AcDbEntity
  8
0
100
AcDbMText
 10
36.37558895252258
 20
2.056797391309643
 30
0.0
 40
0.375
 41
11.91800541288839
 71
     2
 72
     5
  1
DETAIL SCALE: 1" = 1"
 73
     1
 44
1.0
1001
ACAD
1000
MTEXTBEGIN
1070
    73
1070
     1
1070
    44
1040
1.0
1070
    74
1070
     0
1000
MTEXTEND
  0
LINE
  5
2085
330
17
100
AcDbEntity
  8
0
100
AcDbLine
 10
0.0
 20
0.0
 30
0.0
 11
0.0
 21
40.06155317319091
 31
0.0
  0
LINE
  5
2088
330
17
100
AcDbEntity
  8
0
100
AcDbLine
 10
0.0
 20
0.0
 30
0.0
 11
66.54370139777859
 21
0.0
 31
0.0
  0
MTEXT
  5
2099
330
17
100
AcDbEntity
  8
0
 62
     2
100
AcDbMText
 10
36.37558895252258
 20
4.223827713707194
 30
0.0
 40
0.5
 41
14.125
 71
     2
 72
     5
  1
PG 123™ FRAMING\PANCHOR AND SPLICE DETAILS
 73
     1
 44
1.0
1001
ACAD
1000
MTEXTBEGIN
1070
    73
1070
     1
1070
    44
1040
1.0
1070
    74
1070
     0
1000
MTEXTEND
  0
TEXT
  5
455C
330
17
100
AcDbEntity
  8
0
  6
Continuous
 62
     2
100
AcDbText
 10
9.652340423938698
 20
10.14051299927759
 30
0.0
 40
0.375
  1
HEAD AND SILL
 72
     1
 11
11.61750925067812
 21
10.14051299927759
 31
0.0
100
AcDbText
  0
LWPOLYLINE
  5
6835
330
17
100
AcDbEntity
  8
R-SWTS-DET1
100
AcDbPolyline
 90
        6
 70
     0
 43
0.0
 10
41.60378777068972
 20
32.38060350145651
 10
41.60378777068972
 20
29.23719762719358
 10
41.81600296367193
 20
29.18412904545709
 10
41.39158822268174
 20
29.07657795745591
 10
41.60380341566396
 20
29.02350937571941
 10
41.60380341566396
 20
25.88010350145648
  0
LINE
  5
6836
330
17
100
AcDbEntity
  8
R-SWTS-DET1
100
AcDbLine
 10
36.44858582730654
 20
26.34185350640506
 30
0.0
 11
36.44858582730654
 21
30.57097813446802
 31
0.0
  0
LINE
  5
6837
330
17
100
AcDbEntity
  8
R-SWTS-DET1
100
AcDbLine
 10
36.94858582730655
 20
26.34185350640506
 30
0.0
 11
36.94858582730655
 21
30.57097813446802
 31
0.0
  0
LINE
  5
6838
330
17
100
AcDbEntity
  8
R-SWTS-DET2
  6
HIDDEN
100
AcDbLine
 10
39.94858582730655
 20
30.61532369148674
 30
0.0
 11
39.94858582730655
 21
26.30282369148675
 31
0.0
  0
LINE
  5
6839
330
17
100
AcDbEntity
  8
R-SWTS-DET2
  6
HIDDEN
100
AcDbLine
 10
33.44858582730655
 20
30.61532369148675
 30
0.0
 11
33.44858582730655
 21
26.30282369148675
 31
0.0
  0
LWPOLYLINE
  5
683A
330
17
100
AcDbEntity
  8
R-SWTS-DET1
100
AcDbPolyline
 90
        6
 70
     0
 43
0.0
 10
31.79336823894913
 20
32.38060350145651
 10
31.79336823894913
 20
29.23719762719358
 10
32.00558343193134
 20
29.18412904545709
 10
31.58116869094115
 20
29.07657795745591
 10
31.79338388392337
 20
29.02350937571941
 10
31.79338388392337
 20
25.88010350145648
  0
LINE
  5
683B
330
17
100
AcDbEntity
  8
R-SWTS-DET1
100
AcDbLine
 10
31.79337606143622
 20
26.34185350640506
 30
0.0
 11
36.44858582730652
 21
26.34185350640506
 31
0.0
  0
LINE
  5
683C
330
17
100
AcDbEntity
  8
R-SWTS-DET1
100
AcDbLine
 10
31.79336823894913
 20
26.89321586809617
 30
0.0
 11
36.44858582730655
 21
26.89321586809617
 31
0.0
  0
LINE
  5
683D
330
17
100
AcDbEntity
  8
R-SWTS-DET1
100
AcDbLine
 10
31.79336823894913
 20
28.21251436690861
 30
0.0
 11
36.44858582730655
 21
28.21251436690861
 31
0.0
  0
LINE
  5
683E
330
17
100
AcDbEntity
  8
R-SWTS-DET1
100
AcDbLine
 10
31.79336823894913
 20
27.642841611011
 30
0.0
 11
36.44858582730654
 21
27.642841611011
 31
0.0
  0
LINE
  5
683F
330
17
100
AcDbEntity
  8
R-SWTS-DET1
100
AcDbLine
 10
31.79336823894913
 20
27.46107875451546
 30
0.0
 11
36.44858582730654
 21
27.46107875451546
 31
0.0
  0
LINE
  5
6840
330
17
100
AcDbEntity
  8
R-SWTS-DET1
100
AcDbLine
 10
31.79336823894913
 20
27.56604242311464
 30
0.0
 11
36.44858582730654
 21
27.56604242311464
 31
0.0
  0
LINE
  5
6841
330
17
100
AcDbEntity
  8
R-SWTS-DET1
100
AcDbLine
 10
31.79337606143625
 20
26.1303535014565
 30
0.0
 11
36.44858582730654
 21
26.1303535014565
 31
0.0
  0
LINE
  5
6842
330
17
100
AcDbEntity
  8
R-SWTS-DET1
100
AcDbLine
 10
31.79337606143628
 20
26.34185350640506
 30
0.0
 11
36.44858582730658
 21
26.34185350640506
 31
0.0
  0
LINE
  5
6843
330
17
100
AcDbEntity
  8
R-SWTS-DET2
  6
HIDDEN
100
AcDbLine
 10
39.94858582730655
 20
26.30282369148675
 30
0.0
 11
33.44858582730655
 21
26.30282369148675
 31
0.0
  0
LINE
  5
6844
330
17
100
AcDbEntity
  8
R-SWTS-DET1
100
AcDbLine
 10
36.94858582730655
 20
26.34185350640506
 30
0.0
 11
36.94858582730655
 21
26.1303535014565
 31
0.0
  0
LINE
  5
6845
330
17
100
AcDbEntity
  8
R-SWTS-DET1
100
AcDbLine
 10
36.44858582730654
 20
26.34185350640506
 30
0.0
 11
36.44858582730654
 21
26.1303535014565
 31
0.0
  0
ARC
  5
6846
330
17
100
AcDbEntity
  8
R-SWTS-DET3
100
AcDbCircle
 10
36.69858582730654
 20
25.38047627040182
 30
0.0
 40
0.7904529471475394
100
AcDbArc
 50
71.56223710553475
 51
108.4377628944652
  0
LINE
  5
6847
330
17
100
AcDbEntity
  8
R-SWTS-DET1
100
AcDbLine
 10
41.60379559317684
 20
26.1303535014565
 30
0.0
 11
36.94858582730655
 21
26.1303535014565
 31
0.0
  0
LINE
  5
6848
330
17
100
AcDbEntity
  8
R-SWTS-DET1
100
AcDbLine
 10
41.60380341566396
 20
27.56604242311464
 30
0.0
 11
36.94858582730655
 21
27.56604242311464
 31
0.0
  0
LINE
  5
6849
330
17
100
AcDbEntity
  8
R-SWTS-DET1
100
AcDbLine
 10
41.60380341566396
 20
27.46107875451546
 30
0.0
 11
36.94858582730655
 21
27.46107875451546
 31
0.0
  0
LINE
  5
684A
330
17
100
AcDbEntity
  8
R-SWTS-DET1
100
AcDbLine
 10
41.60380341566396
 20
27.642841611011
 30
0.0
 11
36.94858582730655
 21
27.642841611011
 31
0.0
  0
LINE
  5
684B
330
17
100
AcDbEntity
  8
R-SWTS-DET1
100
AcDbLine
 10
41.60380341566396
 20
28.21251436690861
 30
0.0
 11
36.94858582730655
 21
28.21251436690861
 31
0.0
  0
LINE
  5
684C
330
17
100
AcDbEntity
  8
R-SWTS-DET1
100
AcDbLine
 10
41.60380341566396
 20
26.89321586809617
 30
0.0
 11
36.94858582730655
 21
26.89321586809617
 31
0.0
  0
LINE
  5
684D
330
17
100
AcDbEntity
  8
R-SWTS-DET1
100
AcDbLine
 10
41.60379559317687
 20
26.34185350640506
 30
0.0
 11
36.94858582730657
 21
26.34185350640506
 31
0.0
  0
LINE
  5
684E
330
17
100
AcDbEntity
  8
R-SWTS-DET1
100
AcDbLine
 10
31.79338388392337
 20
29.9209081502136
 30
0.0
 11
36.44858582730655
 21
29.9209081502136
 31
0.0
  0
LINE
  5
684F
330
17
100
AcDbEntity
  8
R-SWTS-DET1
100
AcDbLine
 10
31.79338388392337
 20
30.23228122728887
 30
0.0
 11
36.44858582730655
 21
30.23228122728887
 31
0.0
  0
LINE
  5
6850
330
17
100
AcDbEntity
  8
R-SWTS-DET1
100
AcDbLine
 10
31.79338388392337
 20
30.43584125593282
 30
0.0
 11
36.44858582730654
 21
30.43584125593282
 31
0.0
  0
LINE
  5
6851
330
17
100
AcDbEntity
  8
R-SWTS-DET1
100
AcDbLine
 10
31.79338388392337
 20
30.51016810472332
 30
0.0
 11
36.44858582730654
 21
30.51016810472332
 31
0.0
  0
LWPOLYLINE
  5
6852
330
17
100
AcDbEntity
  8
R-SWTS-DET2
100
AcDbPolyline
 90
        2
 70
     0
 43
0.06
 10
37.82358582730655
 20
30.61532369148675
 10
35.57358582730655
 20
30.61532369148675
  0
LINE
  5
6853
330
17
100
AcDbEntity
  8
R-SWTS-DET1
100
AcDbLine
 10
31.79337606143625
 20
32.1303535014565
 30
0.0
 11
36.44858582730654
 21
32.1303535014565
 31
0.0
  0
LINE
  5
6854
330
17
100
AcDbEntity
  8
R-SWTS-DET1
100
AcDbLine
 10
31.79337606143625
 20
31.50535350371393
 30
0.0
 11
36.44858582730654
 21
31.50535350371393
 31
0.0
  0
LINE
  5
6855
330
17
100
AcDbEntity
  8
R-SWTS-DET2
  6
HIDDEN
100
AcDbLine
 10
39.94858582730655
 20
30.61532369148674
 30
0.0
 11
33.44858582730655
 21
30.61532369148675
 31
0.0
  0
LINE
  5
6856
330
17
100
AcDbEntity
  8
R-SWTS-DET2
  6
HIDDEN
100
AcDbLine
 10
37.82358582730655
 20
32.01869334028829
 30
0.0
 11
35.57358582730655
 21
32.01869334028829
 31
0.0
  0
LINE
  5
6857
330
17
100
AcDbEntity
  8
R-SWTS-DET1
100
AcDbLine
 10
31.79338388392337
 20
30.92616322835652
 30
0.0
 11
35.53680180455477
 21
30.92616322835652
 31
0.0
  0
LINE
  5
6858
330
17
100
AcDbEntity
  8
R-SWTS-DET1
100
AcDbLine
 10
31.79338388392337
 20
31.12923121693901
 30
0.0
 11
35.53680180455477
 21
31.12923121693901
 31
0.0
  0
LINE
  5
6859
330
17
100
AcDbEntity
  8
R-SWTS-DET1
100
AcDbLine
 10
31.79338388392337
 20
30.64001741392925
 30
0.0
 11
35.54095721509764
 21
30.64001741392925
 31
0.0
  0
LINE
  5
685A
330
17
100
AcDbEntity
  8
R-SWTS-DET1
100
AcDbLine
 10
31.79338388392337
 20
31.40519722406985
 30
0.0
 11
35.54358582730654
 21
31.40519722406985
 31
0.0
  0
LWPOLYLINE
  5
685B
330
17
100
AcDbEntity
  8
R-SWTS-DET2
100
AcDbPolyline
 90
        2
 70
     0
 43
0.06
 10
35.57358582730655
 20
30.57097813446802
 10
35.57358582730655
 20
31.50535350371393
  0
LINE
  5
685C
330
17
100
AcDbEntity
  8
R-SWTS-DET2
  6
HIDDEN
100
AcDbLine
 10
35.57358582730655
 20
32.01869334028829
 30
0.0
 11
35.57358582730655
 21
31.50535350371393
 31
0.0
  0
LINE
  5
685D
330
17
100
AcDbEntity
  8
R-SWTS-DET1
100
AcDbLine
 10
41.60378777068972
 20
30.51016810472332
 30
0.0
 11
36.94858582730655
 21
30.51016810472332
 31
0.0
  0
LINE
  5
685E
330
17
100
AcDbEntity
  8
R-SWTS-DET1
100
AcDbLine
 10
41.60378777068972
 20
30.43584125593282
 30
0.0
 11
36.94858582730655
 21
30.43584125593282
 31
0.0
  0
LINE
  5
685F
330
17
100
AcDbEntity
  8
R-SWTS-DET1
100
AcDbLine
 10
41.60378777068972
 20
30.64001741392925
 30
0.0
 11
37.85621443951547
 21
30.64001741392925
 31
0.0
  0
LINE
  5
6860
330
17
100
AcDbEntity
  8
R-SWTS-DET1
100
AcDbLine
 10
41.60378777068972
 20
31.12923121693901
 30
0.0
 11
37.86036985005833
 21
31.12923121693901
 31
0.0
  0
LINE
  5
6861
330
17
100
AcDbEntity
  8
R-SWTS-DET1
100
AcDbLine
 10
41.60378777068972
 20
30.92616322835652
 30
0.0
 11
37.86036985005833
 21
30.92616322835652
 31
0.0
  0
LINE
  5
6862
330
17
100
AcDbEntity
  8
R-SWTS-DET1
100
AcDbLine
 10
41.60378777068972
 20
31.40519722406985
 30
0.0
 11
37.85358582730656
 21
31.40519722406985
 31
0.0
  0
LINE
  5
6863
330
17
100
AcDbEntity
  8
R-SWTS-DET1
100
AcDbLine
 10
41.60378777068972
 20
30.23228122728887
 30
0.0
 11
36.94858582730655
 21
30.23228122728887
 31
0.0
  0
LINE
  5
6864
330
17
100
AcDbEntity
  8
R-SWTS-DET1
100
AcDbLine
 10
41.60378777068972
 20
29.9209081502136
 30
0.0
 11
36.94858582730655
 21
29.9209081502136
 31
0.0
  0
LINE
  5
6865
330
17
100
AcDbEntity
  8
R-SWTS-DET1
100
AcDbLine
 10
41.60379559317684
 20
32.1303535014565
 30
0.0
 11
36.94858582730655
 21
32.1303535014565
 31
0.0
  0
LINE
  5
6866
330
17
100
AcDbEntity
  8
R-SWTS-DET1
100
AcDbLine
 10
41.60379559317684
 20
31.50535350371393
 30
0.0
 11
36.94858582730655
 21
31.50535350371393
 31
0.0
  0
LWPOLYLINE
  5
6867
330
17
100
AcDbEntity
  8
R-SWTS-DET2
100
AcDbPolyline
 90
        2
 70
     0
 43
0.06
 10
37.82358582730655
 20
30.57097813446802
 10
37.82358582730655
 20
31.50535350371393
  0
ARC
  5
6868
330
17
100
AcDbEntity
  8
R-SWTS-DET3
100
AcDbCircle
 10
36.69858582730655
 20
30.85705729641172
 30
0.0
 40
0.694829455623778
100
AcDbArc
 50
68.91205416802256
 51
111.0879458319778
  0
ARC
  5
6869
330
17
100
AcDbEntity
  8
R-SWTS-DET3
100
AcDbCircle
 10
36.69858582730655
 20
32.77864970875871
 30
0.0
 40
0.694829455623778
100
AcDbArc
 50
248.9120541680221
 51
291.0879458319774
  0
LINE
  5
686A
330
17
100
AcDbEntity
  8
R-SWTS-DET1
100
AcDbLine
 10
36.94858582730655
 20
32.1303535014565
 30
0.0
 11
36.94858582730655
 21
31.50535350371393
 31
0.0
  0
LINE
  5
686B
330
17
100
AcDbEntity
  8
R-SWTS-DET1
100
AcDbLine
 10
36.44858582730654
 20
32.1303535014565
 30
0.0
 11
36.44858582730654
 21
31.50535350371393
 31
0.0
  0
LINE
  5
686C
330
17
100
AcDbEntity
  8
R-SWTS-DET2
  6
HIDDEN
100
AcDbLine
 10
37.82358582730655
 20
32.01869334028829
 30
0.0
 11
37.82358582730655
 21
31.50535350371393
 31
0.0
  0
ELLIPSE
  5
686D
330
17
100
AcDbEntity
  8
R-SWTS-DET3
  6
ByBlock
100
AcDbEllipse
 10
50.63357708906521
 20
30.85006184645633
 30
0.0
 11
0.3025146694558352
 21
0.0
 31
0.0
210
0.0
220
0.0
230
1.0
 40
0.8343701019125205
 41
0.0
 42
6.283185307179586
  0
LWPOLYLINE
  5
686E
330
17
100
AcDbEntity
  8
0
  6
PHANTOM
100
AcDbPolyline
 90
        2
 70
     0
 43
0.011
 10
42.48630323731309
 20
25.22996735731923
 10
42.48630323731311
 20
32.98095141231986
  0
LEADER
  5
686F
330
17
100
AcDbEntity
  8
R-ANNO-DIMS
100
AcDbLeader
  3
STANDARD
 76
     2
 10
53.19824226514954
 20
30.88762437028857
 30
0.0
 10
53.55579348486272
 20
31.86766693787954
 30
0.0
211
0.985608749791273
221
-0.1690425755094975
231
0.0
1001
ACAD
1000
DSTYLE
1002
{
1070
     5
1000

1070
   342
1005
0
1002
}
  0
LEADER
  5
6870
330
17
100
AcDbEntity
  8
R-ANNO-DIMS
100
AcDbLeader
  3
STANDARD
 76
     2
 10
55.92578329745427
 20
28.87832821775159
 30
0.0
 10
57.0575627781546
 20
27.54185734557731
 30
0.0
211
0.6390253270691471
221
0.7691856936814217
231
0.0
1001
ACAD
1000
DSTYLE
1002
{
1070
     5
1000

1070
   342
1005
0
1002
}
  0
LEADER
  5
6871
330
17
100
AcDbEntity
  8
R-ANNO-DIMS
100
AcDbLeader
  3
STANDARD
 76
     2
 10
52.41336091176847
 20
30.68446153744665
 30
0.0
 10
52.97676070342835
 20
32.50138428038383
 30
0.0
211
0.9407760891411014
221
-0.3390285387697836
231
0.0
1001
ACAD
1000
DSTYLE
1002
{
1070
     5
1000

1070
   342
1005
0
1002
}
  0
LEADER
  5
6872
330
17
100
AcDbEntity
  8
R-ANNO-DIMS
100
AcDbLeader
  3
STANDARD
 76
     2
 10
51.18112177137956
 20
29.94146156204778
 30
0.0
 10
52.12199815694105
 20
26.88058713538584
 30
0.0
211
0.9856087497912728
221
-0.1690425755094975
231
0.0
1001
ACAD
1000
DSTYLE
1002
{
1070
     5
1000

1070
   342
1005
0
1002
}
  0
LEADER
  5
6873
330
17
100
AcDbEntity
  8
R-ANNO-DIMS
100
AcDbLeader
  3
STANDARD
 76
     2
 10
50.37350228706483
 20
28.35180274325474
 30
0.0
 10
51.28416530985038
 20
26.10097294794902
 30
0.0
211
0.985608749791273
221
-0.1690425755094975
231
0.0
1001
ACAD
1000
DSTYLE
1002
{
1070
     5
1000

1070
   342
1005
0
1002
}
  0
LINE
  5
6874
330
17
100
AcDbEntity
  8
R-SWTS-DET3
  6
ByBlock
100
AcDbLine
 10
49.56153006970929
 20
31.10197053014845
 30
0.0
 11
56.31389487519587
 21
31.10178925801778
 31
0.0
  0
LWPOLYLINE
  5
6875
330
17
100
AcDbEntity
  8
R-SWTS-DET2
100
AcDbPolyline
 90
       12
 70
     0
 43
0.06
 10
50.51043836490148
 20
28.46178794949418
 10
50.21100228819356
 20
28.50178794949418
 10
50.2435427888578
 20
30.34256423830729
 10
50.2689515270628
 20
30.39333681061695
 10
50.73647039135562
 20
30.38318227660996
 10
50.74663395904059
 20
30.36795052446212
 10
50.74663395904059
 20
29.97700228448433
 10
50.7771243000806
 20
29.95669331419562
 10
50.82794159548313
 20
29.94146156204778
 10
51.53430194727599
 20
29.94146156204778
 10
51.58511906167106
 20
29.97700228448433
 10
51.63593635707361
 20
30.21055578484283
  0
ARC
  5
6876
330
17
100
AcDbEntity
  8
R-SWTS-DET3
  6
ByBlock
100
AcDbCircle
 10
49.76167159050958
 20
30.85343705526348
 30
0.0
 40
0.391048198506772
100
AcDbArc
 50
319.9476925011623
 51
39.55849063150482
  0
LEADER
  5
6877
330
17
100
AcDbEntity
  8
R-ANNO-DIMS
100
AcDbLeader
  3
STANDARD
 76
     2
 10
35.53922827189137
 20
30.59586499374396
 30
0.0
 10
31.29578234378285
 20
29.10075396188159
 30
0.0
211
-0.8372277653760926
221
-0.5468543397316641
231
0.0
1001
ACAD
1000
DSTYLE
1002
{
1070
     5
1000

1070
   342
1005
0
1002
}
  0
LEADER
  5
6878
330
17
100
AcDbEntity
  8
R-ANNO-DIMS
100
AcDbLeader
  3
STANDARD
 76
     2
 10
34.69308866091522
 20
29.00869315048394
 30
0.0
 10
31.29627787019143
 20
28.0989116128572
 30
0.0
211
-0.3559549540920599
221
0.9345031143111935
231
0.0
1001
ACAD
1000
DSTYLE
1002
{
1070
     5
1000

1070
   342
1005
0
1002
}
  0
LEADER
  5
6879
330
17
100
AcDbEntity
  8
R-ANNO-DIMS
100
AcDbLeader
  3
STANDARD
 76
     2
 10
33.41827050399674
 20
27.47829866225825
 30
0.0
 10
31.30338060878305
 20
27.06708805072999
 30
0.0
211
-0.9752662460843982
221
-0.2210333668214963
231
0.0
1001
ACAD
1000
DSTYLE
1002
{
1070
     5
1000

1070
   342
1005
0
1002
}
  0
LEADER
  5
687A
330
17
100
AcDbEntity
  8
R-ANNO-DIMS
100
AcDbLeader
  3
STANDARD
 76
     2
 10
32.56825921110499
 20
31.53517908163741
 30
0.0
 10
31.15956336882731
 20
30.30834611437615
 30
0.0
211
0.6293013128198907
221
-0.7771614103152331
231
0.0
210
0.0
220
0.0
230
-1.0
1001
ACAD
1000
DSTYLE
1002
{
1070
     5
1000

1070
   342
1005
0
1002
}
  0
TEXT
  5
687B
330
17
100
AcDbEntity
  8
PART_NUMBERS
100
AcDbText
 10
52.29348808230653
 20
26.76579643910961
 30
0.0
 40
0.25
  1
127060 (2 1/4" SILICONE SHEET)
100
AcDbText
  0
TEXT
  5
687C
330
17
100
AcDbEntity
  8
PART_NUMBERS
100
AcDbText
 10
51.48737782819502
 20
25.97729750825517
 30
0.0
 40
0.25
  1
850202 HEAD ASSEMBLY
100
AcDbText
  0
TEXT
  5
687D
330
17
100
AcDbEntity
  8
PART_NUMBERS
100
AcDbText
 10
53.23096965530613
 20
32.4222411126162
 30
0.0
 40
0.25
  1
850309 HEAD / SILL SPLICE
100
AcDbText
  0
TEXT
  5
687E
330
17
100
AcDbEntity
  8
PART_NUMBERS
100
AcDbText
 10
53.67213731172298
 20
31.76501813726998
 30
0.0
 40
0.25
  1
 028514 #10 X 3/8" B PHTF
100
AcDbText
  0
TEXT
  5
687F
330
17
100
AcDbEntity
  8
PART_NUMBERS
100
AcDbText
 10
57.31177156837169
 20
27.44325587537846
 30
0.0
 40
0.25
  1
850011 HEAD RECEPTOR STOP
100
AcDbText
  0
TEXT
  5
6880
330
17
100
AcDbEntity
  8
PART_NUMBERS
100
AcDbText
 10
26.5820597148207
 20
26.925208979618
 30
0.0
 40
0.25
  1
850309 HEAD / SILL SPLICE
100
AcDbText
  0
TEXT
  5
6881
330
17
100
AcDbEntity
  8
PART_NUMBERS
100
AcDbText
 10
26.60512615458831
 20
27.97626752792984
 30
0.0
 40
0.25
  1
 028514 #10 X 3/8" B PHTF
100
AcDbText
  0
TEXT
  5
6882
330
17
100
AcDbEntity
  8
PART_NUMBERS
100
AcDbText
 10
24.79714202009828
 20
28.97222019751912
 30
0.0
 40
0.25
  1
127060 (.060 x 2.25 SILICONE SHEET)
100
AcDbText
  0
TEXT
  5
6883
330
17
100
AcDbEntity
  8
PART_NUMBERS
100
AcDbText
 10
27.14020212179189
 20
30.16104341874597
 30
0.0
 40
0.25
  1
850203 SILL ASSEMBLY
100
AcDbText
  0
LWPOLYLINE
  5
6884
330
17
100
AcDbEntity
  8
R-SWTS-DET1
100
AcDbPolyline
 90
       26
 70
     1
 43
0.0
 10
56.06100228819336
 20
30.60180241830537
 10
56.06100228819336
 20
28.86675312643563
 42
-0.414211037754322
 10
56.04600241748729
 20
28.85175312643618
 10
55.86950255031334
 20
28.85175160507876
 42
-0.4142135623729564
 10
55.85450242101997
 20
28.86675147578426
 10
55.85450167111513
 20
28.95364594578457
 42
-0.6693764950687929
 10
55.88014323860218
 20
28.96421759537633
 42
0.2080761175766774
 10
55.94099341929132
 20
28.93764669130785
 42
0.4142135623730951
 10
55.99099298830968
 20
28.98764712228576
 10
55.9909922297853
 20
29.0756471222825
 42
0.4142135623730951
 10
55.94099179880739
 20
29.12564669130086
 42
0.2080761175766746
 10
55.88014207618816
 20
29.09907473822848
 42
-0.6693764950688419
 10
55.85450032645828
 20
29.10964594577878
 10
55.8544993179656
 20
29.22664594577444
 10
55.96467966705211
 20
29.22664674479857
 42
0.430839631886257
 10
55.97965567632522
 20
29.24249284649078
 10
55.93554405613526
 20
30.02332364759073
 42
0.3987814360323386
 10
55.74613228549987
 20
30.22304145050635
 10
55.10092276477154
 20
30.27034450795208
 10
55.10092329918645
 20
30.20834450795438
 10
54.93278640383135
 20
30.2537250354779
 42
-0.876167446593725
 10
54.94320917491681
 20
30.33234314852685
 10
55.95098977798135
 20
30.33235183518807
 10
55.96600249795613
 20
30.57675326136016
 42
-0.4142135657529981
 10
55.99100228204838
 20
30.60180181493364
 10
56.06100228819318
 20
30.601802093356
  0
LINE
  5
6885
330
17
100
AcDbEntity
  8
R-SWTS-DET2
100
AcDbLine
 10
52.92902331946759
 20
30.43530285325417
 30
0.0
 11
52.92902331946759
 21
30.50180274325418
 31
0.0
  0
LINE
  5
6886
330
17
100
AcDbEntity
  8
R-SWTS-DET2
100
AcDbLine
 10
53.30202331946759
 20
30.43530285325417
 30
0.0
 11
53.30202331946759
 21
30.50180274325418
 31
0.0
  0
LINE
  5
6887
330
17
100
AcDbEntity
  8
R-SWTS-DET2
100
AcDbLine
 10
53.21052304946758
 20
30.75180224325418
 30
0.0
 11
53.18052307946759
 21
30.87680224325417
 31
0.0
  0
LINE
  5
6888
330
17
100
AcDbEntity
  8
R-SWTS-DET2
100
AcDbLine
 10
53.02052334946758
 20
30.50180274325418
 30
0.0
 11
53.02052334946758
 21
30.75180164325417
 31
0.0
  0
LINE
  5
6889
330
17
100
AcDbEntity
  8
R-SWTS-DET2
100
AcDbLine
 10
53.21052328946759
 20
30.50180274325418
 30
0.0
 11
53.21052328946759
 21
30.75180164325417
 31
0.0
  0
LINE
  5
688A
330
17
100
AcDbEntity
  8
R-SWTS-DET2
100
AcDbLine
 10
53.05052331946758
 20
30.87680274325418
 30
0.0
 11
53.18052331946758
 21
30.87680274325418
 31
0.0
  0
LINE
  5
688B
330
17
100
AcDbEntity
  8
R-SWTS-DET2
100
AcDbLine
 10
53.02052358946759
 20
30.75180224325418
 30
0.0
 11
53.05052355946759
 21
30.87680224325417
 31
0.0
  0
ARC
  5
688C
330
17
100
AcDbEntity
  8
R-SWTS-DET2
100
AcDbCircle
 10
53.11552331946758
 20
30.66357324325417
 30
0.0
 40
0.2947704
100
AcDbArc
 50
230.7507000000001
 51
309.2492999999998
  0
LWPOLYLINE
  5
688D
330
17
100
AcDbEntity
  8
R-SWTS-DET2
100
AcDbPolyline
 90
       26
 70
     1
 43
0.0
 10
55.85353209674001
 20
30.60180270883577
 10
54.57186124622987
 20
30.60180270883579
 42
0.4142135623731268
 10
54.55186124622987
 20
30.58180270883581
 10
54.55186124622987
 20
30.48180270883569
 42
0.4142135623731255
 10
54.57186124622987
 20
30.46180270883569
 10
54.69342572131106
 20
30.46180270883571
 42
-1.000000000000011
 10
54.69342572131106
 20
30.3918027088357
 10
54.57186124622989
 20
30.39180270883569
 42
-0.4142135623731255
 10
54.48186124622987
 20
30.48180270883569
 10
54.48186124622987
 20
30.58180270883581
 42
0.4142135623730947
 10
54.46186124622987
 20
30.6018027088358
 10
51.84199826017155
 20
30.60180270883581
 42
0.4142135623730977
 10
51.82199826017154
 20
30.58180270883581
 10
51.82199826017155
 20
30.48180270883617
 42
-0.4142135623731133
 10
51.73199826017155
 20
30.39180270883617
 10
51.66603209674001
 20
30.39180270883618
 42
0.4142135623731004
 10
51.64603209674002
 20
30.37180270883618
 10
51.64603209674002
 20
30.35746916021366
 42
-0.9999999999999998
 10
51.57603209674002
 20
30.35746916021366
 10
51.57603209674002
 20
30.37180270883617
 42
-0.4142135623730951
 10
51.66603209674001
 20
30.46180270883617
 10
51.73199826017155
 20
30.46180270883617
 42
0.414213562373099
 10
51.75199826017155
 20
30.48180270883617
 10
51.75199826017155
 20
30.5818027088358
 42
-0.4142135623730977
 10
51.84199826017155
 20
30.6718027088358
 10
55.85353209674001
 20
30.6718027088358
 42
-1.000000000000011
  0
LWPOLYLINE
  5
688E
330
17
100
AcDbEntity
  8
R-SWTS-DET2
100
AcDbPolyline
 90
       18
 70
     1
 43
0.0
 10
50.87350228819355
 20
28.5878944121756
 10
50.87350228819353
 20
28.32136351274021
 10
50.68600228953207
 20
28.35261351251713
 10
50.68600228953207
 20
28.59961351251712
 10
50.5982228727361
 20
28.62361351251712
 10
50.61026486673315
 20
28.57867217909571
 10
50.57645746281302
 20
28.56961351251712
 10
50.55100228953207
 20
28.66461351251712
 10
50.57645746281302
 20
28.75961351251713
 10
50.61026486673315
 20
28.75055484593854
 10
50.5982228727361
 20
28.70561351251712
 10
50.68600228953207
 20
28.72961351251713
 10
50.68600228953207
 20
28.85261351251712
 10
50.86200228953207
 20
28.85261351251712
 10
50.87350228819355
 20
28.84369778321778
 10
50.87350228819355
 20
28.72352924181647
 10
50.86200228953207
 20
28.71461351251713
 10
50.86200228953207
 20
28.59461351251712
  0
LINE
  5
688F
330
17
100
AcDbEntity
  8
R-SWTS-DET2
100
AcDbLine
 10
34.94011949360775
 20
29.15199104054524
 30
0.0
 11
34.90912056116012
 21
29.15173863787354
 31
0.0
  0
LINE
  5
6890
330
17
100
AcDbEntity
  8
R-SWTS-DET2
100
AcDbLine
 10
34.94173975703328
 20
28.95299775677303
 30
0.0
 11
34.91074082458565
 21
28.95274535410133
 31
0.0
  0
LINE
  5
6891
330
17
100
AcDbEntity
  8
R-SWTS-DET2
100
AcDbLine
 10
35.02480062948311
 20
29.06867781550346
 30
0.0
 11
35.0250530324805
 21
29.03767884305715
 31
0.0
  0
LINE
  5
6892
330
17
100
AcDbEntity
  8
R-SWTS-DET2
100
AcDbLine
 10
34.82580734571091
 20
29.06705755207794
 30
0.0
 11
34.82605974870829
 21
29.03605857963164
 31
0.0
  0
LINE
  5
6893
330
17
100
AcDbEntity
  8
R-SWTS-DET2
100
AcDbLine
 10
34.94011949360775
 20
29.15199104054524
 30
0.0
 11
34.94039835788402
 21
29.11774221582501
 31
0.0
  0
LINE
  5
6894
330
17
100
AcDbEntity
  8
R-SWTS-DET2
100
AcDbLine
 10
34.90912056116012
 20
29.15173863787354
 30
0.0
 11
34.90939942543639
 21
29.1174898131533
 31
0.0
  0
LINE
  5
6895
330
17
100
AcDbEntity
  8
R-SWTS-DET2
100
AcDbLine
 10
35.02480062948311
 20
29.06867781550346
 30
0.0
 11
34.99055174476487
 21
29.06839895073867
 31
0.0
  0
LINE
  5
6896
330
17
100
AcDbEntity
  8
R-SWTS-DET2
100
AcDbLine
 10
35.0250530324805
 20
29.03767884305715
 30
0.0
 11
34.99080414776226
 21
29.03739997829236
 31
0.0
  0
LINE
  5
6897
330
17
100
AcDbEntity
  8
R-SWTS-DET2
100
AcDbLine
 10
34.86005611043312
 20
29.06733641586568
 30
0.0
 11
34.82580734571091
 21
29.06705755207794
 31
0.0
  0
LINE
  5
6898
330
17
100
AcDbEntity
  8
R-SWTS-DET2
100
AcDbLine
 10
34.86030851343051
 20
29.03633744341938
 30
0.0
 11
34.82605974870829
 21
29.03605857963164
 31
0.0
  0
LINE
  5
6899
330
17
100
AcDbEntity
  8
R-SWTS-DET2
100
AcDbLine
 10
34.94146089275701
 20
28.98724658149326
 30
0.0
 11
34.94173975703328
 21
28.95299775677303
 31
0.0
  0
LINE
  5
689A
330
17
100
AcDbEntity
  8
R-SWTS-DET2
100
AcDbLine
 10
34.91046196030938
 20
28.98699417882156
 30
0.0
 11
34.91074082458565
 21
28.95274535410133
 31
0.0
  0
CIRCLE
  5
689B
330
17
100
AcDbEntity
  8
R-SWTS-DET2
100
AcDbCircle
 10
34.92543018909571
 20
29.05236819756755
 30
0.0
 40
0.1865
  0
ARC
  5
689C
330
17
100
AcDbEntity
  8
R-SWTS-DET2
100
AcDbCircle
 10
34.99120921370006
 20
28.98765164734964
 30
0.0
 40
0.04975
100
AcDbArc
 50
90.46659923466711
 51
180.4665092346669
  0
ARC
  5
689D
330
17
100
AcDbEntity
  8
R-SWTS-DET2
100
AcDbCircle
 10
34.86071357936831
 20
28.98658911247666
 30
0.0
 40
0.04975
100
AcDbArc
 50
0.4665092346669278
 51
90.46653923466699
  0
ARC
  5
689E
330
17
100
AcDbEntity
  8
R-SWTS-DET2
100
AcDbCircle
 10
34.85965104449532
 20
29.1170847468084
 30
0.0
 40
0.04975
100
AcDbArc
 50
270.4665092346669
 51
0.4665092346669278
  0
ARC
  5
689F
330
17
100
AcDbEntity
  8
R-SWTS-DET2
100
AcDbCircle
 10
34.99014667882708
 20
29.11814728168139
 30
0.0
 40
0.04975
100
AcDbArc
 50
180.4665092346669
 51
270.4665092346669
  0
CIRCLE
  5
68A0
330
17
100
AcDbEntity
  8
R-SWTS-DET2
100
AcDbCircle
 10
51.42215856558009
 20
30.14489592333915
 30
0.0
 40
0.024
  0
CIRCLE
  5
68A1
330
17
100
AcDbEntity
  8
R-SWTS-DET2
100
AcDbCircle
 10
51.42215856558047
 20
30.14395914697742
 30
0.0
 40
0.024
  0
CIRCLE
  5
68A2
330
17
100
AcDbEntity
  8
R-SWTS-DET2
100
AcDbCircle
 10
50.90515856700225
 20
30.14489592333983
 30
0.0
 40
0.024
  0
LWPOLYLINE
  5
68A3
330
17
100
AcDbEntity
  8
R-SWTS-DET2
100
AcDbPolyline
 90
       46
 70
     1
 43
0.0
 10
51.45115856700249
 20
30.06939592333953
 42
-0.4142135623730951
 10
51.44315856700249
 20
30.06139592333955
 10
51.42430216054193
 20
30.06139592333961
 42
-0.1316524975873776
 10
51.42030216054194
 20
30.06246772010934
 10
51.36522520899615
 20
30.09426641291064
 42
0.0453740290048416
 10
51.34911262086337
 20
30.10171286729205
 42
0.3148583090879042
 10
51.3214879861027
 20
30.09413182192588
 10
51.23788100621742
 20
29.9934267279022
 42
-0.2230683942869864
 10
51.21864601734123
 20
29.98439592334015
 10
51.10867111666333
 20
29.98439592334044
 42
-0.2230683942869864
 10
51.08943612778718
 20
29.9934267279026
 10
51.00582914790246
 20
30.09413182192671
 42
0.3148583090879189
 10
50.97820451314181
 20
30.101712867293
 42
0.0453740290048501
 10
50.96209192500899
 20
30.0942664129117
 10
50.90701497346305
 20
30.06246772011069
 42
-0.1316524975873776
 10
50.90301497346304
 20
30.06139592334098
 10
50.88415856700248
 20
30.06139592334103
 42
-0.4142135623730951
 10
50.8761585670025
 20
30.06939592334105
 10
50.87615856700264
 20
30.11639592334106
 42
-0.414213562373095
 10
50.88415856700265
 20
30.12439592334104
 10
50.89267858302678
 20
30.12439592334101
 42
1.779511413441527
 10
50.89267858302775
 20
30.16539592334061
 10
50.88415856700277
 20
30.16539592334103
 42
-0.4142135623730625
 10
50.87615856700279
 20
30.17339592334106
 10
50.87615856700292
 20
30.22039592334106
 42
-0.414213562373095
 10
50.88415856700294
 20
30.22839592334103
 10
50.90301497346349
 20
30.22839592334098
 42
-0.1316524975873907
 10
50.90701497346349
 20
30.22732412657125
 10
50.96209192500926
 20
30.19552543376996
 42
0.093275063306594
 10
50.99629439629712
 20
30.18351954260729
 42
-0.1836037872869595
 10
51.05813483270771
 20
30.14854287463066
 10
51.11133939654783
 20
30.08445766687562
 42
0.4694988190660091
 10
51.2159777360342
 20
30.08445766687535
 10
51.26918230129771
 20
30.14854287463009
 42
-0.1836037872869457
 10
51.33102273770848
 20
30.18351954260641
 42
0.0932750633066132
 10
51.36522520899641
 20
30.19552543376889
 10
51.42030216054236
 20
30.2273241265699
 42
-0.1316524975874097
 10
51.42430216054236
 20
30.22839592333961
 10
51.44315856700292
 20
30.22839592333955
 42
-0.4142135623730951
 10
51.4511585670029
 20
30.22039592333954
 10
51.45115856700278
 20
30.17339592333954
 42
-0.4142135623730625
 10
51.44315856700275
 20
30.16539592333955
 10
51.43463855097778
 20
30.16539592333918
 42
1.779511413441528
 10
51.43463855097852
 20
30.12439592333958
 10
51.44315856700266
 20
30.12439592333956
 42
-0.4142135623730951
 10
51.45115856700262
 20
30.11639592333954
  0
CIRCLE
  5
68A4
330
17
100
AcDbEntity
  8
R-SWTS-DET2
100
AcDbCircle
 10
50.90515856700225
 20
30.14489592333983
 30
0.0
 40
0.019
  0
CIRCLE
  5
68A5
330
17
100
AcDbEntity
  8
R-SWTS-DET2
100
AcDbCircle
 10
51.42215856558009
 20
30.14489592333915
 30
0.0
 40
0.019
  0
CIRCLE
  5
68A6
330
17
100
AcDbEntity
  8
R-SWTS-DET2
100
AcDbCircle
 10
51.42215856558047
 20
30.14395914697742
 30
0.0
 40
0.019
  0
CIRCLE
  5
68A7
330
17
100
AcDbEntity
  8
R-SWTS-DET2
100
AcDbCircle
 10
51.42215856558009
 20
30.4337095631702
 30
0.0
 40
0.024
  0
CIRCLE
  5
68A8
330
17
100
AcDbEntity
  8
R-SWTS-DET2
100
AcDbCircle
 10
51.42215856558047
 20
30.43464633953194
 30
0.0
 40
0.024
  0
CIRCLE
  5
68A9
330
17
100
AcDbEntity
  8
R-SWTS-DET2
100
AcDbCircle
 10
50.90515856700225
 20
30.43370956316952
 30
0.0
 40
0.024
  0
LWPOLYLINE
  5
68AA
330
17
100
AcDbEntity
  8
R-SWTS-DET2
100
AcDbPolyline
 90
       46
 70
     1
 43
0.0
 10
51.45115856700249
 20
30.50920956316983
 42
0.4142135623730951
 10
51.44315856700249
 20
30.5172095631698
 10
51.42430216054193
 20
30.51720956316975
 42
0.1316524975873776
 10
51.42030216054194
 20
30.51613776640002
 10
51.36522520899615
 20
30.48433907359871
 42
-0.0453740290048416
 10
51.34911262086337
 20
30.47689261921731
 42
-0.3148583090879042
 10
51.3214879861027
 20
30.48447366458348
 10
51.23788100621742
 20
30.58517875860714
 42
0.2230683942869864
 10
51.21864601734123
 20
30.5942095631692
 10
51.10867111666334
 20
30.59420956316891
 42
0.2230683942869864
 10
51.08943612778718
 20
30.58517875860675
 10
51.00582914790246
 20
30.48447366458264
 42
-0.3148583090879189
 10
50.97820451314181
 20
30.47689261921635
 42
-0.0453740290048501
 10
50.962091925009
 20
30.48433907359765
 10
50.90701497346305
 20
30.51613776639866
 42
0.1316524975873776
 10
50.90301497346304
 20
30.51720956316837
 10
50.88415856700248
 20
30.51720956316832
 42
0.4142135623730951
 10
50.8761585670025
 20
30.50920956316831
 10
50.87615856700264
 20
30.4622095631683
 42
0.414213562373095
 10
50.88415856700265
 20
30.45420956316832
 10
50.89267858302678
 20
30.45420956316834
 42
-1.779511413441527
 10
50.89267858302773
 20
30.41320956316874
 10
50.88415856700276
 20
30.41320956316833
 42
0.4142135623730625
 10
50.87615856700278
 20
30.40520956316829
 10
50.8761585670029
 20
30.35820956316829
 42
0.414213562373095
 10
50.88415856700293
 20
30.35020956316832
 10
50.90301497346349
 20
30.35020956316837
 42
0.1316524975873907
 10
50.90701497346348
 20
30.3512813599381
 10
50.96209192500926
 20
30.3830800527394
 42
-0.093275063306594
 10
50.99629439629712
 20
30.39508594390207
 42
0.1836037872869595
 10
51.05813483270771
 20
30.43006261187869
 10
51.11133939654783
 20
30.49414781963373
 42
-0.4694988190660091
 10
51.2159777360342
 20
30.49414781963401
 10
51.26918230129771
 20
30.43006261187925
 42
0.1836037872869457
 10
51.33102273770848
 20
30.39508594390295
 42
-0.0932750633066132
 10
51.36522520899641
 20
30.38308005274046
 10
51.42030216054236
 20
30.35128135993946
 42
0.1316524975874097
 10
51.42430216054236
 20
30.35020956316975
 10
51.44315856700292
 20
30.3502095631698
 42
0.4142135623730951
 10
51.4511585670029
 20
30.35820956316982
 10
51.45115856700278
 20
30.40520956316981
 42
0.4142135623730625
 10
51.44315856700275
 20
30.4132095631698
 10
51.43463855097778
 20
30.41320956317018
 42
-1.779511413441528
 10
51.43463855097852
 20
30.45420956316978
 10
51.44315856700266
 20
30.4542095631698
 42
0.4142135623730951
 10
51.45115856700262
 20
30.46220956316981
  0
CIRCLE
  5
68AB
330
17
100
AcDbEntity
  8
R-SWTS-DET2
100
AcDbCircle
 10
50.90515856700225
 20
30.43370956316952
 30
0.0
 40
0.019
  0
CIRCLE
  5
68AC
330
17
100
AcDbEntity
  8
R-SWTS-DET2
100
AcDbCircle
 10
51.42215856558009
 20
30.4337095631702
 30
0.0
 40
0.019
  0
CIRCLE
  5
68AD
330
17
100
AcDbEntity
  8
R-SWTS-DET2
100
AcDbCircle
 10
51.42215856558047
 20
30.43464633953194
 30
0.0
 40
0.019
  0
LWPOLYLINE
  5
68AE
330
17
100
AcDbEntity
  8
R-SWTS-DET1
100
AcDbPolyline
 90
      126
 70
     1
 43
0.0
 10
51.68260919595943
 20
30.12049329101775
 42
2.152119391383827
 10
51.57118619874046
 20
30.11443410843334
 42
-0.6336739107904501
 10
51.55134153854938
 20
30.06393848514789
 10
51.55134153854938
 20
30.00680274325474
 42
-0.4142135623731904
 10
51.52134153854937
 20
29.97680274325474
 10
51.44485972227201
 20
29.97680274325474
 42
-0.0655434628152565
 10
51.43191877001688
 20
29.97850645194029
 10
51.34215093210155
 20
30.00255967161599
 42
0.2976378995952131
 10
51.33175843757713
 20
29.99915283991646
 10
51.31975605536102
 20
29.98417141798845
 42
-0.2048158433768217
 10
51.31282330871512
 20
29.98046189757089
 10
51.28526480336022
 20
29.97805084076876
 42
-0.3281932863521564
 10
51.27514260944019
 20
29.98421466657168
 10
51.26657472276143
 20
30.00508245921437
 42
-0.2540700439599616
 10
51.26863311492591
 20
30.024064292039
 10
51.29309641337288
 20
30.05939378170854
 42
-0.1237581644398227
 10
51.30043454729204
 20
30.06581559374171
 10
51.35904924974082
 20
30.09578470520795
 42
-0.7818493696235876
 10
51.37179314363486
 20
30.08114523959342
 10
51.39661205231181
 20
30.06376685264767
 42
-0.3689783014496684
 10
51.39986332032787
 20
30.05118975937918
 42
0.5486861486953333
 10
51.40867582864306
 20
30.03680570960201
 10
51.44099432750035
 20
30.03624158810609
 42
0.4193348017593236
 10
51.45116885156472
 20
30.04624006505768
 10
51.45116885156411
 20
30.22080274325483
 42
0.4142135623717943
 10
51.44316885156413
 20
30.2288027432548
 10
51.4211688515641
 20
30.22880274325482
 10
51.37316479392442
 20
30.20108758765434
 42
-1.014346566485003
 10
51.35316885156391
 20
30.2008027432546
 10
51.35316885156391
 20
30.28930274325468
 10
51.35316885156391
 20
30.37780274325475
 42
-1.014346566485003
 10
51.37316479392442
 20
30.37751789885501
 10
51.4211688515641
 20
30.34980274325453
 10
51.44316885156413
 20
30.34980274325454
 42
0.4142135623717943
 10
51.45116885156411
 20
30.35780274325452
 10
51.45116885156472
 20
30.53236542145167
 42
0.4193348017593236
 10
51.44099432750035
 20
30.54236389840326
 10
51.40867582864306
 20
30.54179977690733
 42
0.5486861486953333
 10
51.39986332032787
 20
30.52741572713016
 42
-0.3689783014496684
 10
51.39661205231181
 20
30.51483863386168
 10
51.37179314363486
 20
30.49746024691593
 42
-0.7818493696235877
 10
51.35904924974082
 20
30.4828207813014
 10
51.30043454729204
 20
30.51278989276764
 42
-0.1237581644398227
 10
51.29309641337288
 20
30.5192117048008
 10
51.26863311492591
 20
30.55454119447035
 42
-0.2540700439599616
 10
51.26657472276143
 20
30.57352302729498
 10
51.27514260944019
 20
30.59439081993768
 42
-0.3281932863521564
 10
51.28526480336022
 20
30.60055464574059
 10
51.31282330871512
 20
30.59814358893846
 42
-0.2048158433768218
 10
51.31975605536102
 20
30.5944340685209
 10
51.33175843757713
 20
30.57945264659289
 42
0.297637899595213
 10
51.34215093210155
 20
30.57604581489336
 10
51.43191877001688
 20
30.60009903456907
 42
-0.0655434628152565
 10
51.44485972227201
 20
30.60180274325462
 10
51.70230770198092
 20
30.60180274325472
 42
-0.4142135623730951
 10
51.73230770198092
 20
30.57180274325472
 10
51.73230770198092
 20
30.53180274325457
 42
-0.4142135623730951
 10
51.70230770198092
 20
30.50180274325457
 10
51.55134153854938
 20
30.50180274325457
 10
51.55134153854938
 20
30.32746919463205
 10
51.95907456236118
 20
30.32746919463205
 10
51.95907456236118
 20
30.57180274325419
 42
-0.414213562373069
 10
51.98907456236117
 20
30.60180274325419
 10
54.30407456236117
 20
30.60180274325419
 42
-0.4142135623730951
 10
54.33407456236117
 20
30.57180274325418
 10
54.33407456236117
 20
30.32746919463221
 10
54.75363685147077
 20
30.32746919463221
 10
54.75363685147077
 20
30.50180274325408
 10
54.60217068803925
 20
30.50180274325408
 42
-0.4142135623732339
 10
54.57217068803925
 20
30.5318027432541
 10
54.57217068803925
 20
30.57180274325418
 42
-0.4142135623730951
 10
54.60217068803925
 20
30.60180274325418
 10
55.93584142274142
 20
30.60180274325418
 10
55.93584142274142
 20
30.3323531084102
 10
55.83584142274142
 20
30.33235310841022
 10
55.83584142274142
 20
30.47180274325409
 42
0.414213562373069
 10
55.80584142274142
 20
30.50180274325409
 10
54.88363685147078
 20
30.50180274325408
 42
0.414213562373069
 10
54.85363685147078
 20
30.47180274325408
 10
54.85363685147078
 20
30.2376866570323
 42
0.414213562373069
 10
54.88363685147078
 20
30.2076866570323
 10
55.10077386541242
 20
30.2076866570323
 10
55.10077386541242
 20
30.26968665703231
 10
55.26891036960027
 20
30.22430468023824
 42
-0.8761674465938572
 10
55.25848692085886
 20
30.1456866570323
 10
54.83717408398738
 20
30.1456866570323
 42
0.3449504671612494
 10
54.80804912222932
 20
30.1228794730727
 42
-0.0297175690742976
 10
54.80340186215274
 20
30.10793752090469
 42
-0.3120342075595159
 10
54.79404626058564
 20
30.10146919463221
 10
54.74401172916294
 20
30.10146919463221
 42
-0.6351341329044348
 10
54.73631596076565
 20
30.11785473680165
 42
0.6351341329160463
 10
54.68013685147081
 20
30.23746919463221
 42
0.6351341329162529
 10
54.62395774217488
 20
30.11785473680078
 42
-0.6351341329165514
 10
54.61626197377832
 20
30.10146919463221
 10
54.56622744235521
 20
30.10146919463221
 42
-0.3120342075727551
 10
54.55687184078768
 20
30.10793752090533
 42
-0.1593697437431984
 10
54.55319747990974
 20
30.18976587246705
 42
0.496073075910089
 10
54.52429404226072
 20
30.22780274325415
 10
54.36407456236117
 20
30.22780274325415
 42
0.4142135623730951
 10
54.33407456236117
 20
30.19780274325415
 10
54.33407456236117
 20
30.1539174555641
 42
-0.4142135623730864
 10
54.30407456236117
 20
30.1239174555641
 10
54.00884142274144
 20
30.1239174555641
 42
-0.4142135623731644
 10
53.97884142274143
 20
30.1539174555641
 10
53.97884142274143
 20
30.2439174555641
 42
-0.4142135623730951
 10
54.00884142274144
 20
30.2739174555641
 10
54.23407456236117
 20
30.2739174555641
 10
54.23407456236117
 20
30.50180274325417
 10
53.13380770198091
 20
30.50180274325417
 10
53.11880770198091
 20
30.51680274325417
 10
53.10380770198091
 20
30.50180274325418
 10
52.05907456236118
 20
30.50180274325418
 10
52.05907456236118
 20
30.2739174555641
 10
52.24044763943644
 20
30.2739174555641
 42
-0.4142135623730864
 10
52.27044763943644
 20
30.24391745556409
 10
52.27044763943644
 20
30.1539174555641
 42
-0.4142135623730864
 10
52.24044763943644
 20
30.1239174555641
 10
51.98907456236118
 20
30.12391745556411
 42
-0.4142135623730951
 10
51.95907456236118
 20
30.15391745556411
 10
51.95907456236118
 20
30.19780274325417
 42
0.4142135623731211
 10
51.92907456236117
 20
30.22780274325417
 10
51.78262499362805
 20
30.22780274325417
 42
0.4763992076618338
 10
51.7532689007914
 20
30.19162052574206
 42
-0.1519601362313255
 10
51.74591751005202
 20
30.11368787258225
 42
-0.3025372817004191
 10
51.73207640043766
 20
30.10446919463222
 10
51.69059106683899
 20
30.10446919463222
 42
-0.6190762912908162
  0
LWPOLYLINE
  5
68AF
330
17
100
AcDbEntity
  8
R-SWTS-DET1
100
AcDbPolyline
 90
       90
 70
     1
 43
0.0
 10
50.92746409681568
 20
30.52741572713023
 42
0.5486861486953306
 10
50.91865158850049
 20
30.5417997769074
 10
50.8863330896432
 20
30.54236389840332
 42
0.3966966039594774
 10
50.87615856557967
 20
30.53307626315524
 10
50.87615856558027
 20
30.35780274325458
 42
0.4142135623717948
 10
50.88415856558026
 20
30.34980274325461
 10
50.9061585655803
 20
30.34980274325459
 10
50.95416262321998
 20
30.37751789885507
 42
-1.014346566485003
 10
50.9741585655805
 20
30.37780274325481
 10
50.9741585655805
 20
30.28930274325474
 10
50.9741585655805
 20
30.20080274325465
 42
-1.014346566485003
 10
50.95416262321998
 20
30.2010875876544
 10
50.9061585655803
 20
30.22880274325488
 10
50.88415856558026
 20
30.22880274325486
 42
0.4142135623717948
 10
50.87615856558027
 20
30.22080274325489
 10
50.87615856557967
 20
30.04552922335423
 42
0.3966966039595883
 10
50.8863330896432
 20
30.03624158810615
 10
50.91865158850049
 20
30.03680570960208
 42
0.548686148695342
 10
50.92746409681568
 20
30.05118975937925
 42
-0.3689783014496677
 10
50.93071536483174
 20
30.06376685264774
 10
50.95553427350869
 20
30.08114523959348
 42
-0.7818493696235564
 10
50.96827816740272
 20
30.09578470520802
 10
51.02689286985151
 20
30.06581559374178
 42
-0.1237581644398265
 10
51.03423100377067
 20
30.0593937817086
 10
51.05869430221765
 20
30.02406429203907
 42
-0.2540700439599652
 10
51.06075269438211
 20
30.00508245921443
 10
51.05218480770336
 20
29.98421466657173
 42
-0.3281932863521756
 10
51.04206261378333
 20
29.97805084076882
 10
51.01450410842843
 20
29.98046189757096
 42
-0.2048158433768074
 10
51.00757136178252
 20
29.98417141798852
 10
50.99556897956642
 20
29.99915283991651
 42
0.297637899595195
 10
50.985176485042
 20
30.00255967161605
 10
50.89540864712667
 20
29.97850645194035
 42
-0.0655434628152562
 10
50.88246769487155
 20
29.97680274325474
 10
50.8161585655802
 20
29.97680274325474
 42
-0.4142135623730951
 10
50.7861585655802
 20
30.00680274325474
 10
50.7861585655802
 20
30.37216681703035
 42
0.4142135623730951
 10
50.7361585655802
 20
30.42216681703035
 10
50.24100228819353
 20
30.42216681703035
 42
0.4142135623730951
 10
50.21100228819353
 20
30.39216681703035
 10
50.15100228819355
 20
28.50178794949418
 42
0.4142135623730429
 10
50.21100228819354
 20
28.44178794949418
 10
50.51043836490148
 20
28.44178794949418
 42
0.7929344537390353
 10
50.51931591873387
 20
28.47970969711969
 42
-0.1480779974211671
 10
50.45600228953226
 20
28.53916022017493
 10
50.45600228953208
 20
28.79003105030355
 42
-0.2685598961247112
 10
50.58603507819348
 20
28.86508794949419
 10
50.68600228953207
 20
28.86508794949419
 10
50.68600228953207
 20
28.75211351251712
 42
-0.4142135623730118
 10
50.66100228953207
 20
28.72711351251712
 10
50.64300228953206
 20
28.72711351251712
 10
50.64300228953206
 20
28.76511351251712
 10
50.58601258953207
 20
28.76511351251712
 42
0.4142135623731159
 10
50.53601258953207
 20
28.71511351251712
 10
50.53599198953206
 20
28.61411351251712
 42
0.4142135623730326
 10
50.58599198953207
 20
28.56411351251712
 10
50.64298168953206
 20
28.56411351251712
 10
50.64298168953206
 20
28.60211351251712
 10
50.66098168953208
 20
28.60211351251712
 42
-0.4142135623731367
 10
50.68598168953208
 20
28.57711351251712
 10
50.68598168953207
 20
28.52411351251716
 10
50.68597293772896
 20
28.4841125122821
 10
50.68598168953207
 20
28.44411351251709
 10
50.68600228593611
 20
28.35180274325474
 10
50.06100228819355
 20
28.35180274325474
 10
50.06100228819355
 20
30.60180274325474
 10
50.21100228819353
 20
30.60180274325474
 10
50.21100228819354
 20
30.54710720400322
 10
50.54301445181629
 20
30.54710720400322
 10
50.54299762189194
 20
30.60180274325474
 10
50.60299762189194
 20
30.60180274325474
 10
50.60300343991653
 20
30.54710720400322
 10
50.73615079187034
 20
30.54710720400322
 42
0.4137654596232569
 10
50.78615073333555
 20
30.59703069599148
 10
50.78615803534105
 20
30.60180274325473
 10
50.88246769487153
 20
30.60180274325473
 42
-0.0655434628152567
 10
50.89540864712667
 20
30.60009903456913
 10
50.985176485042
 20
30.57604581489342
 42
0.297637899595195
 10
50.99556897956642
 20
30.57945264659295
 10
51.00757136178252
 20
30.59443406852096
 42
-0.2048158433768046
 10
51.01450410842843
 20
30.59814358893852
 10
51.04206261378333
 20
30.60055464574065
 42
-0.3281932863521789
 10
51.05218480770336
 20
30.59439081993774
 10
51.06075269438211
 20
30.57352302729504
 42
-0.2540700439599652
 10
51.05869430221765
 20
30.55454119447041
 10
51.03423100377067
 20
30.51921170480087
 42
-0.1237581644398267
 10
51.02689286985151
 20
30.5127898927677
 10
50.96827816740272
 20
30.48282078130146
 42
-0.7818493696235564
 10
50.95553427350869
 20
30.49746024691599
 10
50.93071536483174
 20
30.51483863386174
 42
-0.3689783014496677
  0
LINE
  5
68B0
330
17
100
AcDbEntity
  8
R-ANNO-DIMS
100
AcDbLine
 10
49.68600228819354
 20
30.60180274325474
 30
0.0
 11
46.88100228819354
 21
30.60180274325474
 31
0.0
  0
LINE
  5
68B1
330
17
100
AcDbEntity
  8
R-ANNO-DIMS
100
AcDbLine
 10
49.35400228819354
 20
31.10180274325474
 30
0.0
 11
46.88100228819354
 21
31.10180274325474
 31
0.0
  0
LINE
  5
68B2
330
17
100
AcDbEntity
  8
R-ANNO-DIMS
100
AcDbLine
 10
47.06100228819354
 20
30.35180274325474
 30
0.0
 11
47.06100228819354
 21
30.10180274325474
 31
0.0
  0
LINE
  5
68B3
330
17
100
AcDbEntity
  8
R-ANNO-DIMS
100
AcDbLine
 10
47.06100228819354
 20
31.35180274325474
 30
0.0
 11
47.06100228819354
 21
32.35688459864356
 31
0.0
  0
SOLID
  5
68B4
330
17
100
AcDbEntity
  8
R-ANNO-DIMS
100
AcDbTrace
 10
47.01933562152688
 20
30.35180274325474
 30
0.0
 11
47.10266895486021
 21
30.35180274325474
 31
0.0
 12
47.06100228819354
 22
30.60180274325474
 32
0.0
 13
47.06100228819354
 23
30.60180274325474
 33
0.0
  0
SOLID
  5
68B5
330
17
100
AcDbEntity
  8
R-ANNO-DIMS
100
AcDbTrace
 10
47.01933562152688
 20
31.35180274325474
 30
0.0
 11
47.10266895486021
 21
31.35180274325474
 31
0.0
 12
47.06100228819354
 22
31.10180274325474
 32
0.0
 13
47.06100228819354
 23
31.10180274325474
 33
0.0
  0
MTEXT
  5
68B6
330
17
100
AcDbEntity
  8
R-ANNO-DIMS
100
AcDbMText
 10
46.83173898669287
 20
31.97934367094916
 30
0.0
 40
0.25
 41
0.0
 71
     5
 72
     1
  1
\A1;1/2"
 11
0.0000000000000001
 21
1.0
 31
0.0
 73
     1
 44
1.0
1001
ACAD
1000
MTEXTBEGIN
1070
    73
1070
     1
1070
    44
1040
1.0
1070
    74
1070
     0
1000
MTEXTEND
  0
LINE
  5
68B7
330
17
100
AcDbEntity
  8
R-ANNO-DIMS
100
AcDbLine
 10
49.68600228819354
 20
28.35180274325474
 30
0.0
 11
47.58933562152686
 21
28.35180274325474
 31
0.0
  0
LINE
  5
68B8
330
17
100
AcDbEntity
  8
R-ANNO-DIMS
100
AcDbLine
 10
47.76933562152687
 20
28.10180274325474
 30
0.0
 11
47.76933562152687
 21
26.60180274325474
 31
0.0
  0
SOLID
  5
68B9
330
17
100
AcDbEntity
  8
R-ANNO-DIMS
100
AcDbTrace
 10
47.72766895486021
 20
28.10180274325474
 30
0.0
 11
47.81100228819354
 21
28.10180274325474
 31
0.0
 12
47.76933562152687
 22
28.35180274325474
 32
0.0
 13
47.76933562152687
 23
28.35180274325474
 33
0.0
  0
SOLID
  5
68BA
330
17
100
AcDbEntity
  8
R-ANNO-DIMS
100
AcDbTrace
 10
47.72766895486021
 20
26.60180274325474
 30
0.0
 11
47.81100228819354
 21
26.60180274325474
 31
0.0
 12
47.76933562152687
 22
26.35180274325474
 32
0.0
 13
47.76933562152687
 23
26.35180274325474
 33
0.0
  0
MTEXT
  5
68BB
330
17
100
AcDbEntity
  8
R-ANNO-DIMS
100
AcDbMText
 10
47.53998705399618
 20
27.35180274325475
 30
0.0
 40
0.25
 41
0.0
 71
     5
 72
     1
  1
\A1;DLO
 11
0.0000000000000001
 21
1.0
 31
0.0
 73
     1
 44
1.0
1001
ACAD
1000
MTEXTBEGIN
1070
    73
1070
     1
1070
    44
1040
1.0
1070
    74
1070
     0
1000
MTEXTEND
  0
LINE
  5
68BC
330
17
100
AcDbEntity
  8
R-ANNO-DIMS
100
AcDbLine
 10
50.06096663984862
 20
27.97680274325474
 30
0.0
 11
50.06096663984862
 21
27.23877517984286
 31
0.0
  0
LINE
  5
68BD
330
17
100
AcDbEntity
  8
R-ANNO-DIMS
100
AcDbLine
 10
56.06100228819336
 20
28.49175312643563
 30
0.0
 11
56.06100228819336
 21
27.23877517984286
 31
0.0
  0
LINE
  5
68BE
330
17
100
AcDbEntity
  8
R-ANNO-DIMS
100
AcDbLine
 10
50.31096663984861
 20
27.46730714669354
 30
0.0
 11
55.81100228819336
 21
27.46730714669354
 31
0.0
  0
SOLID
  5
68BF
330
17
100
AcDbEntity
  8
R-ANNO-DIMS
100
AcDbTrace
 10
50.31096663984861
 20
27.50897381336021
 30
0.0
 11
50.31096663984861
 21
27.42564048002688
 31
0.0
 12
50.06096663984862
 22
27.46730714669354
 32
0.0
 13
50.06096663984862
 23
27.46730714669354
 33
0.0
  0
SOLID
  5
68C0
330
17
100
AcDbEntity
  8
R-ANNO-DIMS
100
AcDbTrace
 10
55.81100228819336
 20
27.50897381336021
 30
0.0
 11
55.81100228819336
 21
27.42564048002688
 31
0.0
 12
56.06100228819336
 22
27.46730714669354
 32
0.0
 13
56.06100228819336
 23
27.46730714669354
 33
0.0
  0
MTEXT
  5
68C1
330
17
100
AcDbEntity
  8
R-ANNO-DIMS
100
AcDbMText
 10
53.06098446402099
 20
27.69495039362397
 30
0.0
 40
0.25
 41
0.0
 71
     5
 72
     1
  1
\A1;6"
 73
     1
 44
1.0
1001
ACAD
1000
MTEXTBEGIN
1070
    73
1070
     1
1070
    44
1040
1.0
1070
    74
1070
     0
1000
MTEXTEND
  0
LINE
  5
68C2
330
17
100
AcDbEntity
  8
R-ANNO-DIMS
100
AcDbLine
 10
49.18653006970929
 20
31.10197053014845
 30
0.0
 11
46.25600228819354
 21
31.10197053014845
 31
0.0
  0
LINE
  5
68C3
330
17
100
AcDbEntity
  8
R-ANNO-DIMS
100
AcDbLine
 10
46.43600228819354
 20
30.85197053014845
 30
0.0
 11
46.43600228819354
 21
26.60180274325474
 31
0.0
  0
SOLID
  5
68C4
330
17
100
AcDbEntity
  8
R-ANNO-DIMS
100
AcDbTrace
 10
46.39433562152688
 20
30.85197053014845
 30
0.0
 11
46.47766895486021
 21
30.85197053014845
 31
0.0
 12
46.43600228819354
 22
31.10197053014845
 32
0.0
 13
46.43600228819354
 23
31.10197053014845
 33
0.0
  0
SOLID
  5
68C5
330
17
100
AcDbEntity
  8
R-ANNO-DIMS
100
AcDbTrace
 10
46.39433562152688
 20
26.60180274325474
 30
0.0
 11
46.47766895486021
 21
26.60180274325474
 31
0.0
 12
46.43600228819354
 22
26.35180274325474
 32
0.0
 13
46.43600228819354
 23
26.35180274325474
 33
0.0
  0
MTEXT
  5
68C6
330
17
100
AcDbEntity
  8
R-ANNO-DIMS
100
AcDbMText
 10
46.20665372066286
 20
28.72688663670161
 30
0.0
 40
0.25
 41
0.0
 71
     5
 72
     1
  1
\A1;O.D.
 11
0.0000000000000001
 21
1.0
 31
0.0
 73
     1
 44
1.0
1001
ACAD
1000
MTEXTBEGIN
1070
    73
1070
     1
1070
    44
1040
1.0
1070
    74
1070
     0
1000
MTEXTEND
  0
LINE
  5
68C7
330
17
100
AcDbEntity
  8
R-ANNO-DIMS
100
AcDbLine
 10
49.68600228819354
 20
30.60180274325474
 30
0.0
 11
46.88100228819354
 21
30.60180274325474
 31
0.0
  0
LINE
  5
68C8
330
17
100
AcDbEntity
  8
R-ANNO-DIMS
100
AcDbLine
 10
47.06100228819354
 20
30.35180274325474
 30
0.0
 11
47.06100228819354
 21
26.60180274325474
 31
0.0
  0
SOLID
  5
68C9
330
17
100
AcDbEntity
  8
R-ANNO-DIMS
100
AcDbTrace
 10
47.01933562152688
 20
30.35180274325474
 30
0.0
 11
47.10266895486021
 21
30.35180274325474
 31
0.0
 12
47.06100228819354
 22
30.60180274325474
 32
0.0
 13
47.06100228819354
 23
30.60180274325474
 33
0.0
  0
SOLID
  5
68CA
330
17
100
AcDbEntity
  8
R-ANNO-DIMS
100
AcDbTrace
 10
47.01933562152688
 20
26.60180274325474
 30
0.0
 11
47.10266895486021
 21
26.60180274325474
 31
0.0
 12
47.06100228819354
 22
26.35180274325474
 32
0.0
 13
47.06100228819354
 23
26.35180274325474
 33
0.0
  0
MTEXT
  5
68CB
330
17
100
AcDbEntity
  8
R-ANNO-DIMS
100
AcDbMText
 10
46.83600228819353
 20
28.47680274325475
 30
0.0
 40
0.25
 41
0.0
 71
     5
 72
     1
  1
\A1;F.H.
 11
0.0000000000000001
 21
1.0
 31
0.0
 73
     1
 44
1.0
1001
ACAD
1000
MTEXTBEGIN
1070
    73
1070
     1
1070
    44
1040
1.0
1070
    74
1070
     0
1000
MTEXTEND
  0
LINE
  5
68CC
330
17
100
AcDbEntity
  8
R-ANNO-DIMS
100
AcDbLine
 10
49.68600228819354
 20
30.60180274325474
 30
0.0
 11
47.58933562152686
 21
30.60180274325474
 31
0.0
  0
LINE
  5
68CD
330
17
100
AcDbEntity
  8
R-ANNO-DIMS
100
AcDbLine
 10
49.68600228819354
 20
28.35180274325474
 30
0.0
 11
47.58933562152686
 21
28.35180274325474
 31
0.0
  0
LINE
  5
68CE
330
17
100
AcDbEntity
  8
R-ANNO-DIMS
100
AcDbLine
 10
47.76933562152687
 20
30.35180274325474
 30
0.0
 11
47.76933562152687
 21
28.60180274325474
 31
0.0
  0
SOLID
  5
68CF
330
17
100
AcDbEntity
  8
R-ANNO-DIMS
100
AcDbTrace
 10
47.72766895486021
 20
30.35180274325474
 30
0.0
 11
47.81100228819354
 21
30.35180274325474
 31
0.0
 12
47.76933562152687
 22
30.60180274325474
 32
0.0
 13
47.76933562152687
 23
30.60180274325474
 33
0.0
  0
SOLID
  5
68D0
330
17
100
AcDbEntity
  8
R-ANNO-DIMS
100
AcDbTrace
 10
47.72766895486021
 20
28.60180274325474
 30
0.0
 11
47.81100228819354
 21
28.60180274325474
 31
0.0
 12
47.76933562152687
 22
28.35180274325474
 32
0.0
 13
47.76933562152687
 23
28.35180274325474
 33
0.0
  0
MTEXT
  5
68D1
330
17
100
AcDbEntity
  8
R-ANNO-DIMS
100
AcDbMText
 10
47.5400723200262
 20
29.47680274325474
 30
0.0
 40
0.25
 41
0.0
 71
     5
 72
     1
  1
\A1;2 1/4"
 11
0.0000000000000001
 21
1.0
 31
0.0
 73
     1
 44
1.0
1001
ACAD
1000
MTEXTBEGIN
1070
    73
1070
     1
1070
    44
1040
1.0
1070
    74
1070
     0
1000
MTEXTEND
  0
LINE
  5
68D2
330
17
100
AcDbEntity
  8
R-ANNO-DIMS
100
AcDbLine
 10
36.94860147228079
 20
25.7489917622995
 30
0.0
 11
36.94860147228079
 21
24.12702115359447
 31
0.0
  0
LINE
  5
68D3
330
17
100
AcDbEntity
  8
R-ANNO-DIMS
100
AcDbLine
 10
37.19860147228079
 20
24.30702115359447
 30
0.0
 11
41.35380341566396
 21
24.30702115359447
 31
0.0
  0
SOLID
  5
68D4
330
17
100
AcDbEntity
  8
R-ANNO-DIMS
100
AcDbTrace
 10
37.19860147228079
 20
24.34868782026114
 30
0.0
 11
37.19860147228079
 21
24.26535448692781
 31
0.0
 12
36.94860147228079
 22
24.30702115359447
 32
0.0
 13
36.94860147228079
 23
24.30702115359447
 33
0.0
  0
SOLID
  5
68D5
330
17
100
AcDbEntity
  8
R-ANNO-DIMS
100
AcDbTrace
 10
41.35380341566396
 20
24.34868782026114
 30
0.0
 11
41.35380341566396
 21
24.26535448692781
 31
0.0
 12
41.60380341566396
 22
24.30702115359447
 32
0.0
 13
41.60380341566396
 23
24.30702115359447
 33
0.0
  0
MTEXT
  5
68D6
330
17
100
AcDbEntity
  8
R-ANNO-DIMS
100
AcDbMText
 10
39.65014186816757
 20
24.60222578608662
 30
0.0
 40
0.25
 41
0.0
 71
     5
 72
     1
  1
HEAD RECEPTOR LENGTH
 73
     1
 44
1.0
1001
ACAD
1000
MTEXTBEGIN
1070
    73
1070
     1
1070
    44
1040
1.0
1070
    74
1070
     0
1000
MTEXTEND
  0
LINE
  5
68D7
330
17
100
AcDbEntity
  8
R-ANNO-DIMS
100
AcDbLine
 10
32.04336823894913
 20
23.51253934344091
 30
0.0
 11
41.35378777068972
 21
23.51253934344091
 31
0.0
  0
SOLID
  5
68D8
330
17
100
AcDbEntity
  8
R-ANNO-DIMS
100
AcDbTrace
 10
32.04336823894913
 20
23.55420601010758
 30
0.0
 11
32.04336823894913
 21
23.47087267677425
 31
0.0
 12
31.79336823894913
 22
23.51253934344091
 32
0.0
 13
31.79336823894913
 23
23.51253934344091
 33
0.0
  0
SOLID
  5
68D9
330
17
100
AcDbEntity
  8
R-ANNO-DIMS
100
AcDbTrace
 10
41.35378777068972
 20
23.55420601010758
 30
0.0
 11
41.35378777068972
 21
23.47087267677425
 31
0.0
 12
41.60378777068972
 22
23.51253934344091
 32
0.0
 13
41.60378777068972
 23
23.51253934344091
 33
0.0
  0
MTEXT
  5
68DA
330
17
100
AcDbEntity
  8
R-ANNO-DIMS
100
AcDbMText
 10
36.69857800481942
 20
23.74188791097161
 30
0.0
 40
0.25
 41
0.0
 71
     5
 72
     1
  1
\A1;O.D.
 73
     1
 44
1.0
1001
ACAD
1000
MTEXTBEGIN
1070
    73
1070
     1
1070
    44
1040
1.0
1070
    74
1070
     0
1000
MTEXTEND
  0
LINE
  5
68DB
330
17
100
AcDbEntity
  8
R-ANNO-DIMS
100
AcDbLine
 10
36.94858582730655
 20
25.7553535014565
 30
0.0
 11
36.94858582730655
 21
24.7609394975865
 31
0.0
  0
LINE
  5
68DC
330
17
100
AcDbEntity
  8
R-ANNO-DIMS
100
AcDbLine
 10
36.44858582730654
 20
25.7553535014565
 30
0.0
 11
36.44858582730654
 21
24.7609394975865
 31
0.0
  0
LINE
  5
68DD
330
17
100
AcDbEntity
  8
R-ANNO-DIMS
100
AcDbLine
 10
36.19858582730655
 20
25.02886127224177
 30
0.0
 11
35.94858582730655
 21
25.02886127224177
 31
0.0
  0
LINE
  5
68DE
330
17
100
AcDbEntity
  8
R-ANNO-DIMS
100
AcDbLine
 10
37.19858582730655
 20
25.02886127224177
 30
0.0
 11
38.20366768269536
 21
25.02886127224177
 31
0.0
  0
SOLID
  5
68DF
330
17
100
AcDbEntity
  8
R-ANNO-DIMS
100
AcDbTrace
 10
36.19858582730655
 20
25.07052793890844
 30
0.0
 11
36.19858582730655
 21
24.9871946055751
 31
0.0
 12
36.44858582730654
 22
25.02886127224177
 32
0.0
 13
36.44858582730654
 23
25.02886127224177
 33
0.0
  0
SOLID
  5
68E0
330
17
100
AcDbEntity
  8
R-ANNO-DIMS
100
AcDbTrace
 10
37.19858582730655
 20
25.07052793890844
 30
0.0
 11
37.19858582730655
 21
24.9871946055751
 31
0.0
 12
36.94858582730655
 22
25.02886127224177
 32
0.0
 13
36.94858582730655
 23
25.02886127224177
 33
0.0
  0
MTEXT
  5
68E1
330
17
100
AcDbEntity
  8
R-ANNO-DIMS
100
AcDbMText
 10
37.82612675500096
 20
25.25812457374245
 30
0.0
 40
0.25
 41
0.0
 71
     5
 72
     1
  1
\A1;1/2"
 73
     1
 44
1.0
1001
ACAD
1000
MTEXTBEGIN
1070
    73
1070
     1
1070
    44
1040
1.0
1070
    74
1070
     0
1000
MTEXTEND
  0
LINE
  5
68E2
330
17
100
AcDbEntity
  8
R-ANNO-DIMS
100
AcDbLine
 10
36.44860147228079
 20
25.7489917622995
 30
0.0
 11
36.44860147228079
 21
24.12702115359447
 31
0.0
  0
LINE
  5
68E3
330
17
100
AcDbEntity
  8
R-ANNO-DIMS
100
AcDbLine
 10
36.1986014722808
 20
24.30702115359447
 30
0.0
 11
32.04338388392338
 21
24.30702115359447
 31
0.0
  0
SOLID
  5
68E4
330
17
100
AcDbEntity
  8
R-ANNO-DIMS
100
AcDbTrace
 10
36.1986014722808
 20
24.34868782026114
 30
0.0
 11
36.1986014722808
 21
24.26535448692781
 31
0.0
 12
36.44860147228079
 22
24.30702115359447
 32
0.0
 13
36.44860147228079
 23
24.30702115359447
 33
0.0
  0
SOLID
  5
68E5
330
17
100
AcDbEntity
  8
R-ANNO-DIMS
100
AcDbTrace
 10
32.04338388392338
 20
24.34868782026114
 30
0.0
 11
32.04338388392338
 21
24.26535448692781
 31
0.0
 12
31.79338388392338
 22
24.30702115359447
 32
0.0
 13
31.79338388392338
 23
24.30702115359447
 33
0.0
  0
MTEXT
  5
68E6
330
17
100
AcDbEntity
  8
R-ANNO-DIMS
100
AcDbMText
 10
33.79104596549752
 20
24.60222578608662
 30
0.0
 40
0.25
 41
0.0
 71
     5
 72
     1
  1
HEAD RECEPTOR LENGTH
 73
     1
 44
1.0
1001
ACAD
1000
MTEXTBEGIN
1070
    73
1070
     1
1070
    44
1040
1.0
1070
    74
1070
     0
1000
MTEXTEND
  0
TEXT
  5
68E7
330
17
100
AcDbEntity
  8
R-ANNO-DIMS
100
AcDbText
 10
31.75208128243283
 20
33.34364849910992
 30
0.0
 40
0.25
  1
SEE INSTALLATION INSTRUCTIONS FOR SEALANT NOTES
100
AcDbText
  0
TEXT
  5
68E8
330
17
100
AcDbEntity
  8
R-ANNO-DIMS
 62
     7
100
AcDbText
 10
51.30594051938658
 20
25.04831549137096
 30
0.0
 40
0.3125
  1
SECTION "B-B"
100
AcDbText
  0
ARC
  5
68E9
330
17
100
AcDbEntity
  8
R-SWTS-DET3
100
AcDbCircle
 10
36.69858582730655
 20
32.68721604380912
 30
0.0
 40
0.694829455623778
100
AcDbArc
 50
248.9120541680221
 51
291.0879458319774
  0
ARC
  5
68EA
330
17
100
AcDbEntity
  8
R-SWTS-DET3
100
AcDbCircle
 10
36.69858582730655
 20
32.5798808552917
 30
0.0
 40
0.694829455623778
100
AcDbArc
 50
248.9120541680221
 51
291.0879458319774
  0
ARC
  5
68EB
330
17
100
AcDbEntity
  8
R-SWTS-DET3
100
AcDbCircle
 10
36.69858582730655
 20
32.49242252345133
 30
0.0
 40
0.694829455623778
100
AcDbArc
 50
248.9120541680221
 51
291.0879458319774
  0
ARC
  5
68EC
330
17
100
AcDbEntity
  8
R-SWTS-DET3
100
AcDbCircle
 10
36.69858582730655
 20
30.94054024736013
 30
0.0
 40
0.694829455623778
100
AcDbArc
 50
68.91205416802256
 51
111.0879458319778
  0
ARC
  5
68ED
330
17
100
AcDbEntity
  8
R-SWTS-DET3
100
AcDbCircle
 10
36.69858582730655
 20
31.01209705563266
 30
0.0
 40
0.694829455623778
100
AcDbArc
 50
68.91205416802256
 51
111.0879458319778
  0
ARC
  5
68EE
330
17
100
AcDbEntity
  8
R-SWTS-DET3
100
AcDbCircle
 10
36.69858582730655
 20
31.08762924479715
 30
0.0
 40
0.694829455623778
100
AcDbArc
 50
68.91205416802256
 51
111.0879458319778
  0
TEXT
  5
68EF
330
17
100
AcDbEntity
  8
R-ANNO-DIMS
100
AcDbText
 10
35.42955525890851
 20
32.53584032254041
 30
0.0
 40
0.25
  1
SEAL
100
AcDbText
  0
LEADER
  5
68F0
330
17
100
AcDbEntity
  8
R-ANNO-DIMS
100
AcDbLeader
  3
STANDARD
 76
     2
 10
36.69115327833199
 20
32.11408629965917
 30
0.0
 10
36.42600967721761
 20
32.65285641756558
 30
0.0
211
0.6293013128198907
221
0.7771614103152331
231
0.0
1001
ACAD
1000
DSTYLE
1002
{
1070
     5
1000

1070
   342
1005
0
1002
}
  0
LEADER
  5
68F1
330
17
100
AcDbEntity
  8
R-ANNO-DIMS
100
AcDbLeader
  3
STANDARD
 76
     2
 10
36.67606613283704
 20
26.1507241135121
 30
0.0
 10
36.1879566251047
 20
25.61195399560569
 30
0.0
211
0.6293013128198907
221
-0.7771614103152331
231
0.0
210
0.0
220
0.0
230
-1.0
1001
ACAD
1000
DSTYLE
1002
{
1070
     5
1000

1070
   342
1005
0
1002
}
  0
TEXT
  5
68F2
330
17
100
AcDbEntity
  8
R-ANNO-DIMS
100
AcDbText
 10
35.20414924723527
 20
25.51029209217033
 30
0.0
 40
0.25
  1
SEAL
100
AcDbText
  0
TEXT
  5
68F3
330
17
100
AcDbEntity
  8
R-ANNO-DIMS
 62
     7
100
AcDbText
 10
42.91430359057047
 20
27.74524932210946
 30
0.0
 40
0.25
  1
SECTION "B-B"
 50
90.0
100
AcDbText
  0
LINE
  5
68F4
330
17
100
AcDbEntity
  8
0
100
AcDbLine
 10
42.48630323731311
 20
32.98095141231986
 30
0.0
 11
42.11071023731309
 21
32.98095141231986
 31
0.0
  0
LINE
  5
68F5
330
17
100
AcDbEntity
  8
0
100
AcDbLine
 10
41.8141902373131
 20
32.98095141231986
 30
0.0
 11
42.11071023731309
 21
32.90681941231986
 31
0.0
  0
LINE
  5
68F6
330
17
100
AcDbEntity
  8
0
100
AcDbLine
 10
42.11071023731309
 20
32.90681941231986
 30
0.0
 11
42.11071023731309
 21
33.05508241231986
 31
0.0
  0
LINE
  5
68F7
330
17
100
AcDbEntity
  8
0
100
AcDbLine
 10
42.11071023731309
 20
33.05508241231986
 30
0.0
 11
41.8141902373131
 21
32.98095141231986
 31
0.0
  0
SOLID
  5
68F8
330
17
100
AcDbEntity
  8
0
100
AcDbTrace
 10
41.8141902373131
 20
32.98095141231986
 30
0.0
 11
42.11071023731309
 21
33.05508241231986
 31
0.0
 12
42.11071023731309
 22
32.90681941231986
 32
0.0
 13
42.11071023731309
 23
32.90681941231986
 33
0.0
  0
LINE
  5
68F9
330
17
100
AcDbEntity
  8
0
100
AcDbLine
 10
42.48630323731311
 20
25.22996735731923
 30
0.0
 11
42.11071023731309
 21
25.22996735731923
 31
0.0
  0
LINE
  5
68FA
330
17
100
AcDbEntity
  8
0
100
AcDbLine
 10
41.8141902373131
 20
25.22996735731923
 30
0.0
 11
42.11071023731309
 21
25.30409935731923
 31
0.0
  0
LINE
  5
68FB
330
17
100
AcDbEntity
  8
0
100
AcDbLine
 10
42.11071023731309
 20
25.30409935731923
 30
0.0
 11
42.11071023731309
 21
25.15583635731923
 31
0.0
  0
LINE
  5
68FC
330
17
100
AcDbEntity
  8
0
100
AcDbLine
 10
42.11071023731309
 20
25.15583635731923
 30
0.0
 11
41.8141902373131
 21
25.22996735731923
 31
0.0
  0
SOLID
  5
68FD
330
17
100
AcDbEntity
  8
0
100
AcDbTrace
 10
41.8141902373131
 20
25.22996735731923
 30
0.0
 11
42.11071023731309
 21
25.15583635731923
 31
0.0
 12
42.11071023731309
 22
25.30409935731923
 32
0.0
 13
42.11071023731309
 23
25.30409935731923
 33
0.0
  0
LEADER
  5
68FE
330
17
100
AcDbEntity
  8
R-ANNO-DIMS
100
AcDbLeader
  3
STANDARD
 76
     2
 10
52.13206092314611
 20
14.07943848257093
 30
0.0
 10
52.61470928208462
 20
17.17773575021082
 30
0.0
1001
ACAD
1000
DSTYLE
1002
{
1070
     5
1000

1070
   342
1005
0
1002
}
  0
LEADER
  5
68FF
330
17
100
AcDbEntity
  8
R-ANNO-DIMS
100
AcDbLeader
  3
STANDARD
 76
     2
 10
51.13206092314611
 20
14.78195898851373
 30
0.0
 10
51.92665431395351
 20
18.05173553887027
 30
0.0
1001
ACAD
1000
DSTYLE
1002
{
1070
     5
1000

1070
   342
1005
0
1002
}
  0
LEADER
  5
6900
330
17
100
AcDbEntity
  8
R-ANNO-DIMS
100
AcDbLeader
  3
STANDARD
 76
     2
 10
50.13206092314611
 20
16.32495472434571
 30
0.0
 10
50.7446016631072
 20
18.91542076315417
 30
0.0
1001
ACAD
1000
DSTYLE
1002
{
1070
     5
1000

1070
   342
1005
0
1002
}
  0
ELLIPSE
  5
6901
330
17
100
AcDbEntity
  8
R-SWTS-DET3
  6
HIDDEN
100
AcDbEllipse
 10
51.04077750480097
 20
13.82060119089531
 30
0.0
 11
0.3025146694558352
 21
0.0
 31
0.0
210
0.0
220
0.0
230
-1.0
 40
0.8343701019125205
 41
0.0
 42
6.283185307179586
  0
ELLIPSE
  5
6902
330
17
100
AcDbEntity
  8
R-SWTS-DET3
  6
ByBlock
100
AcDbEllipse
 10
50.59749113039503
 20
13.82098893168243
 30
0.0
 11
0.3025146694558352
 21
0.0
 31
0.0
210
0.0
220
0.0
230
-1.0
 40
0.8343701019125205
 41
0.0
 42
6.283185307179586
  0
LWPOLYLINE
  5
6903
330
17
100
AcDbEntity
  8
R-SWTS-DET2
100
AcDbPolyline
 90
       16
 70
     0
 43
0.06
 10
50.51043836490148
 20
16.209143712847
 10
50.20569576390855
 20
16.209143712847
 10
50.17662651227005
 20
16.18210337853832
 10
50.17266244936175
 20
16.12929665494865
 10
50.24330060232808
 20
14.28016460232761
 10
50.25387125574275
 20
14.27224357913036
 10
50.73880086355259
 20
14.27752426126186
 10
50.75465693417834
 20
14.28676545499197
 10
50.76390623329027
 20
14.32769064378578
 10
50.7586208160792
 20
14.68545646729337
 10
50.78108347721133
 20
14.7131800484837
 10
55.80257084573375
 20
14.72542551214656
 10
55.84844265589516
 20
14.74324874273032
 10
55.88157208539195
 20
14.77634906998241
 10
55.90960488843626
 20
14.8272727255435
 10
55.9427344989405
 20
15.56821157191907
  0
LINE
  5
6904
330
17
100
AcDbEntity
  8
R-SWTS-DET3
100
AcDbLine
 10
55.05932362176469
 20
13.9991289535049
 30
0.0
 11
50.54432362176493
 21
13.56912895350492
 31
0.0
  0
LWPOLYLINE
  5
6905
330
17
100
AcDbEntity
  8
R-SWTS-DET3
100
AcDbPolyline
 90
        6
 70
     0
 43
0.0
 10
55.79432362176493
 20
13.9991289535049
 10
55.79432362176493
 20
13.56912895350492
 10
50.54432362176493
 20
13.56912895350492
 10
50.54432362176493
 20
14.06912895350492
 10
51.75424861772089
 20
14.06912895350492
 10
51.75424861772089
 20
14.06912895350492
  0
LINE
  5
6906
330
17
100
AcDbEntity
  8
R-SWTS-DET3
100
AcDbLine
 10
50.54432362176493
 20
14.06912895350492
 30
0.0
 11
55.79432362176493
 21
13.56912895350492
 31
0.0
  0
LINE
  5
6907
330
17
100
AcDbEntity
  8
R-SWTS-DET3
100
AcDbLine
 10
56.31389487519588
 20
13.56912895350492
 30
0.0
 11
49.8035432578496
 21
13.56912895350492
 31
0.0
  0
LINE
  5
6908
330
17
100
AcDbEntity
  8
R-SWTS-DET3
  6
CENTER
100
AcDbLine
 10
53.11879741599655
 20
15.15423870213653
 30
0.0
 11
53.11879741599655
 21
12.77428110261068
 31
0.0
  0
ARC
  5
6909
330
17
100
AcDbEntity
  8
R-SWTS-DET3
  6
HIDDEN
100
AcDbCircle
 10
50.21824861844996
 20
13.83521820437954
 30
0.0
 40
0.3999912936227313
100
AcDbArc
 50
318.1937062221645
 51
35.71968819101134
  0
ARC
  5
690A
330
17
100
AcDbEntity
  8
R-SWTS-DET3
  6
ByBlock
100
AcDbCircle
 10
49.74560965630361
 20
13.82457152293939
 30
0.0
 40
0.3991000489793009
100
AcDbArc
 50
320.1742637574471
 51
37.79022495061294
  0
LWPOLYLINE
  5
690B
330
17
100
AcDbEntity
  8
R-SWTS-DET3
100
AcDbPolyline
 90
        4
 70
     1
 43
0.0
 10
50.22087000838202
 20
14.12382449275643
 10
50.22087000838202
 20
14.24876487972931
 10
50.53178794516906
 20
14.24876487972931
 10
50.53178794516906
 20
14.12382449275643
  0
LINE
  5
690C
330
17
100
AcDbEntity
  8
R-SWTS-DET3
100
AcDbLine
 10
50.22087000838202
 20
14.24876487972931
 30
0.0
 11
50.53178794516906
 21
14.12382449275643
 31
0.0
  0
LINE
  5
690D
330
17
100
AcDbEntity
  8
R-SWTS-DET3
100
AcDbLine
 10
50.22087000838202
 20
14.12382449275643
 30
0.0
 11
50.53178794516906
 21
14.24876487972931
 31
0.0
  0
LEADER
  5
690E
330
17
100
AcDbEntity
  8
R-SWTS-DET3
100
AcDbLeader
  3
FULL
 74
     0
 76
     2
 10
50.37712863814568
 20
13.95980272014158
 30
0.0
 10
50.37712863814568
 20
14.4412737951164
 30
0.0
211
0.0000000000000001
221
1.0
231
0.0
213
0.1519999999999994
223
1.617550014400208
233
0.0
1001
ACAD
1000
DSTYLE
1002
{
1070
     5
1000

1070
   342
1005
0
1002
}
  0
LINE
  5
690F
330
17
100
AcDbEntity
  8
R-SWTS-DET1
100
AcDbLine
 10
55.79432362176493
 20
14.06912895350492
 30
0.0
 11
55.79294308877703
 21
14.06899747417274
 31
0.0
  0
LWPOLYLINE
  5
6910
330
17
100
AcDbEntity
  8
R-SWTS-DET1
100
AcDbPolyline
 90
        6
 70
     0
 43
0.0
 10
41.34942887382185
 20
13.64208760716483
 10
41.34942887382185
 20
16.78549348142775
 10
41.56164406680406
 20
16.83856206316425
 10
41.13722932581388
 20
16.94611315116543
 10
41.34944451879609
 20
16.99918173290193
 10
41.34944451879609
 20
20.14258760716485
  0
LWPOLYLINE
  5
6911
330
17
100
AcDbEntity
  8
R-SWTS-DET2
100
AcDbPolyline
 90
        2
 70
     0
 43
0.06
 10
37.56922693043867
 20
19.68083760221628
 10
37.56922693043867
 20
14.51733760490741
  0
LWPOLYLINE
  5
6912
330
17
100
AcDbEntity
  8
R-SWTS-DET2
100
AcDbPolyline
 90
        2
 70
     0
 43
0.06
 10
35.31922693043867
 20
19.68083760221628
 10
35.31922693043866
 20
14.51733760490741
  0
LWPOLYLINE
  5
6913
330
17
100
AcDbEntity
  8
R-SWTS-DET1
100
AcDbPolyline
 90
        6
 70
     0
 43
0.0
 10
31.53900934208126
 20
13.64208760716483
 10
31.53900934208126
 20
16.78549348142775
 10
31.75122453506347
 20
16.83856206316425
 10
31.32680979407329
 20
16.94611315116543
 10
31.5390249870555
 20
16.99918173290193
 10
31.5390249870555
 20
20.14258760716485
  0
LINE
  5
6914
330
17
100
AcDbEntity
  8
R-SWTS-DET1
100
AcDbLine
 10
37.56922693043867
 20
14.51733760490741
 30
0.0
 11
37.56922693043867
 21
19.74395242204715
 31
0.0
  0
LINE
  5
6915
330
17
100
AcDbEntity
  8
R-SWTS-DET1
100
AcDbLine
 10
35.31922693043867
 20
19.68083760221628
 30
0.0
 11
35.31922693043866
 21
14.51733760490741
 31
0.0
  0
LINE
  5
6916
330
17
100
AcDbEntity
  8
R-SWTS-DET2
  6
HIDDEN
100
AcDbLine
 10
33.19422693043867
 20
15.40736741713458
 30
0.0
 11
33.19422693043867
 21
19.71986741713459
 31
0.0
  0
LINE
  5
6917
330
17
100
AcDbEntity
  8
R-SWTS-DET2
  6
HIDDEN
100
AcDbLine
 10
39.69422693043867
 20
15.40736741713459
 30
0.0
 11
39.69422693043867
 21
19.71986741713459
 31
0.0
  0
LINE
  5
6918
330
17
100
AcDbEntity
  8
R-SWTS-DET2
  6
HIDDEN
100
AcDbLine
 10
37.56922693043867
 20
14.00399776833304
 30
0.0
 11
35.31922693043866
 21
14.00399776833304
 31
0.0
  0
LINE
  5
6919
330
17
100
AcDbEntity
  8
R-SWTS-DET2
  6
HIDDEN
100
AcDbLine
 10
39.69422693043867
 20
15.40736741713459
 30
0.0
 11
33.19422693043867
 21
15.40736741713458
 31
0.0
  0
LINE
  5
691A
330
17
100
AcDbEntity
  8
R-SWTS-DET1
100
AcDbLine
 10
31.53901716456838
 20
14.51733760490741
 30
0.0
 11
36.19422693043868
 21
14.51733760490741
 31
0.0
  0
LINE
  5
691B
330
17
100
AcDbEntity
  8
R-SWTS-DET1
100
AcDbLine
 10
31.53901716456838
 20
13.89233760716484
 30
0.0
 11
36.19422693043868
 21
13.89233760716484
 31
0.0
  0
LEADER
  5
691C
330
17
100
AcDbEntity
  8
R-ANNO-DIMS
100
AcDbLeader
  3
STANDARD
 76
     2
 10
32.34421563754692
 20
14.51733760490741
 30
0.0
 10
30.93551979526925
 20
16.74417057216866
 30
0.0
211
0.6293013128198907
221
0.7771614103152331
231
0.0
1001
ACAD
1000
DSTYLE
1002
{
1070
     5
1000

1070
   342
1005
0
1002
}
  0
LINE
  5
691D
330
17
100
AcDbEntity
  8
R-SWTS-DET2
  6
HIDDEN
100
AcDbLine
 10
35.31922693043866
 20
14.00399776833304
 30
0.0
 11
35.31922693043866
 21
14.51733760490741
 31
0.0
  0
LINE
  5
691E
330
17
100
AcDbEntity
  8
R-SWTS-DET1
100
AcDbLine
 10
41.34943669630897
 20
14.51733760490741
 30
0.0
 11
36.69422693043868
 21
14.51733760490741
 31
0.0
  0
LINE
  5
691F
330
17
100
AcDbEntity
  8
R-SWTS-DET1
100
AcDbLine
 10
41.34943669630897
 20
13.89233760716484
 30
0.0
 11
36.69422693043868
 21
13.89233760716484
 31
0.0
  0
ARC
  5
6920
330
17
100
AcDbEntity
  8
R-SWTS-DET3
100
AcDbCircle
 10
36.44422693043868
 20
15.16563381220962
 30
0.0
 40
0.694829455623778
100
AcDbArc
 50
248.9120541680221
 51
291.0879458319774
  0
ARC
  5
6921
330
17
100
AcDbEntity
  8
R-SWTS-DET3
100
AcDbCircle
 10
36.44422693043868
 20
13.24404139986263
 30
0.0
 40
0.694829455623778
100
AcDbArc
 50
68.91205416802256
 51
111.0879458319778
  0
LINE
  5
6922
330
17
100
AcDbEntity
  8
R-SWTS-DET1
100
AcDbLine
 10
36.69422693043868
 20
13.89233760716484
 30
0.0
 11
36.69422693043868
 21
14.51733760490741
 31
0.0
  0
LINE
  5
6923
330
17
100
AcDbEntity
  8
R-SWTS-DET1
100
AcDbLine
 10
36.19422693043868
 20
13.89233760716484
 30
0.0
 11
36.19422693043868
 21
14.51733760490741
 31
0.0
  0
LINE
  5
6924
330
17
100
AcDbEntity
  8
R-SWTS-DET2
  6
HIDDEN
100
AcDbLine
 10
37.56922693043867
 20
14.00399776833304
 30
0.0
 11
37.56922693043867
 21
14.51733760490741
 31
0.0
  0
LINE
  5
6925
330
17
100
AcDbEntity
  8
R-SWTS-DET2
  6
HIDDEN
100
AcDbLine
 10
37.56922693043867
 20
19.80706724187801
 30
0.0
 11
35.31922693043867
 21
19.80706724187801
 31
0.0
  0
LINE
  5
6926
330
17
100
AcDbEntity
  8
R-SWTS-DET2
  6
HIDDEN
100
AcDbLine
 10
39.69422693043867
 20
19.71986741713459
 30
0.0
 11
33.19422693043867
 21
19.71986741713459
 31
0.0
  0
LINE
  5
6927
330
17
100
AcDbEntity
  8
R-SWTS-DET1
100
AcDbLine
 10
31.53901716456841
 20
19.68083760221628
 30
0.0
 11
36.1942269304387
 21
19.68083760221628
 31
0.0
  0
LINE
  5
6928
330
17
100
AcDbEntity
  8
R-SWTS-DET1
100
AcDbLine
 10
31.53901716456838
 20
19.89233760716484
 30
0.0
 11
36.19422693043868
 21
19.89233760716484
 31
0.0
  0
LEADER
  5
6929
330
17
100
AcDbEntity
  8
R-ANNO-DIMS
100
AcDbLeader
  3
STANDARD
 76
     2
 10
35.31922693043867
 20
18.31015592762148
 30
0.0
 10
31.08407506634434
 20
18.09276642803711
 30
0.0
211
-0.9752662460843982
221
0.2210333668214963
231
0.0
210
0.0
220
0.0
230
-1.0
1001
ACAD
1000
DSTYLE
1002
{
1070
     5
1000

1070
   342
1005
0
1002
}
  0
LEADER
  5
692A
330
17
100
AcDbEntity
  8
R-ANNO-DIMS
100
AcDbLeader
  3
STANDARD
 76
     2
 10
33.19422693043867
 20
18.57421802428656
 30
0.0
 10
31.07933703522498
 20
18.98542863581482
 30
0.0
211
-0.9752662460843982
221
0.2210333668214963
231
0.0
210
0.0
220
0.0
230
-1.0
1001
ACAD
1000
DSTYLE
1002
{
1070
     5
1000

1070
   342
1005
0
1002
}
  0
LINE
  5
692B
330
17
100
AcDbEntity
  8
R-SWTS-DET2
  6
HIDDEN
100
AcDbLine
 10
35.31922693043867
 20
19.68083760221628
 30
0.0
 11
35.31922693043867
 21
19.80706724187801
 31
0.0
  0
LINE
  5
692C
330
17
100
AcDbEntity
  8
R-SWTS-DET1
100
AcDbLine
 10
41.34943669630899
 20
19.68083760221628
 30
0.0
 11
36.6942269304387
 21
19.68083760221628
 31
0.0
  0
LINE
  5
692D
330
17
100
AcDbEntity
  8
R-SWTS-DET1
100
AcDbLine
 10
41.34943669630897
 20
19.89233760716484
 30
0.0
 11
36.69422693043868
 21
19.89233760716484
 31
0.0
  0
LINE
  5
692E
330
17
100
AcDbEntity
  8
R-SWTS-DET1
100
AcDbLine
 10
36.69422693043868
 20
19.68083760221628
 30
0.0
 11
36.69422693043868
 21
19.89233760716484
 31
0.0
  0
LINE
  5
692F
330
17
100
AcDbEntity
  8
R-SWTS-DET1
100
AcDbLine
 10
36.19422693043868
 20
19.68083760221628
 30
0.0
 11
36.19422693043868
 21
19.89233760716484
 31
0.0
  0
ARC
  5
6930
330
17
100
AcDbEntity
  8
R-SWTS-DET3
100
AcDbCircle
 10
36.44422693043867
 20
20.64221483821952
 30
0.0
 40
0.7904529471475394
100
AcDbArc
 50
251.5622371055348
 51
288.4377628944652
  0
LINE
  5
6931
330
17
100
AcDbEntity
  8
R-SWTS-DET2
  6
HIDDEN
100
AcDbLine
 10
37.56922693043867
 20
19.68083760221628
 30
0.0
 11
37.56922693043867
 21
19.80706724187801
 31
0.0
  0
LWPOLYLINE
  5
6932
330
17
100
AcDbEntity
  8
0
  6
PHANTOM
100
AcDbPolyline
 90
        2
 70
     0
 43
0.011
 10
42.23192869547098
 20
12.99195146302757
 10
42.23192869547098
 20
20.74293551802821
  0
TEXT
  5
6933
330
17
100
AcDbEntity
  8
PART_NUMBERS
100
AcDbText
 10
25.56662844647489
 20
17.9905669010775
 30
0.0
 40
0.25
  1
127060 (2 1/4" SILICONE SHEET)
100
AcDbText
  0
TEXT
  5
6934
330
17
100
AcDbEntity
  8
PART_NUMBERS
100
AcDbText
 10
26.88885905417826
 20
16.63662788600839
 30
0.0
 40
0.25
  1
850203 SILL ASSEMBLY
100
AcDbText
  0
TEXT
  5
6935
330
17
100
AcDbEntity
  8
PART_NUMBERS
100
AcDbText
 10
26.3839837149008
 20
18.85814265162138
 30
0.0
 40
0.25
  1
850309 HEAD / SILL SPLICE
100
AcDbText
  0
TEXT
  5
6936
330
17
100
AcDbEntity
  8
PART_NUMBERS
100
AcDbText
 10
50.95807668759954
 20
18.8877037639021
 30
0.0
 40
0.25
  1
850203 SILL ASSEMBLY
100
AcDbText
  0
TEXT
  5
6937
330
17
100
AcDbEntity
  8
PART_NUMBERS
100
AcDbText
 10
52.78981645403073
 20
17.10371898845528
 30
0.0
 40
0.25
  1
850309 HEAD / SILL SPLICE
100
AcDbText
  0
TEXT
  5
6938
330
17
100
AcDbEntity
  8
PART_NUMBERS
100
AcDbText
 10
52.07420505670092
 20
18.02747650079787
 30
0.0
 40
0.25
  1
127060 (2 1/4" SILICONE SHEET)
100
AcDbText
  0
LWPOLYLINE
  5
6939
330
17
100
AcDbEntity
  8
R-SWTS-DET2
100
AcDbPolyline
 90
       18
 70
     1
 43
0.0
 10
50.87350228819355
 20
16.08303725016559
 10
50.87350228819353
 20
16.34956814960097
 10
50.68600228953207
 20
16.31831814982406
 10
50.68600228953207
 20
16.07131814982406
 10
50.5982228727361
 20
16.04731814982406
 10
50.61026486673315
 20
16.09225948324547
 10
50.57645746281302
 20
16.10131814982406
 10
50.55100228953207
 20
16.00631814982406
 10
50.57645746281302
 20
15.91131814982406
 10
50.61026486673315
 20
15.92037681640264
 10
50.5982228727361
 20
15.96531814982405
 10
50.68600228953207
 20
15.94131814982406
 10
50.68600228953207
 20
15.81831814982406
 10
50.86200228953207
 20
15.81831814982406
 10
50.87350228819355
 20
15.8272338791234
 10
50.87350228819355
 20
15.94740242052471
 10
50.86200228953207
 20
15.95631814982406
 10
50.86200228953207
 20
16.07631814982406
  0
LWPOLYLINE
  5
693A
330
17
100
AcDbEntity
  8
R-SWTS-DET2
100
AcDbPolyline
 90
       26
 70
     1
 43
0.0
 10
55.85353209816327
 20
14.06912895350493
 10
54.57186124765314
 20
14.06912895350491
 42
-0.4142135623731268
 10
54.55186124765315
 20
14.0891289535049
 10
54.55186124765315
 20
14.18912895350501
 42
-0.4142135623731255
 10
54.57186124765314
 20
14.20912895350501
 10
54.69342572273433
 20
14.209128953505
 42
1.000000000000011
 10
54.69342572273433
 20
14.279128953505
 10
54.57186124765316
 20
14.27912895350501
 42
0.4142135623731255
 10
54.48186124765314
 20
14.18912895350501
 10
54.48186124765314
 20
14.0891289535049
 42
-0.4142135623730947
 10
54.46186124765315
 20
14.0691289535049
 10
51.84199826159482
 20
14.0691289535049
 42
-0.4142135623730977
 10
51.82199826159481
 20
14.08912895350489
 10
51.82199826159481
 20
14.18912895350453
 42
0.4142135623731133
 10
51.73199826159481
 20
14.27912895350453
 10
51.66603209816329
 20
14.27912895350452
 42
-0.4142135623731004
 10
51.64603209816329
 20
14.29912895350452
 10
51.64603209816329
 20
14.31346250212704
 42
0.9999999999999998
 10
51.57603209816328
 20
14.31346250212704
 10
51.57603209816328
 20
14.29912895350453
 42
0.4142135623730951
 10
51.66603209816329
 20
14.20912895350453
 10
51.73199826159482
 20
14.20912895350453
 42
-0.414213562373099
 10
51.75199826159482
 20
14.18912895350453
 10
51.75199826159482
 20
14.0891289535049
 42
0.4142135623730977
 10
51.84199826159482
 20
13.9991289535049
 10
55.85353209816327
 20
13.9991289535049
 42
1.000000000000011
  0
CIRCLE
  5
693B
330
17
100
AcDbEntity
  8
R-SWTS-DET2
100
AcDbCircle
 10
51.42215856558009
 20
14.52603573900191
 30
0.0
 40
0.024
  0
CIRCLE
  5
693C
330
17
100
AcDbEntity
  8
R-SWTS-DET2
100
AcDbCircle
 10
51.42215856558047
 20
14.52697251536365
 30
0.0
 40
0.024
  0
CIRCLE
  5
693D
330
17
100
AcDbEntity
  8
R-SWTS-DET2
100
AcDbCircle
 10
50.90515856700225
 20
14.52603573900123
 30
0.0
 40
0.024
  0
LWPOLYLINE
  5
693E
330
17
100
AcDbEntity
  8
R-SWTS-DET2
100
AcDbPolyline
 90
       46
 70
     1
 43
0.0
 10
51.4511585670025
 20
14.60153573900154
 42
0.4142135623730951
 10
51.44315856700249
 20
14.60953573900151
 10
51.42430216054193
 20
14.60953573900146
 42
0.1316524975873776
 10
51.42030216054194
 20
14.60846394223173
 10
51.36522520899615
 20
14.57666524943042
 42
-0.0453740290048416
 10
51.34911262086338
 20
14.56921879504901
 42
-0.3148583090879042
 10
51.3214879861027
 20
14.57679984041519
 10
51.23788100621742
 20
14.67750493443886
 42
0.2230683942869864
 10
51.21864601734123
 20
14.68653573900091
 10
51.10867111666334
 20
14.68653573900062
 42
0.2230683942869864
 10
51.08943612778718
 20
14.67750493443847
 10
51.00582914790246
 20
14.57679984041436
 42
-0.3148583090879189
 10
50.97820451314182
 20
14.56921879504806
 42
-0.0453740290048501
 10
50.962091925009
 20
14.57666524942936
 10
50.90701497346305
 20
14.60846394223037
 42
0.1316524975873776
 10
50.90301497346304
 20
14.60953573900008
 10
50.88415856700248
 20
14.60953573900003
 42
0.4142135623730951
 10
50.8761585670025
 20
14.60153573900002
 10
50.87615856700264
 20
14.554535739
 42
0.414213562373095
 10
50.88415856700265
 20
14.54653573900003
 10
50.8926785830268
 20
14.54653573900005
 42
-1.779511413441527
 10
50.89267858302773
 20
14.50553573900045
 10
50.88415856700276
 20
14.50553573900003
 42
0.4142135623730625
 10
50.87615856700278
 20
14.497535739
 10
50.8761585670029
 20
14.450535739
 42
0.414213562373095
 10
50.88415856700293
 20
14.44253573900003
 10
50.90301497346349
 20
14.44253573900008
 42
0.1316524975873907
 10
50.90701497346348
 20
14.44360753576981
 10
50.96209192500926
 20
14.47540622857111
 42
-0.093275063306594
 10
50.99629439629712
 20
14.48741211973378
 42
0.1836037872869595
 10
51.05813483270772
 20
14.5223887877104
 10
51.11133939654783
 20
14.58647399546544
 42
-0.4694988190660091
 10
51.21597773603422
 20
14.58647399546572
 10
51.26918230129771
 20
14.52238878771096
 42
0.1836037872869457
 10
51.33102273770849
 20
14.48741211973466
 42
-0.0932750633066132
 10
51.36522520899642
 20
14.47540622857217
 10
51.42030216054237
 20
14.44360753577117
 42
0.1316524975874097
 10
51.42430216054238
 20
14.44253573900146
 10
51.44315856700294
 20
14.44253573900151
 42
0.4142135623730951
 10
51.4511585670029
 20
14.45053573900153
 10
51.45115856700279
 20
14.49753573900152
 42
0.4142135623730625
 10
51.44315856700277
 20
14.50553573900151
 10
51.43463855097778
 20
14.50553573900189
 42
-1.779511413441528
 10
51.43463855097852
 20
14.54653573900149
 10
51.44315856700266
 20
14.54653573900151
 42
0.4142135623730951
 10
51.45115856700264
 20
14.55453573900152
  0
CIRCLE
  5
693F
330
17
100
AcDbEntity
  8
R-SWTS-DET2
100
AcDbCircle
 10
50.90515856700225
 20
14.52603573900123
 30
0.0
 40
0.019
  0
CIRCLE
  5
6940
330
17
100
AcDbEntity
  8
R-SWTS-DET2
100
AcDbCircle
 10
51.42215856558009
 20
14.52603573900191
 30
0.0
 40
0.019
  0
CIRCLE
  5
6941
330
17
100
AcDbEntity
  8
R-SWTS-DET2
100
AcDbCircle
 10
51.42215856558047
 20
14.52697251536365
 30
0.0
 40
0.019
  0
CIRCLE
  5
6942
330
17
100
AcDbEntity
  8
R-SWTS-DET2
100
AcDbCircle
 10
51.42215856558009
 20
14.23722209917098
 30
0.0
 40
0.024
  0
CIRCLE
  5
6943
330
17
100
AcDbEntity
  8
R-SWTS-DET2
100
AcDbCircle
 10
51.42215856558047
 20
14.23628532280925
 30
0.0
 40
0.024
  0
CIRCLE
  5
6944
330
17
100
AcDbEntity
  8
R-SWTS-DET2
100
AcDbCircle
 10
50.90515856700225
 20
14.23722209917166
 30
0.0
 40
0.024
  0
LWPOLYLINE
  5
6945
330
17
100
AcDbEntity
  8
R-SWTS-DET2
100
AcDbPolyline
 90
       46
 70
     1
 43
0.0
 10
51.4511585670025
 20
14.16172209917136
 42
-0.4142135623730951
 10
51.44315856700249
 20
14.15372209917138
 10
51.42430216054193
 20
14.15372209917143
 42
-0.1316524975873776
 10
51.42030216054194
 20
14.15479389594117
 10
51.36522520899615
 20
14.18659258874247
 42
0.0453740290048416
 10
51.34911262086338
 20
14.19403904312388
 42
0.3148583090879042
 10
51.3214879861027
 20
14.18645799775771
 10
51.23788100621742
 20
14.08575290373404
 42
-0.2230683942869864
 10
51.21864601734123
 20
14.07672209917198
 10
51.10867111666334
 20
14.07672209917227
 42
-0.2230683942869864
 10
51.08943612778718
 20
14.08575290373443
 10
51.00582914790246
 20
14.18645799775854
 42
0.3148583090879189
 10
50.97820451314182
 20
14.19403904312484
 42
0.0453740290048501
 10
50.962091925009
 20
14.18659258874353
 10
50.90701497346305
 20
14.15479389594252
 42
-0.1316524975873776
 10
50.90301497346304
 20
14.15372209917281
 10
50.88415856700248
 20
14.15372209917286
 42
-0.4142135623730951
 10
50.8761585670025
 20
14.16172209917288
 10
50.87615856700264
 20
14.20872209917289
 42
-0.414213562373095
 10
50.88415856700265
 20
14.21672209917286
 10
50.8926785830268
 20
14.21672209917284
 42
1.779511413441527
 10
50.89267858302773
 20
14.25772209917244
 10
50.88415856700276
 20
14.25772209917286
 42
-0.4142135623730625
 10
50.87615856700278
 20
14.26572209917289
 10
50.8761585670029
 20
14.31272209917289
 42
-0.414213562373095
 10
50.88415856700293
 20
14.32072209917286
 10
50.90301497346349
 20
14.32072209917281
 42
-0.1316524975873907
 10
50.90701497346348
 20
14.31965030240308
 10
50.96209192500926
 20
14.28785160960179
 42
0.093275063306594
 10
50.99629439629712
 20
14.27584571843912
 42
-0.1836037872869595
 10
51.05813483270772
 20
14.24086905046249
 10
51.11133939654783
 20
14.17678384270745
 42
0.4694988190660091
 10
51.21597773603422
 20
14.17678384270718
 10
51.26918230129771
 20
14.24086905046193
 42
-0.1836037872869457
 10
51.33102273770849
 20
14.27584571843823
 42
0.0932750633066132
 10
51.36522520899642
 20
14.28785160960072
 10
51.42030216054237
 20
14.31965030240172
 42
-0.1316524975874097
 10
51.42430216054238
 20
14.32072209917144
 10
51.44315856700294
 20
14.32072209917139
 42
-0.4142135623730951
 10
51.4511585670029
 20
14.31272209917137
 10
51.45115856700279
 20
14.26572209917137
 42
-0.4142135623730625
 10
51.44315856700277
 20
14.25772209917138
 10
51.43463855097778
 20
14.25772209917101
 42
1.779511413441528
 10
51.43463855097852
 20
14.21672209917141
 10
51.44315856700266
 20
14.21672209917139
 42
-0.4142135623730951
 10
51.45115856700264
 20
14.20872209917137
  0
CIRCLE
  5
6946
330
17
100
AcDbEntity
  8
R-SWTS-DET2
100
AcDbCircle
 10
50.90515856700225
 20
14.23722209917166
 30
0.0
 40
0.019
  0
CIRCLE
  5
6947
330
17
100
AcDbEntity
  8
R-SWTS-DET2
100
AcDbCircle
 10
51.42215856558009
 20
14.23722209917098
 30
0.0
 40
0.019
  0
CIRCLE
  5
6948
330
17
100
AcDbEntity
  8
R-SWTS-DET2
100
AcDbCircle
 10
51.42215856558047
 20
14.23628532280925
 30
0.0
 40
0.019
  0
LWPOLYLINE
  5
6949
330
17
100
AcDbEntity
  8
R-SWTS-DET1
100
AcDbPolyline
 90
      104
 70
     1
 43
0.0
 10
51.74625888483046
 20
14.34812891908678
 10
51.55133125398811
 20
14.3481289190868
 10
51.55133125398811
 20
14.16912891908662
 10
51.70229741741964
 20
14.16912891908663
 42
-0.4142135623730951
 10
51.73229741741964
 20
14.13912891908663
 10
51.73229741741964
 20
14.09912891908645
 42
-0.4142135623730951
 10
51.70229741741964
 20
14.06912891908645
 10
51.44484943771074
 20
14.06912891908651
 42
-0.0655434628152567
 10
51.43190848545562
 20
14.07083262777205
 10
51.34214064754029
 20
14.09488584744776
 42
0.2976378995952524
 10
51.33174815301588
 20
14.09147901574823
 10
51.31974577079977
 20
14.07649759382022
 42
-0.2048158433768395
 10
51.31281302415385
 20
14.07278807340266
 10
51.28525451879895
 20
14.07037701660054
 42
-0.328193286352248
 10
51.27513232487894
 20
14.07654084240345
 10
51.26656443820017
 20
14.09740863504614
 42
-0.2540700439599912
 10
51.26862283036465
 20
14.11639046787077
 10
51.2930861288116
 20
14.15171995754032
 42
-0.1237581644398272
 10
51.30042426273077
 20
14.15814176957348
 10
51.35903896517955
 20
14.18811088103973
 42
-0.7818493696235042
 10
51.37178285907359
 20
14.17347141542518
 10
51.39660176775054
 20
14.15609302847945
 42
-0.3689783014497045
 10
51.3998530357666
 20
14.14351593521096
 42
0.5486861486953531
 10
51.40866554408178
 20
14.12913188543378
 10
51.44098404293908
 20
14.12856776393785
 42
0.4193348017593458
 10
51.45115856700346
 20
14.13856624088946
 10
51.45115856700286
 20
14.3131289190866
 42
0.4142135623719244
 10
51.44315856700287
 20
14.32112891908658
 10
51.42115856700285
 20
14.32112891908659
 10
51.37315450936316
 20
14.29341376348611
 42
-1.014346566484992
 10
51.35315856700265
 20
14.29312891908637
 10
51.35315856700265
 20
14.38162891908645
 10
51.35315856700266
 20
14.47012891908652
 42
-1.014346566485012
 10
51.37315450936315
 20
14.46984407468679
 10
51.42115856700285
 20
14.4421289190863
 10
51.44315856700287
 20
14.44212891908632
 42
0.4142135623719244
 10
51.45115856700286
 20
14.45012891908629
 10
51.45115856700346
 20
14.62469159728344
 42
0.4193348017593475
 10
51.44098404293908
 20
14.63469007423503
 10
51.40866554408178
 20
14.63412595273911
 42
0.5486861486952494
 10
51.3998530357666
 20
14.61974190296194
 42
-0.3689783014497952
 10
51.39660176775054
 20
14.60716480969345
 10
51.37178285907359
 20
14.5897864227477
 42
-0.7818493696235303
 10
51.35903896517955
 20
14.57514695713317
 10
51.30042426273077
 20
14.60511606859941
 42
-0.1237581644398304
 10
51.2930861288116
 20
14.61153788063258
 10
51.26862283036465
 20
14.64686737030212
 42
-0.254070043959943
 10
51.26656443820017
 20
14.66584920312675
 10
51.27513232487892
 20
14.68671699576945
 42
-0.3281932863522341
 10
51.28525451879895
 20
14.69288082157236
 10
51.31281302415385
 20
14.69046976477023
 42
-0.2048158433768396
 10
51.31974577079977
 20
14.68676024435267
 10
51.33174815301588
 20
14.67177882242467
 42
0.2976378995952534
 10
51.34214064754029
 20
14.66837199072513
 10
51.43190848545562
 20
14.69242521040084
 42
-0.0655434628152566
 10
51.44484943771074
 20
14.69412891908645
 10
55.805740984094
 20
14.69412891908645
 42
0.4139699038541743
 10
55.9307409840898
 20
14.81917345308334
 10
55.97573192290671
 20
15.54622328853944
 42
0.4142135623730951
 10
55.94573192290671
 20
15.57622328853944
 10
55.90950228466805
 20
15.57622328853943
 42
-1.000000000000118
 10
55.84950228466805
 20
15.57622328853943
 10
55.84950228466806
 20
15.68578239638083
 42
-0.6693764950686891
 10
55.87514394327746
 20
15.69635382495226
 42
0.2080761175766844
 10
55.93599389493391
 20
15.66978239638083
 42
0.4142135623730951
 10
55.98599389493391
 20
15.71978239638083
 10
55.98599389493391
 20
15.80778239638083
 42
0.4142135623730951
 10
55.93599389493391
 20
15.85778239638083
 42
0.2080761175766751
 10
55.87514394327746
 20
15.8312109678094
 42
-0.6693764950687378
 10
55.84950228466806
 20
15.84178239638083
 10
55.84950228466806
 20
15.92912891908644
 42
-0.4142135623729564
 10
55.86450228466806
 20
15.94412891908643
 10
56.04600228961662
 20
15.94412891908646
 42
-0.4142135623730951
 10
56.06100228961662
 20
15.92912891908646
 10
56.06100228961662
 20
14.06912891908645
 10
55.53010795897508
 20
14.06912891908645
 10
55.53010795897508
 20
14.15814652433188
 10
55.96101355109159
 20
14.15814652433188
 10
55.96101355109159
 20
14.59412891908645
 10
54.85329925389486
 20
14.59412891908645
 10
54.85329925389428
 20
14.06912891908645
 10
54.60216040347798
 20
14.06912891908645
 42
-0.4142135623730951
 10
54.57216040347798
 20
14.09912891908645
 10
54.57216040347798
 20
14.13912891908663
 42
-0.4142135623730951
 10
54.60216040347798
 20
14.16912891908663
 10
54.75312656690952
 20
14.16912891908662
 10
54.7531265669095
 20
14.3481289190868
 10
54.55819893606715
 20
14.34812891908678
 10
54.5311989360669
 20
14.3481289190866
 42
-0.4228766740869673
 10
54.46919893606689
 20
14.40756149930704
 10
54.46919893606689
 20
14.42556149930704
 10
54.5791989360669
 20
14.42556149930704
 10
54.5791989360669
 20
14.44644109422232
 42
-0.6588827555956537
 10
54.62985746932187
 20
14.46819482961961
 42
2.328728024391435
 10
54.62985746932186
 20
14.57406300855362
 42
-0.6388849171252235
 10
54.57924645291062
 20
14.59412891908645
 10
51.72521136798699
 20
14.59412891908645
 42
-0.6388849171254302
 10
51.67460035157576
 20
14.57406300855362
 42
2.328728024391421
 10
51.67460035157574
 20
14.46819482961961
 42
-0.6588827555956973
 10
51.72525888483072
 20
14.44644109422232
 10
51.72525888483072
 20
14.42556149930704
 10
51.83525888483072
 20
14.42556149930704
 10
51.83525888483072
 20
14.40756149930704
 42
-0.4228766740868974
 10
51.77325888483072
 20
14.3481289190866
  0
LWPOLYLINE
  5
694A
330
17
100
AcDbEntity
  8
R-SWTS-DET1
100
AcDbPolyline
 90
       90
 70
     1
 43
0.0
 10
50.92746409681568
 20
14.14351593521096
 42
-0.5486861486953306
 10
50.91865158850049
 20
14.12913188543379
 10
50.8863330896432
 20
14.12856776393786
 42
-0.3966966039594774
 10
50.87615856557967
 20
14.13785539918594
 10
50.87615856558027
 20
14.3131289190866
 42
-0.4142135623717948
 10
50.88415856558026
 20
14.32112891908657
 10
50.9061585655803
 20
14.32112891908659
 10
50.95416262321998
 20
14.29341376348611
 42
1.014346566485003
 10
50.9741585655805
 20
14.29312891908637
 10
50.9741585655805
 20
14.38162891908645
 10
50.9741585655805
 20
14.47012891908652
 42
1.014346566485003
 10
50.95416262321998
 20
14.46984407468679
 10
50.9061585655803
 20
14.4421289190863
 10
50.88415856558026
 20
14.44212891908632
 42
-0.4142135623717948
 10
50.87615856558027
 20
14.45012891908629
 10
50.87615856557967
 20
14.62540243898695
 42
-0.3966966039595883
 10
50.8863330896432
 20
14.63469007423503
 10
50.91865158850049
 20
14.63412595273911
 42
-0.548686148695342
 10
50.92746409681568
 20
14.61974190296194
 42
0.3689783014496677
 10
50.93071536483174
 20
14.60716480969345
 10
50.95553427350869
 20
14.58978642274771
 42
0.7818493696235564
 10
50.96827816740272
 20
14.57514695713317
 10
51.02689286985151
 20
14.60511606859941
 42
0.1237581644398265
 10
51.03423100377067
 20
14.61153788063258
 10
51.05869430221765
 20
14.64686737030212
 42
0.2540700439599652
 10
51.06075269438211
 20
14.66584920312675
 10
51.05218480770336
 20
14.68671699576945
 42
0.3281932863521756
 10
51.04206261378333
 20
14.69288082157236
 10
51.01450410842843
 20
14.69046976477023
 42
0.2048158433768074
 10
51.00757136178252
 20
14.68676024435267
 10
50.99556897956642
 20
14.67177882242467
 42
-0.297637899595195
 10
50.985176485042
 20
14.66837199072513
 10
50.89540864712667
 20
14.69242521040084
 42
0.0655434628152562
 10
50.88246769487155
 20
14.69412891908645
 10
50.8161585655802
 20
14.69412891908645
 42
0.4142135623730951
 10
50.7861585655802
 20
14.66412891908644
 10
50.7861585655802
 20
14.29876484531084
 42
-0.4142135623730951
 10
50.7361585655802
 20
14.24876484531084
 10
50.24100228819353
 20
14.24876484531084
 42
-0.4142135623730951
 10
50.21100228819353
 20
14.27876484531084
 10
50.15100228819355
 20
16.169143712847
 42
-0.4142135623730429
 10
50.21100228819354
 20
16.229143712847
 10
50.51043836490148
 20
16.229143712847
 42
-0.7929344537390353
 10
50.51931591873387
 20
16.19122196522148
 42
0.1480779974211671
 10
50.45600228953226
 20
16.13177144216624
 10
50.45600228953208
 20
15.88090061203763
 42
0.2685598961247112
 10
50.58603507819348
 20
15.80584371284699
 10
50.68600228953207
 20
15.80584371284699
 10
50.68600228953207
 20
15.91881814982406
 42
0.4142135623730118
 10
50.66100228953207
 20
15.94381814982406
 10
50.64300228953206
 20
15.94381814982406
 10
50.64300228953206
 20
15.90581814982406
 10
50.58601258953207
 20
15.90581814982406
 42
-0.4142135623731159
 10
50.53601258953207
 20
15.95581814982406
 10
50.53599198953206
 20
16.05681814982406
 42
-0.4142135623730326
 10
50.58599198953207
 20
16.10681814982406
 10
50.64298168953206
 20
16.10681814982406
 10
50.64298168953206
 20
16.06881814982406
 10
50.66098168953208
 20
16.06881814982407
 42
0.4142135623731367
 10
50.68598168953208
 20
16.09381814982406
 10
50.68598168953207
 20
16.14681814982403
 10
50.68597293772896
 20
16.18681915005909
 10
50.68598168953207
 20
16.2268181498241
 10
50.68600228593611
 20
16.31912891908644
 10
50.06100228819355
 20
16.31912891908644
 10
50.06100228819355
 20
14.06912891908644
 10
50.21100228819353
 20
14.06912891908644
 10
50.21100228819354
 20
14.12382445833795
 10
50.54301445181629
 20
14.12382445833795
 10
50.54299762189194
 20
14.06912891908644
 10
50.60299762189194
 20
14.06912891908644
 10
50.60300343991653
 20
14.12382445833795
 10
50.73615079187034
 20
14.12382445833795
 42
-0.4137654596232569
 10
50.78615073333555
 20
14.07390096634969
 10
50.78615803534105
 20
14.06912891908645
 10
50.88246769487153
 20
14.06912891908645
 42
0.0655434628152567
 10
50.89540864712667
 20
14.07083262777205
 10
50.985176485042
 20
14.09488584744776
 42
-0.297637899595195
 10
50.99556897956642
 20
14.09147901574822
 10
51.00757136178252
 20
14.07649759382022
 42
0.2048158433768046
 10
51.01450410842843
 20
14.07278807340266
 10
51.04206261378333
 20
14.07037701660053
 42
0.3281932863521789
 10
51.05218480770336
 20
14.07654084240344
 10
51.06075269438211
 20
14.09740863504614
 42
0.2540700439599652
 10
51.05869430221765
 20
14.11639046787077
 10
51.03423100377067
 20
14.15171995754031
 42
0.1237581644398267
 10
51.02689286985151
 20
14.15814176957348
 10
50.96827816740272
 20
14.18811088103973
 42
0.7818493696235564
 10
50.95553427350869
 20
14.17347141542519
 10
50.93071536483174
 20
14.15609302847945
 42
0.3689783014496677
  0
LINE
  5
694B
330
17
100
AcDbEntity
  8
R-ANNO-DIMS
100
AcDbLine
 10
36.69422693043868
 20
13.51733760716484
 30
0.0
 11
36.69422693043868
 21
11.89536699845981
 31
0.0
  0
LINE
  5
694C
330
17
100
AcDbEntity
  8
R-ANNO-DIMS
100
AcDbLine
 10
36.94422693043867
 20
12.07536699845981
 30
0.0
 11
41.09942887382184
 21
12.07536699845981
 31
0.0
  0
SOLID
  5
694D
330
17
100
AcDbEntity
  8
R-ANNO-DIMS
100
AcDbTrace
 10
36.94422693043867
 20
12.11703366512648
 30
0.0
 11
36.94422693043867
 21
12.03370033179314
 31
0.0
 12
36.69422693043868
 22
12.07536699845981
 32
0.0
 13
36.69422693043868
 23
12.07536699845981
 33
0.0
  0
SOLID
  5
694E
330
17
100
AcDbEntity
  8
R-ANNO-DIMS
100
AcDbTrace
 10
41.09942887382184
 20
12.11703366512648
 30
0.0
 11
41.09942887382184
 21
12.03370033179314
 31
0.0
 12
41.34942887382185
 22
12.07536699845981
 32
0.0
 13
41.34942887382185
 23
12.07536699845981
 33
0.0
  0
MTEXT
  5
694F
330
17
100
AcDbEntity
  8
R-ANNO-DIMS
100
AcDbMText
 10
39.50064380332874
 20
12.30463029996049
 30
0.0
 40
0.25
 41
0.0
 71
     5
 72
     1
  1
SILL RECEPTOR LENGTH
 73
     1
 44
1.0
1001
ACAD
1000
MTEXTBEGIN
1070
    73
1070
     1
1070
    44
1040
1.0
1070
    74
1070
     0
1000
MTEXTEND
  0
LINE
  5
6950
330
17
100
AcDbEntity
  8
R-ANNO-DIMS
100
AcDbLine
 10
31.78899369710702
 20
11.31145702714059
 30
0.0
 11
41.0994132288476
 21
11.31145702714059
 31
0.0
  0
SOLID
  5
6951
330
17
100
AcDbEntity
  8
R-ANNO-DIMS
100
AcDbTrace
 10
31.78899369710702
 20
11.35312369380726
 30
0.0
 11
31.78899369710702
 21
11.26979036047392
 31
0.0
 12
31.53899369710702
 22
11.31145702714059
 32
0.0
 13
31.53899369710702
 23
11.31145702714059
 33
0.0
  0
SOLID
  5
6952
330
17
100
AcDbEntity
  8
R-ANNO-DIMS
100
AcDbTrace
 10
41.0994132288476
 20
11.35312369380726
 30
0.0
 11
41.0994132288476
 21
11.26979036047392
 31
0.0
 12
41.34941322884761
 22
11.31145702714059
 32
0.0
 13
41.34941322884761
 23
11.31145702714059
 33
0.0
  0
MTEXT
  5
6953
330
17
100
AcDbEntity
  8
R-ANNO-DIMS
100
AcDbMText
 10
36.44420346297732
 20
11.54080559467129
 30
0.0
 40
0.25
 41
0.0
 71
     5
 72
     1
  1
\A1;O.D.
 73
     1
 44
1.0
1001
ACAD
1000
MTEXTBEGIN
1070
    73
1070
     1
1070
    44
1040
1.0
1070
    74
1070
     0
1000
MTEXTEND
  0
LINE
  5
6954
330
17
100
AcDbEntity
  8
R-ANNO-DIMS
100
AcDbLine
 10
36.69421128546443
 20
13.51733760716484
 30
0.0
 11
36.69421128546443
 21
12.52292360329484
 31
0.0
  0
LINE
  5
6955
330
17
100
AcDbEntity
  8
R-ANNO-DIMS
100
AcDbLine
 10
36.19421128546442
 20
13.51733760716484
 30
0.0
 11
36.19421128546442
 21
12.52292360329484
 31
0.0
  0
LINE
  5
6956
330
17
100
AcDbEntity
  8
R-ANNO-DIMS
100
AcDbLine
 10
35.94421128546442
 20
12.70292360329484
 30
0.0
 11
35.69421128546442
 21
12.70292360329484
 31
0.0
  0
LINE
  5
6957
330
17
100
AcDbEntity
  8
R-ANNO-DIMS
100
AcDbLine
 10
36.94421128546443
 20
12.70292360329484
 30
0.0
 11
37.94929314085325
 21
12.70292360329484
 31
0.0
  0
SOLID
  5
6958
330
17
100
AcDbEntity
  8
R-ANNO-DIMS
100
AcDbTrace
 10
35.94421128546442
 20
12.74459026996151
 30
0.0
 11
35.94421128546442
 21
12.66125693662817
 31
0.0
 12
36.19421128546442
 22
12.70292360329484
 32
0.0
 13
36.19421128546442
 23
12.70292360329484
 33
0.0
  0
SOLID
  5
6959
330
17
100
AcDbEntity
  8
R-ANNO-DIMS
100
AcDbTrace
 10
36.94421128546443
 20
12.74459026996151
 30
0.0
 11
36.94421128546443
 21
12.66125693662817
 31
0.0
 12
36.69421128546443
 22
12.70292360329484
 32
0.0
 13
36.69421128546443
 23
12.70292360329484
 33
0.0
  0
MTEXT
  5
695A
330
17
100
AcDbEntity
  8
R-ANNO-DIMS
100
AcDbMText
 10
37.57175221315884
 20
12.93218690479552
 30
0.0
 40
0.25
 41
0.0
 71
     5
 72
     1
  1
\A1;1/2"
 73
     1
 44
1.0
1001
ACAD
1000
MTEXTBEGIN
1070
    73
1070
     1
1070
    44
1040
1.0
1070
    74
1070
     0
1000
MTEXTEND
  0
LINE
  5
695B
330
17
100
AcDbEntity
  8
R-ANNO-DIMS
100
AcDbLine
 10
36.19422693043868
 20
13.51733760716484
 30
0.0
 11
36.19422693043868
 21
11.89536699845981
 31
0.0
  0
LINE
  5
695C
330
17
100
AcDbEntity
  8
R-ANNO-DIMS
100
AcDbLine
 10
35.94422693043867
 20
12.07536699845981
 30
0.0
 11
31.78900934208126
 21
12.07536699845981
 31
0.0
  0
SOLID
  5
695D
330
17
100
AcDbEntity
  8
R-ANNO-DIMS
100
AcDbTrace
 10
35.94422693043867
 20
12.11703366512648
 30
0.0
 11
35.94422693043867
 21
12.03370033179314
 31
0.0
 12
36.19422693043868
 22
12.07536699845981
 32
0.0
 13
36.19422693043868
 23
12.07536699845981
 33
0.0
  0
SOLID
  5
695E
330
17
100
AcDbEntity
  8
R-ANNO-DIMS
100
AcDbTrace
 10
31.78900934208126
 20
12.11703366512648
 30
0.0
 11
31.78900934208126
 21
12.03370033179314
 31
0.0
 12
31.53900934208126
 22
12.07536699845981
 32
0.0
 13
31.53900934208126
 23
12.07536699845981
 33
0.0
  0
MTEXT
  5
695F
330
17
100
AcDbEntity
  8
R-ANNO-DIMS
100
AcDbMText
 10
33.41869370556158
 20
12.30463029996049
 30
0.0
 40
0.25
 41
0.0
 71
     5
 72
     1
  1
SILL RECEPTOR LENGTH
 73
     1
 44
1.0
1001
ACAD
1000
MTEXTBEGIN
1070
    73
1070
     1
1070
    44
1040
1.0
1070
    74
1070
     0
1000
MTEXTEND
  0
LINE
  5
6960
330
17
100
AcDbEntity
  8
R-ANNO-DIMS
100
AcDbLine
 10
49.68600228819354
 20
14.06912891908644
 30
0.0
 11
46.88100228819354
 21
14.06912891908644
 31
0.0
  0
LINE
  5
6961
330
17
100
AcDbEntity
  8
R-ANNO-DIMS
100
AcDbLine
 10
49.4285432578496
 20
13.56912895350492
 30
0.0
 11
46.88100228819354
 21
13.56912895350492
 31
0.0
  0
LINE
  5
6962
330
17
100
AcDbEntity
  8
R-ANNO-DIMS
100
AcDbLine
 10
47.06100228819354
 20
14.31912891908644
 30
0.0
 11
47.06100228819354
 21
14.56912891908644
 31
0.0
  0
LINE
  5
6963
330
17
100
AcDbEntity
  8
R-ANNO-DIMS
100
AcDbLine
 10
47.06100228819354
 20
13.31912895350492
 30
0.0
 11
47.06100228819354
 21
12.31404709811611
 31
0.0
  0
SOLID
  5
6964
330
17
100
AcDbEntity
  8
R-ANNO-DIMS
100
AcDbTrace
 10
47.01933562152688
 20
14.31912891908644
 30
0.0
 11
47.10266895486021
 21
14.31912891908644
 31
0.0
 12
47.06100228819354
 22
14.06912891908644
 32
0.0
 13
47.06100228819354
 23
14.06912891908644
 33
0.0
  0
SOLID
  5
6965
330
17
100
AcDbEntity
  8
R-ANNO-DIMS
100
AcDbTrace
 10
47.01933562152688
 20
13.31912895350492
 30
0.0
 11
47.10266895486021
 21
13.31912895350492
 31
0.0
 12
47.06100228819354
 22
13.56912895350492
 32
0.0
 13
47.06100228819354
 23
13.56912895350492
 33
0.0
  0
MTEXT
  5
6966
330
17
100
AcDbEntity
  8
R-ANNO-DIMS
100
AcDbMText
 10
46.83173898669285
 20
12.69158802581052
 30
0.0
 40
0.25
 41
0.0
 71
     5
 72
     1
  1
\A1;1/2"
 11
0.0000000000000001
 21
1.0
 31
0.0
 73
     1
 44
1.0
1001
ACAD
1000
MTEXTBEGIN
1070
    73
1070
     1
1070
    44
1040
1.0
1070
    74
1070
     0
1000
MTEXTEND
  0
LINE
  5
6967
330
17
100
AcDbEntity
  8
R-ANNO-DIMS
100
AcDbLine
 10
49.68600228819354
 20
16.31912891908644
 30
0.0
 11
47.50600228819354
 21
16.31912891908644
 31
0.0
  0
LINE
  5
6968
330
17
100
AcDbEntity
  8
R-ANNO-DIMS
100
AcDbLine
 10
49.68600228819356
 20
14.06912895350492
 30
0.0
 11
47.50600228819354
 21
14.06912895350492
 31
0.0
  0
LINE
  5
6969
330
17
100
AcDbEntity
  8
R-ANNO-DIMS
100
AcDbLine
 10
47.68600228819354
 20
16.06912891908644
 30
0.0
 11
47.68600228819354
 21
14.31912895350492
 31
0.0
  0
SOLID
  5
696A
330
17
100
AcDbEntity
  8
R-ANNO-DIMS
100
AcDbTrace
 10
47.64433562152688
 20
16.06912891908644
 30
0.0
 11
47.72766895486021
 21
16.06912891908644
 31
0.0
 12
47.68600228819354
 22
16.31912891908644
 32
0.0
 13
47.68600228819354
 23
16.31912891908644
 33
0.0
  0
SOLID
  5
696B
330
17
100
AcDbEntity
  8
R-ANNO-DIMS
100
AcDbTrace
 10
47.64433562152688
 20
14.31912895350492
 30
0.0
 11
47.72766895486021
 21
14.31912895350492
 31
0.0
 12
47.68600228819354
 22
14.06912895350492
 32
0.0
 13
47.68600228819354
 23
14.06912895350492
 33
0.0
  0
MTEXT
  5
696C
330
17
100
AcDbEntity
  8
R-ANNO-DIMS
100
AcDbMText
 10
47.45673898669285
 20
15.19412893629569
 30
0.0
 40
0.25
 41
0.0
 71
     5
 72
     1
  1
\A1;2 1/4"
 11
0.0000000000000001
 21
1.0
 31
0.0
 73
     1
 44
1.0
1001
ACAD
1000
MTEXTBEGIN
1070
    73
1070
     1
1070
    44
1040
1.0
1070
    74
1070
     0
1000
MTEXTEND
  0
LINE
  5
696D
330
17
100
AcDbEntity
  8
R-ANNO-DIMS
100
AcDbLine
 10
49.68600228819354
 20
16.31912891908644
 30
0.0
 11
47.49400228819354
 21
16.31912891908644
 31
0.0
  0
LINE
  5
696E
330
17
100
AcDbEntity
  8
R-ANNO-DIMS
100
AcDbLine
 10
47.67400228819354
 20
16.56912891908644
 30
0.0
 11
47.67400228819354
 21
18.06914457101858
 31
0.0
  0
SOLID
  5
696F
330
17
100
AcDbEntity
  8
R-ANNO-DIMS
100
AcDbTrace
 10
47.63233562152687
 20
16.56912891908644
 30
0.0
 11
47.7156689548602
 21
16.56912891908644
 31
0.0
 12
47.67400228819354
 22
16.31912891908644
 32
0.0
 13
47.67400228819354
 23
16.31912891908644
 33
0.0
  0
SOLID
  5
6970
330
17
100
AcDbEntity
  8
R-ANNO-DIMS
100
AcDbTrace
 10
47.63233562152687
 20
18.06914457101858
 30
0.0
 11
47.7156689548602
 21
18.06914457101858
 31
0.0
 12
47.67400228819354
 22
18.31914457101858
 32
0.0
 13
47.67400228819354
 23
18.31914457101858
 33
0.0
  0
MTEXT
  5
6971
330
17
100
AcDbEntity
  8
R-ANNO-DIMS
100
AcDbMText
 10
47.44465372066284
 20
17.31913674505252
 30
0.0
 40
0.25
 41
0.0
 71
     5
 72
     1
  1
\A1;DLO
 11
0.0000000000000001
 21
1.0
 31
0.0
 73
     1
 44
1.0
1001
ACAD
1000
MTEXTBEGIN
1070
    73
1070
     1
1070
    44
1040
1.0
1070
    74
1070
     0
1000
MTEXTEND
  0
LINE
  5
6972
330
17
100
AcDbEntity
  8
R-ANNO-DIMS
100
AcDbLine
 10
49.68600228819354
 20
14.06912891908644
 30
0.0
 11
46.88100228819354
 21
14.06912891908644
 31
0.0
  0
LINE
  5
6973
330
17
100
AcDbEntity
  8
R-ANNO-DIMS
100
AcDbLine
 10
47.06100228819354
 20
14.31912891908644
 30
0.0
 11
47.06100228819354
 21
18.06914457101858
 31
0.0
  0
SOLID
  5
6974
330
17
100
AcDbEntity
  8
R-ANNO-DIMS
100
AcDbTrace
 10
47.01933562152688
 20
14.31912891908644
 30
0.0
 11
47.10266895486021
 21
14.31912891908644
 31
0.0
 12
47.06100228819354
 22
14.06912891908644
 32
0.0
 13
47.06100228819354
 23
14.06912891908644
 33
0.0
  0
SOLID
  5
6975
330
17
100
AcDbEntity
  8
R-ANNO-DIMS
100
AcDbTrace
 10
47.01933562152688
 20
18.06914457101858
 30
0.0
 11
47.10266895486021
 21
18.06914457101858
 31
0.0
 12
47.06100228819354
 22
18.31914457101858
 32
0.0
 13
47.06100228819354
 23
18.31914457101858
 33
0.0
  0
MTEXT
  5
6976
330
17
100
AcDbEntity
  8
R-ANNO-DIMS
100
AcDbMText
 10
46.83600228819353
 20
16.19413674505252
 30
0.0
 40
0.25
 41
0.0
 71
     5
 72
     1
  1
\A1;F.H.
 11
0.0000000000000001
 21
1.0
 31
0.0
 73
     1
 44
1.0
1001
ACAD
1000
MTEXTBEGIN
1070
    73
1070
     1
1070
    44
1040
1.0
1070
    74
1070
     0
1000
MTEXTEND
  0
LINE
  5
6977
330
17
100
AcDbEntity
  8
R-ANNO-DIMS
100
AcDbLine
 10
49.4285432578496
 20
13.56912895350492
 30
0.0
 11
46.25600228819354
 21
13.56912895350492
 31
0.0
  0
LINE
  5
6978
330
17
100
AcDbEntity
  8
R-ANNO-DIMS
100
AcDbLine
 10
46.43600228819354
 20
13.81912895350492
 30
0.0
 11
46.43600228819354
 21
18.06914457101858
 31
0.0
  0
SOLID
  5
6979
330
17
100
AcDbEntity
  8
R-ANNO-DIMS
100
AcDbTrace
 10
46.39433562152688
 20
13.81912895350492
 30
0.0
 11
46.47766895486021
 21
13.81912895350492
 31
0.0
 12
46.43600228819354
 22
13.56912895350492
 32
0.0
 13
46.43600228819354
 23
13.56912895350492
 33
0.0
  0
SOLID
  5
697A
330
17
100
AcDbEntity
  8
R-ANNO-DIMS
100
AcDbTrace
 10
46.39433562152688
 20
18.06914457101858
 30
0.0
 11
46.47766895486021
 21
18.06914457101858
 31
0.0
 12
46.43600228819354
 22
18.31914457101858
 32
0.0
 13
46.43600228819354
 23
18.31914457101858
 33
0.0
  0
MTEXT
  5
697B
330
17
100
AcDbEntity
  8
R-ANNO-DIMS
100
AcDbMText
 10
46.20665372066284
 20
15.94413676226176
 30
0.0
 40
0.25
 41
0.0
 71
     5
 72
     1
  1
\A1;O.D.
 11
0.0000000000000001
 21
1.0
 31
0.0
 73
     1
 44
1.0
1001
ACAD
1000
MTEXTBEGIN
1070
    73
1070
     1
1070
    44
1040
1.0
1070
    74
1070
     0
1000
MTEXTEND
  0
TEXT
  5
697C
330
17
100
AcDbEntity
  8
R-ANNO-DIMS
100
AcDbText
 10
31.52659249776717
 20
21.0642695840538
 30
0.0
 40
0.25
  1
SEE INSTALLATION INSTRUCTIONS FOR SEALANT NOTES
100
AcDbText
  0
TEXT
  5
697D
330
17
100
AcDbEntity
  8
R-ANNO-DIMS
 62
     7
100
AcDbText
 10
51.50747237378967
 20
12.13132163269668
 30
0.0
 40
0.3125
  1
SECTION "A-A"
100
AcDbText
  0
TEXT
  5
697E
330
17
100
AcDbEntity
  8
R-ANNO-DIMS
 62
     7
100
AcDbText
 10
42.76564318753556
 20
15.30016063042722
 30
0.0
 40
0.25
  1
SECTION "A-A"
 50
90.0
100
AcDbText
  0
LINE
  5
697F
330
17
100
AcDbEntity
  8
0
100
AcDbLine
 10
42.23192869547098
 20
20.74293551802821
 30
0.0
 11
41.85633569547099
 21
20.74293551802821
 31
0.0
  0
LINE
  5
6980
330
17
100
AcDbEntity
  8
0
100
AcDbLine
 10
41.55981569547098
 20
20.74293551802821
 30
0.0
 11
41.85633569547099
 21
20.6688035180282
 31
0.0
  0
LINE
  5
6981
330
17
100
AcDbEntity
  8
0
100
AcDbLine
 10
41.85633569547099
 20
20.6688035180282
 30
0.0
 11
41.85633569547099
 21
20.81706651802821
 31
0.0
  0
LINE
  5
6982
330
17
100
AcDbEntity
  8
0
100
AcDbLine
 10
41.85633569547099
 20
20.81706651802821
 30
0.0
 11
41.55981569547098
 21
20.74293551802821
 31
0.0
  0
SOLID
  5
6983
330
17
100
AcDbEntity
  8
0
100
AcDbTrace
 10
41.55981569547098
 20
20.74293551802821
 30
0.0
 11
41.85633569547099
 21
20.81706651802821
 31
0.0
 12
41.85633569547099
 22
20.6688035180282
 32
0.0
 13
41.85633569547099
 23
20.6688035180282
 33
0.0
  0
LINE
  5
6984
330
17
100
AcDbEntity
  8
0
100
AcDbLine
 10
42.23192869547098
 20
12.99195146302757
 30
0.0
 11
41.85633569547099
 21
12.99195146302757
 31
0.0
  0
LINE
  5
6985
330
17
100
AcDbEntity
  8
0
100
AcDbLine
 10
41.55981569547098
 20
12.99195146302757
 30
0.0
 11
41.85633569547099
 21
13.06608346302757
 31
0.0
  0
LINE
  5
6986
330
17
100
AcDbEntity
  8
0
100
AcDbLine
 10
41.85633569547099
 20
13.06608346302757
 30
0.0
 11
41.85633569547099
 21
12.91782046302758
 31
0.0
  0
LINE
  5
6987
330
17
100
AcDbEntity
  8
0
100
AcDbLine
 10
41.85633569547099
 20
12.91782046302758
 30
0.0
 11
41.55981569547098
 21
12.99195146302757
 31
0.0
  0
SOLID
  5
6988
330
17
100
AcDbEntity
  8
0
100
AcDbTrace
 10
41.55981569547098
 20
12.99195146302757
 30
0.0
 11
41.85633569547099
 21
12.91782046302758
 31
0.0
 12
41.85633569547099
 22
13.06608346302757
 32
0.0
 13
41.85633569547099
 23
13.06608346302757
 33
0.0
  0
LEADER
  5
6989
330
17
100
AcDbEntity
  8
R-ANNO-DIMS
100
AcDbLeader
  3
STANDARD
 76
     2
 10
36.44242019444411
 20
19.90763132648563
 30
0.0
 10
36.17727659332974
 20
20.44640144439204
 30
0.0
211
0.6293013128198907
221
0.7771614103152331
231
0.0
1001
ACAD
1000
DSTYLE
1002
{
1070
     5
1000

1070
   342
1005
0
1002
}
  0
TEXT
  5
698A
330
17
100
AcDbEntity
  8
R-ANNO-DIMS
100
AcDbText
 10
35.2427313484651
 20
20.36473626519046
 30
0.0
 40
0.25
  1
SEAL
100
AcDbText
  0
LEADER
  5
698B
330
17
100
AcDbEntity
  8
R-ANNO-DIMS
100
AcDbLeader
  3
STANDARD
 76
     2
 10
36.44242019444411
 20
13.91294721764489
 30
0.0
 10
35.95431068671178
 20
13.37417709973848
 30
0.0
211
0.6293013128198907
221
-0.7771614103152331
231
0.0
210
0.0
220
0.0
230
-1.0
1001
ACAD
1000
DSTYLE
1002
{
1070
     5
1000

1070
   342
1005
0
1002
}
  0
TEXT
  5
698C
330
17
100
AcDbEntity
  8
R-ANNO-DIMS
100
AcDbText
 10
34.97050330884234
 20
13.27251519630312
 30
0.0
 40
0.25
  1
SEAL
100
AcDbText
  0
ARC
  5
698D
330
17
100
AcDbEntity
  8
R-SWTS-DET3
100
AcDbCircle
 10
36.44422693043867
 20
20.57581285487586
 30
0.0
 40
0.7904529471475394
100
AcDbArc
 50
251.5622371055348
 51
288.4377628944652
  0
ARC
  5
698E
330
17
100
AcDbEntity
  8
R-SWTS-DET3
100
AcDbCircle
 10
36.44422693043867
 20
20.492810329896
 30
0.0
 40
0.7904529471475394
100
AcDbArc
 50
251.5622371055348
 51
288.4377628944652
  0
ARC
  5
698F
330
17
100
AcDbEntity
  8
R-SWTS-DET3
100
AcDbCircle
 10
36.44422693043867
 20
20.43009733036024
 30
0.0
 40
0.7904529471475394
100
AcDbArc
 50
251.5622371055348
 51
288.4377628944652
  0
ARC
  5
6990
330
17
100
AcDbEntity
  8
R-SWTS-DET3
100
AcDbCircle
 10
36.44422693043868
 20
15.08269696483583
 30
0.0
 40
0.694829455623778
100
AcDbArc
 50
248.9120541680221
 51
291.0879458319774
  0
ARC
  5
6991
330
17
100
AcDbEntity
  8
R-SWTS-DET3
100
AcDbCircle
 10
36.44422693043868
 20
14.98666480889766
 30
0.0
 40
0.694829455623778
100
AcDbArc
 50
248.9120541680221
 51
291.0879458319774
  0
ARC
  5
6992
330
17
100
AcDbEntity
  8
R-SWTS-DET3
100
AcDbCircle
 10
36.44422693043868
 20
14.93864870802843
 30
0.0
 40
0.694829455623778
100
AcDbArc
 50
248.9120541680221
 51
291.0879458319774
  0
ARC
  5
6993
330
17
100
AcDbEntity
  8
R-SWTS-DET3
100
AcDbCircle
 10
36.44422693043868
 20
13.30515276349596
 30
0.0
 40
0.694829455623778
100
AcDbArc
 50
68.91205416802256
 51
111.0879458319778
  0
ARC
  5
6994
330
17
100
AcDbEntity
  8
R-SWTS-DET3
100
AcDbCircle
 10
36.44422693043868
 20
13.37935943569368
 30
0.0
 40
0.694829455623778
100
AcDbArc
 50
68.91205416802256
 51
111.0879458319778
  0
ARC
  5
6995
330
17
100
AcDbEntity
  8
R-SWTS-DET3
100
AcDbCircle
 10
36.44422693043868
 20
13.4535661078914
 30
0.0
 40
0.694829455623778
100
AcDbArc
 50
68.91205416802256
 51
111.0879458319778
  0
ARC
  5
6996
330
17
100
AcDbEntity
  8
R-SWTS-DET3
100
AcDbCircle
 10
36.44422693043868
 20
13.51904260491305
 30
0.0
 40
0.694829455623778
100
AcDbArc
 50
68.91205416802256
 51
111.0879458319778
  0
LWPOLYLINE
  5
6997
330
17
100
AcDbEntity
  8
R-SWTS-DET1
100
AcDbPolyline
 90
        6
 70
     0
 43
0.0
 10
15.44164196506673
 20
29.02473788713638
 10
15.44164196506673
 20
30.75959105352285
 10
15.22942677208452
 20
30.81265963525935
 10
15.6538415130747
 20
30.92021072326053
 10
15.44162632009249
 20
30.97327930499703
 10
15.44162632009249
 20
32.23810381496289
  0
LWPOLYLINE
  5
6998
330
17
100
AcDbEntity
  8
R-SWTS-DET1
100
AcDbPolyline
 90
        6
 70
     0
 43
0.0
 10
8.078585954070746
 20
29.02473788713638
 10
8.078585954070746
 20
30.75959105352285
 10
7.866370761088532
 20
30.81265963525935
 10
8.290785502078712
 20
30.92021072326053
 10
8.078570309096505
 20
30.97327930499703
 10
8.078570309096505
 20
32.23810381496289
  0
LINE
  5
6999
330
17
100
AcDbEntity
  8
R-SWTS-DET3
  6
HIDDEN
100
AcDbLine
 10
11.86856743789412
 20
29.28937758994679
 30
0.0
 11
11.86856743789411
 21
30.539377605313
 31
0.0
  0
LINE
  5
699A
330
17
100
AcDbEntity
  8
R-SWTS-DET3
  6
HIDDEN
100
AcDbLine
 10
11.36856743789411
 20
29.28937758994679
 30
0.0
 11
11.36856743789411
 21
30.539377605313
 31
0.0
  0
LINE
  5
699B
330
17
100
AcDbEntity
  8
R-SWTS-DET1
  6
HIDDEN
100
AcDbLine
 10
10.49356743789411
 20
30.92021072326053
 30
0.0
 11
10.49356743789411
 21
24.31182274607626
 31
0.0
  0
LINE
  5
699C
330
17
100
AcDbEntity
  8
R-SWTS-DET1
  6
HIDDEN
100
AcDbLine
 10
12.74356743789412
 20
30.92021072326053
 30
0.0
 11
12.74356743789411
 21
24.31182274607626
 31
0.0
  0
LWPOLYLINE
  5
699D
330
17
100
AcDbEntity
  8
R-SWTS-DET1
100
AcDbPolyline
 90
        6
 70
     0
 43
0.0
 10
13.03868713481159
 20
24.28344788268752
 10
11.7254115636312
 20
24.28344788268752
 10
11.6723429818947
 20
24.49566307566974
 10
11.56479189389352
 20
24.07124833467956
 10
11.51172331215702
 20
24.28346352766176
 10
10.24689880219117
 20
24.28346352766176
  0
LINE
  5
699E
330
17
100
AcDbEntity
  8
R-SWTS-DET1
  6
HIDDEN
100
AcDbLine
 10
8.078585954070746
 20
29.3793631365018
 30
0.0
 11
15.44164196506673
 21
29.3793631365018
 31
0.0
  0
LINE
  5
699F
330
17
100
AcDbEntity
  8
R-SWTS-DET1
100
AcDbLine
 10
8.078585954070746
 20
29.28937758994679
 30
0.0
 11
15.44164196506673
 21
29.28937758994679
 31
0.0
  0
LEADER
  5
69A0
330
17
100
AcDbEntity
  8
R-ANNO-DIMS
100
AcDbLeader
  3
STANDARD
 76
     2
 10
10.97940830668431
 20
28.91815123022133
 30
0.0
 10
10.05063270477209
 20
27.24900398425443
 30
0.0
211
0.9999799446684882
221
-0.0063332662037189
231
0.0
1001
ACAD
1000
DSTYLE
1002
{
1070
     5
1000

1070
   342
1005
0
1002
}
  0
LEADER
  5
69A1
330
17
100
AcDbEntity
  8
R-ANNO-DIMS
100
AcDbLeader
  3
STANDARD
 76
     2
 10
9.481907353658471
 20
29.28937758994679
 30
0.0
 10
8.863506606687145
 20
27.87909612819147
 30
0.0
211
0.9407760891411014
221
-0.3390285387697836
231
0.0
1001
ACAD
1000
DSTYLE
1002
{
1070
     5
1000

1070
   342
1005
0
1002
}
  0
LINE
  5
69A2
330
17
100
AcDbEntity
  8
R-SWTS-DET3
100
AcDbLine
 10
11.86856743789412
 20
29.28937758994679
 30
0.0
 11
11.86856743789411
 21
24.31182274607626
 31
0.0
  0
LINE
  5
69A3
330
17
100
AcDbEntity
  8
R-SWTS-DET3
100
AcDbLine
 10
11.36856743789411
 20
29.28937758994679
 30
0.0
 11
11.36856743789411
 21
24.31182274607626
 31
0.0
  0
LINE
  5
69A4
330
17
100
AcDbEntity
  8
R-SWTS-DET1
100
AcDbLine
 10
8.078570309096505
 20
32.03937760531299
 30
0.0
 11
15.44162632009249
 21
32.03937760531299
 31
0.0
  0
LINE
  5
69A5
330
17
100
AcDbEntity
  8
R-SWTS-DET1
  6
HIDDEN
100
AcDbLine
 10
8.290785502078712
 20
30.92021072326053
 30
0.0
 11
15.6538415130747
 21
30.92021072326053
 31
0.0
  0
LINE
  5
69A6
330
17
100
AcDbEntity
  8
R-SWTS-DET1
  6
HIDDEN
100
AcDbLine
 10
8.078570309096505
 20
31.48468239101085
 30
0.0
 11
15.44162632009249
 21
31.48468239101085
 31
0.0
  0
LINE
  5
69A7
330
17
100
AcDbEntity
  8
R-SWTS-DET1
  6
HIDDEN
100
AcDbLine
 10
8.078570309096505
 20
31.35974200403797
 30
0.0
 11
15.44162632009249
 21
31.35974200403797
 31
0.0
  0
LINE
  5
69A8
330
17
100
AcDbEntity
  8
R-SWTS-DET1
100
AcDbLine
 10
8.078570309096505
 20
31.53937760531299
 30
0.0
 11
15.44162632009249
 21
31.53937760531299
 31
0.0
  0
LINE
  5
69A9
330
17
100
AcDbEntity
  8
R-SWTS-DET3
  6
HIDDEN
100
AcDbLine
 10
8.078585954070746
 20
30.539377605313
 30
0.0
 11
11.36856743789411
 21
30.539377605313
 31
0.0
  0
LINE
  5
69AA
330
17
100
AcDbEntity
  8
R-SWTS-DET3
  6
CENTER
100
AcDbLine
 10
8.618567437894114
 20
30.08233380884241
 30
0.0
 11
8.618567437894114
 21
32.46229140836824
 31
0.0
  0
LINE
  5
69AB
330
17
100
AcDbEntity
  8
R-SWTS-DET3
  6
CENTER
100
AcDbLine
 10
14.61856743789411
 20
30.08233380884241
 30
0.0
 11
14.61856743789411
 21
32.46229140836824
 31
0.0
  0
TEXT
  5
69AC
330
17
100
AcDbEntity
  8
PART_NUMBERS
100
AcDbText
 10
4.517158782222473
 20
27.72374424387952
 30
0.0
 40
0.25
  1
850202 HEAD ASSEMBLY
100
AcDbText
  0
TEXT
  5
69AD
330
17
100
AcDbEntity
  8
PART_NUMBERS
100
AcDbText
 10
6.215019907997771
 20
27.06289491170991
 30
0.0
 40
0.25
  1
850301 ANCHOR CLIP
100
AcDbText
  0
LINE
  5
69AE
330
17
100
AcDbEntity
  8
R-SWTS-DET2
  6
HIDDEN2
100
AcDbLine
 10
10.69206308878247
 20
29.03033966346088
 30
0.0
 11
12.16031308878246
 21
29.03033966346088
 31
0.0
  0
LINE
  5
69AF
330
17
100
AcDbEntity
  8
R-SWTS-DET2
  6
HIDDEN2
100
AcDbLine
 10
10.69206308878247
 20
28.90533874860735
 30
0.0
 11
12.16031308878246
 21
28.90533874860735
 31
0.0
  0
LINE
  5
69B0
330
17
100
AcDbEntity
  8
R-SWTS-DET2
  6
HIDDEN2
100
AcDbLine
 10
10.69206308878247
 20
31.41134579915784
 30
0.0
 11
12.16031308878246
 21
31.41134579915784
 31
0.0
  0
LINE
  5
69B1
330
17
100
AcDbEntity
  8
R-SWTS-DET2
  6
HIDDEN2
100
AcDbLine
 10
10.69206308878247
 20
31.22334579915784
 30
0.0
 11
12.16031308878246
 21
31.22334579915784
 31
0.0
  0
LINE
  5
69B2
330
17
100
AcDbEntity
  8
R-SWTS-DET2
  6
HIDDEN2
100
AcDbLine
 10
10.69206308878247
 20
31.03107989888672
 30
0.0
 11
12.16031308878246
 21
31.03107989888672
 31
0.0
  0
LINE
  5
69B3
330
17
100
AcDbEntity
  8
R-SWTS-DET2
  6
HIDDEN2
100
AcDbLine
 10
10.69206308878247
 20
31.41528323698172
 30
0.0
 11
10.69206308878247
 21
28.90533874860735
 31
0.0
  0
LINE
  5
69B4
330
17
100
AcDbEntity
  8
R-SWTS-DET2
  6
HIDDEN2
100
AcDbLine
 10
12.16031308878246
 20
31.41528323698171
 30
0.0
 11
12.16031308878246
 21
28.90533874860735
 31
0.0
  0
LINE
  5
69B5
330
17
100
AcDbEntity
  8
R-ANNO-DIMS
100
AcDbLine
 10
7.703570309096505
 20
31.53937760531299
 30
0.0
 11
6.5042262838191
 21
31.53937760531299
 31
0.0
  0
LINE
  5
69B6
330
17
100
AcDbEntity
  8
R-ANNO-DIMS
100
AcDbLine
 10
7.703570309096505
 20
32.03937760531299
 30
0.0
 11
6.5042262838191
 21
32.03937760531299
 31
0.0
  0
LINE
  5
69B7
330
17
100
AcDbEntity
  8
R-ANNO-DIMS
100
AcDbLine
 10
6.6842262838191
 20
31.28937760531299
 30
0.0
 11
6.6842262838191
 21
31.03937760531299
 31
0.0
  0
LINE
  5
69B8
330
17
100
AcDbEntity
  8
R-ANNO-DIMS
100
AcDbLine
 10
6.6842262838191
 20
32.28937760531299
 30
0.0
 11
6.6842262838191
 21
33.29445946070181
 31
0.0
  0
SOLID
  5
69B9
330
17
100
AcDbEntity
  8
R-ANNO-DIMS
100
AcDbTrace
 10
6.642559617152436
 20
31.28937760531299
 30
0.0
 11
6.725892950485764
 21
31.28937760531299
 31
0.0
 12
6.6842262838191
 22
31.53937760531299
 32
0.0
 13
6.6842262838191
 23
31.53937760531299
 33
0.0
  0
SOLID
  5
69BA
330
17
100
AcDbEntity
  8
R-ANNO-DIMS
100
AcDbTrace
 10
6.642559617152436
 20
32.28937760531299
 30
0.0
 11
6.725892950485764
 21
32.28937760531299
 31
0.0
 12
6.6842262838191
 22
32.03937760531299
 32
0.0
 13
6.6842262838191
 23
32.03937760531299
 33
0.0
  0
MTEXT
  5
69BB
330
17
100
AcDbEntity
  8
R-ANNO-DIMS
100
AcDbMText
 10
6.45496298231842
 20
32.9169185330074
 30
0.0
 40
0.25
 41
0.0
 71
     5
 72
     1
  1
\A1;1/2"
 11
0.0000000000000001
 21
1.0
 31
0.0
 73
     1
 44
1.0
1001
ACAD
1000
MTEXTBEGIN
1070
    73
1070
     1
1070
    44
1040
1.0
1070
    74
1070
     0
1000
MTEXTEND
  0
LINE
  5
69BC
330
17
100
AcDbEntity
  8
R-ANNO-DIMS
100
AcDbLine
 10
8.618567437894114
 20
32.83729140836824
 30
0.0
 11
8.618567437894114
 21
33.30238129311028
 31
0.0
  0
LINE
  5
69BD
330
17
100
AcDbEntity
  8
R-ANNO-DIMS
100
AcDbLine
 10
14.61856743789411
 20
32.83729140836824
 30
0.0
 11
14.61856743789411
 21
33.30238129311028
 31
0.0
  0
LINE
  5
69BE
330
17
100
AcDbEntity
  8
R-ANNO-DIMS
100
AcDbLine
 10
8.868567437894114
 20
33.12238129311028
 30
0.0
 11
14.36856743789411
 21
33.12238129311028
 31
0.0
  0
SOLID
  5
69BF
330
17
100
AcDbEntity
  8
R-ANNO-DIMS
100
AcDbTrace
 10
8.868567437894114
 20
33.16404795977695
 30
0.0
 11
8.868567437894114
 21
33.08071462644362
 31
0.0
 12
8.618567437894114
 22
33.12238129311028
 32
0.0
 13
8.618567437894114
 23
33.12238129311028
 33
0.0
  0
SOLID
  5
69C0
330
17
100
AcDbEntity
  8
R-ANNO-DIMS
100
AcDbTrace
 10
14.36856743789411
 20
33.16404795977695
 30
0.0
 11
14.36856743789411
 21
33.08071462644362
 31
0.0
 12
14.61856743789411
 22
33.12238129311028
 32
0.0
 13
14.61856743789411
 23
33.12238129311028
 33
0.0
  0
MTEXT
  5
69C1
330
17
100
AcDbEntity
  8
R-ANNO-DIMS
100
AcDbMText
 10
11.61856743789411
 20
33.35002454004071
 30
0.0
 40
0.25
 41
0.0
 71
     5
 72
     1
  1
\A1;6"
 73
     1
 44
1.0
1001
ACAD
1000
MTEXTBEGIN
1070
    73
1070
     1
1070
    44
1040
1.0
1070
    74
1070
     0
1000
MTEXTEND
  0
LINE
  5
69C2
330
17
100
AcDbEntity
  8
R-ANNO-DIMS
100
AcDbLine
 10
7.703585954070746
 20
29.28937758994679
 30
0.0
 11
6.5042262838191
 21
29.28937758994679
 31
0.0
  0
LINE
  5
69C3
330
17
100
AcDbEntity
  8
R-ANNO-DIMS
100
AcDbLine
 10
7.703570309096505
 20
31.53937760531299
 30
0.0
 11
6.5042262838191
 21
31.53937760531299
 31
0.0
  0
LINE
  5
69C4
330
17
100
AcDbEntity
  8
R-ANNO-DIMS
100
AcDbLine
 10
6.6842262838191
 20
29.53937758994679
 30
0.0
 11
6.6842262838191
 21
31.28937760531299
 31
0.0
  0
SOLID
  5
69C5
330
17
100
AcDbEntity
  8
R-ANNO-DIMS
100
AcDbTrace
 10
6.642559617152436
 20
29.53937758994679
 30
0.0
 11
6.725892950485764
 21
29.53937758994679
 31
0.0
 12
6.6842262838191
 22
29.28937758994679
 32
0.0
 13
6.6842262838191
 23
29.28937758994679
 33
0.0
  0
SOLID
  5
69C6
330
17
100
AcDbEntity
  8
R-ANNO-DIMS
100
AcDbTrace
 10
6.642559617152436
 20
31.28937760531299
 30
0.0
 11
6.725892950485764
 21
31.28937760531299
 31
0.0
 12
6.6842262838191
 22
31.53937760531299
 32
0.0
 13
6.6842262838191
 23
31.53937760531299
 33
0.0
  0
MTEXT
  5
69C7
330
17
100
AcDbEntity
  8
R-ANNO-DIMS
100
AcDbMText
 10
6.45496298231842
 20
30.4143775976299
 30
0.0
 40
0.25
 41
0.0
 71
     5
 72
     1
  1
\A1;2 1/4"
 11
0.0000000000000001
 21
1.0
 31
0.0
 73
     1
 44
1.0
1001
ACAD
1000
MTEXTBEGIN
1070
    73
1070
     1
1070
    44
1040
1.0
1070
    74
1070
     0
1000
MTEXTEND
  0
MTEXT
  5
69C8
330
17
100
AcDbEntity
  8
R-ANNO-DIMS
100
AcDbMText
 10
16.4584755649944
 20
34.55470955383054
 30
0.0
 40
0.25
 41
4.089
 71
     1
 72
     5
  1
(2) PERIMETER FASTENERS 3" FROM MULLION CENTER LINE
 73
     1
 44
1.0
1001
ACAD
1000
MTEXTBEGIN
1070
    73
1070
     1
1070
    44
1040
1.0
1070
    74
1070
     0
1000
MTEXTEND
  0
LINE
  5
69C9
330
17
100
AcDbEntity
  8
R-ANNO-DIMS
100
AcDbLine
 10
15.95365958037374
 20
34.43638926058857
 30
0.0
 11
16.23527339874572
 21
34.43638926058857
 31
0.0
  0
LEADER
  5
69CA
330
17
100
AcDbEntity
  8
R-ANNO-DIMS
100
AcDbLeader
  3
STANDARD
 76
     2
 10
14.70083199702848
 20
32.18620533300432
 30
0.0
 10
15.95365958037374
 20
34.43638926058857
 30
0.0
1001
ACAD
1000
DSTYLE
1002
{
1070
     5
1000

1070
   342
1005
0
1002
}
  0
LINE
  5
69CB
330
17
100
AcDbEntity
  8
R-SWTS-DET3
  6
HIDDEN
100
AcDbLine
 10
11.86856743789411
 20
30.539377605313
 30
0.0
 11
15.44164196506676
 21
30.539377605313
 31
0.0
  0
LWPOLYLINE
  5
69CC
330
17
100
AcDbEntity
  8
R-SWTS-DET1
100
AcDbPolyline
 90
        6
 70
     0
 43
0.0
 10
15.44164196506673
 20
17.14430200410158
 10
15.44164196506673
 20
15.44515295678584
 10
15.22942677208452
 20
15.39208437504934
 10
15.6538415130747
 20
15.28453328704815
 10
15.44162632009249
 20
15.23146470531166
 10
15.44162632009249
 20
13.9666401953458
  0
LINE
  5
69CD
330
17
100
AcDbEntity
  8
R-SWTS-DET1
100
AcDbLine
 10
8.078570309096505
 20
14.16536640499569
 30
0.0
 11
15.44162632009249
 21
14.16536640499569
 31
0.0
  0
LINE
  5
69CE
330
17
100
AcDbEntity
  8
R-SWTS-DET1
  6
HIDDEN2
100
AcDbLine
 10
8.267767034400879
 20
15.29036640499569
 30
0.0
 11
15.63082304539686
 21
15.29036640499569
 31
0.0
  0
LINE
  5
69CF
330
17
100
AcDbEntity
  8
R-SWTS-DET1
100
AcDbLine
 10
8.078570309096505
 20
14.66536640499569
 30
0.0
 11
15.44162632009249
 21
14.66536640499569
 31
0.0
  0
LINE
  5
69D0
330
17
100
AcDbEntity
  8
R-SWTS-DET1
100
AcDbLine
 10
8.078585954070746
 20
16.9153664203619
 30
0.0
 11
15.44164196506673
 21
16.9153664203619
 31
0.0
  0
LINE
  5
69D1
330
17
100
AcDbEntity
  8
R-SWTS-DET1
  6
HIDDEN2
100
AcDbLine
 10
8.078570309096498
 20
15.17272902376438
 30
0.0
 11
15.44162632009249
 21
15.17272902376438
 31
0.0
  0
LINE
  5
69D2
330
17
100
AcDbEntity
  8
R-SWTS-DET1
  6
HIDDEN2
100
AcDbLine
 10
8.078570309096498
 20
14.84021231464795
 30
0.0
 11
15.44162632009249
 21
14.84021231464795
 31
0.0
  0
LINE
  5
69D3
330
17
100
AcDbEntity
  8
R-SWTS-DET1
  6
HIDDEN2
100
AcDbLine
 10
8.078570309096498
 20
14.72324228699859
 30
0.0
 11
15.44162632009249
 21
14.72324228699859
 31
0.0
  0
LINE
  5
69D4
330
17
100
AcDbEntity
  8
R-SWTS-DET1
  6
HIDDEN2
100
AcDbLine
 10
8.078585954070746
 20
16.8253930513288
 30
0.0
 11
15.44164196506673
 21
16.8253930513288
 31
0.0
  0
LINE
  5
69D5
330
17
100
AcDbEntity
  8
R-SWTS-DET3
  6
HIDDEN
100
AcDbLine
 10
13.86856743789411
 20
15.94636643852019
 30
0.0
 11
15.44164196506673
 21
15.94636643852019
 31
0.0
  0
LINE
  5
69D6
330
17
100
AcDbEntity
  8
R-SWTS-DET3
100
AcDbLine
 10
11.86856743789411
 20
16.9153664203619
 30
0.0
 11
11.86856743789411
 21
22.49285363493114
 31
0.0
  0
LINE
  5
69D7
330
17
100
AcDbEntity
  8
R-SWTS-DET3
100
AcDbLine
 10
11.36856743789411
 20
16.9153664203619
 30
0.0
 11
11.36856743789411
 21
22.49285363493114
 31
0.0
  0
LEADER
  5
69D8
330
17
100
AcDbEntity
  8
R-ANNO-DIMS
100
AcDbLeader
  3
STANDARD
 76
     2
 10
9.778777219981435
 20
15.94636643852019
 30
0.0
 10
8.825079271515715
 20
19.07262586558038
 30
0.0
1001
ACAD
1000
DSTYLE
1002
{
1070
     5
1000

1070
   342
1005
0
1002
}
  0
LEADER
  5
69D9
330
17
100
AcDbEntity
  8
R-ANNO-DIMS
100
AcDbLeader
  3
STANDARD
 76
     2
 10
8.568854046073205
 20
16.92859787454981
 30
0.0
 10
7.984752749262124
 20
18.43564838930077
 30
0.0
1001
ACAD
1000
DSTYLE
1002
{
1070
     5
1000

1070
   342
1005
0
1002
}
  0
LEADER
  5
69DA
330
17
100
AcDbEntity
  8
R-ANNO-DIMS
100
AcDbLeader
  3
STANDARD
 76
     2
 10
10.96898255087399
 20
17.9363737868819
 30
0.0
 10
9.645791897160865
 20
20.69686713181164
 30
0.0
1001
ACAD
1000
DSTYLE
1002
{
1070
     5
1000

1070
   342
1005
0
1002
}
  0
LINE
  5
69DB
330
17
100
AcDbEntity
  8
R-SWTS-DET1
  6
HIDDEN
100
AcDbLine
 10
12.74356743789411
 20
15.94636643852019
 30
0.0
 11
12.74356743789411
 21
22.49285363493114
 31
0.0
  0
LINE
  5
69DC
330
17
100
AcDbEntity
  8
R-SWTS-DET1
  6
HIDDEN
100
AcDbLine
 10
10.4935674378941
 20
15.94636643852019
 30
0.0
 11
10.49356743789411
 21
22.49285363493114
 31
0.0
  0
LWPOLYLINE
  5
69DD
330
17
100
AcDbEntity
  8
R-SWTS-DET1
100
AcDbPolyline
 90
        6
 70
     0
 43
0.0
 10
8.078585954070746
 20
17.1800061231723
 10
8.078585954070746
 20
15.44515295678584
 10
7.866370761088532
 20
15.39208437504934
 10
8.290785502078712
 20
15.28453328704815
 10
8.078570309096505
 20
15.23146470531166
 10
8.078570309096505
 20
13.9666401953458
  0
LINE
  5
69DE
330
17
100
AcDbEntity
  8
R-SWTS-DET3
  6
HIDDEN
100
AcDbLine
 10
9.368567437894114
 20
15.94636643852019
 30
0.0
 11
8.078585954070746
 21
15.94636643852019
 31
0.0
  0
LINE
  5
69DF
330
17
100
AcDbEntity
  8
R-SWTS-DET3
  6
HIDDEN
100
AcDbLine
 10
11.36856743789411
 20
16.9153664203619
 30
0.0
 11
11.36856743789411
 21
15.94636643852019
 31
0.0
  0
LINE
  5
69E0
330
17
100
AcDbEntity
  8
R-SWTS-DET3
  6
HIDDEN
100
AcDbLine
 10
11.86856743789411
 20
16.9153664203619
 30
0.0
 11
11.86856743789412
 21
15.94636643852019
 31
0.0
  0
LWPOLYLINE
  5
69E1
330
17
100
AcDbEntity
  8
R-SWTS-DET1
100
AcDbPolyline
 90
        6
 70
     0
 43
0.0
 10
13.03868713481162
 20
22.49469499118119
 10
11.72541156363123
 20
22.49469499118119
 10
11.67234298189473
 20
22.70691018416341
 10
11.56479189389355
 20
22.28249544317323
 10
11.51172331215705
 20
22.49471063615543
 10
10.24689880219119
 20
22.49471063615543
  0
TEXT
  5
69E2
330
17
100
AcDbEntity
  8
PART_NUMBERS
100
AcDbText
 10
5.943399644901809
 20
20.66956500925291
 30
0.0
 40
0.25
  1
850301 ANCHOR CLIP
100
AcDbText
  0
TEXT
  5
69E3
330
17
100
AcDbEntity
  8
PART_NUMBERS
100
AcDbText
 10
3.863761372915547
 20
18.38357384500116
 30
0.0
 40
0.25
  1
850203 SILL ASSEMBLY
100
AcDbText
  0
TEXT
  5
69E4
330
17
100
AcDbEntity
  8
PART_NUMBERS
100
AcDbText
 10
3.922693971881798
 20
18.9753467985999
 30
0.0
 40
0.25
  1
850305 SILL ANCHOR CHAIR
100
AcDbText
  0
LINE
  5
69E5
330
17
100
AcDbEntity
  8
R-SWTS-DET2
  6
HIDDEN2
100
AcDbLine
 10
10.69206308878247
 20
17.81137287202837
 30
0.0
 11
12.16031308878246
 21
17.81137287202837
 31
0.0
  0
LINE
  5
69E6
330
17
100
AcDbEntity
  8
R-SWTS-DET2
  6
HIDDEN2
100
AcDbLine
 10
10.69206308878247
 20
17.9363737868819
 30
0.0
 11
12.16031308878246
 21
17.9363737868819
 31
0.0
  0
LINE
  5
69E7
330
17
100
AcDbEntity
  8
R-SWTS-DET2
  6
HIDDEN2
100
AcDbLine
 10
10.69206308878247
 20
15.43036673633142
 30
0.0
 11
12.16031308878246
 21
15.43036673633142
 31
0.0
  0
LINE
  5
69E8
330
17
100
AcDbEntity
  8
R-SWTS-DET2
  6
HIDDEN2
100
AcDbLine
 10
10.69206308878247
 20
15.61836673633141
 30
0.0
 11
12.16031308878246
 21
15.61836673633141
 31
0.0
  0
LINE
  5
69E9
330
17
100
AcDbEntity
  8
R-SWTS-DET2
  6
HIDDEN2
100
AcDbLine
 10
10.69206308878247
 20
15.81063263660254
 30
0.0
 11
12.16031308878246
 21
15.81063263660254
 31
0.0
  0
LINE
  5
69EA
330
17
100
AcDbEntity
  8
R-SWTS-DET2
  6
HIDDEN2
100
AcDbLine
 10
10.69206308878247
 20
15.42642929850754
 30
0.0
 11
10.69206308878247
 21
17.9363737868819
 31
0.0
  0
LINE
  5
69EB
330
17
100
AcDbEntity
  8
R-SWTS-DET2
  6
HIDDEN2
100
AcDbLine
 10
12.16031308878246
 20
15.42642929850754
 30
0.0
 11
12.16031308878246
 21
17.9363737868819
 31
0.0
  0
LINE
  5
69EC
330
17
100
AcDbEntity
  8
R-ANNO-DIMS
100
AcDbLine
 10
7.703585954070746
 20
16.9153664203619
 30
0.0
 11
6.5042262838191
 21
16.9153664203619
 31
0.0
  0
LINE
  5
69ED
330
17
100
AcDbEntity
  8
R-ANNO-DIMS
100
AcDbLine
 10
7.703570309096505
 20
14.66536640499569
 30
0.0
 11
6.5042262838191
 21
14.66536640499569
 31
0.0
  0
LINE
  5
69EE
330
17
100
AcDbEntity
  8
R-ANNO-DIMS
100
AcDbLine
 10
6.6842262838191
 20
16.6653664203619
 30
0.0
 11
6.6842262838191
 21
14.91536640499569
 31
0.0
  0
SOLID
  5
69EF
330
17
100
AcDbEntity
  8
R-ANNO-DIMS
100
AcDbTrace
 10
6.642559617152432
 20
16.6653664203619
 30
0.0
 11
6.725892950485768
 21
16.6653664203619
 31
0.0
 12
6.6842262838191
 22
16.9153664203619
 32
0.0
 13
6.6842262838191
 23
16.9153664203619
 33
0.0
  0
SOLID
  5
69F0
330
17
100
AcDbEntity
  8
R-ANNO-DIMS
100
AcDbTrace
 10
6.642559617152432
 20
14.91536640499569
 30
0.0
 11
6.725892950485768
 21
14.91536640499569
 31
0.0
 12
6.6842262838191
 22
14.66536640499569
 32
0.0
 13
6.6842262838191
 23
14.66536640499569
 33
0.0
  0
MTEXT
  5
69F1
330
17
100
AcDbEntity
  8
R-ANNO-DIMS
100
AcDbMText
 10
6.454962982318416
 20
15.7903664126788
 30
0.0
 40
0.25
 41
0.0
 71
     5
 72
     1
  1
\A1;2 1/4"
 11
0.0000000000000001
 21
1.0
 31
0.0
 73
     1
 44
1.0
1001
ACAD
1000
MTEXTBEGIN
1070
    73
1070
     1
1070
    44
1040
1.0
1070
    74
1070
     0
1000
MTEXTEND
  0
LINE
  5
69F2
330
17
100
AcDbEntity
  8
R-ANNO-DIMS
100
AcDbLine
 10
7.703570309096505
 20
14.66536640499569
 30
0.0
 11
6.5042262838191
 21
14.66536640499569
 31
0.0
  0
LINE
  5
69F3
330
17
100
AcDbEntity
  8
R-ANNO-DIMS
100
AcDbLine
 10
7.703570309096505
 20
14.16536640499569
 30
0.0
 11
6.5042262838191
 21
14.16536640499569
 31
0.0
  0
LINE
  5
69F4
330
17
100
AcDbEntity
  8
R-ANNO-DIMS
100
AcDbLine
 10
6.6842262838191
 20
14.91536640499569
 30
0.0
 11
6.6842262838191
 21
15.16536640499569
 31
0.0
  0
LINE
  5
69F5
330
17
100
AcDbEntity
  8
R-ANNO-DIMS
100
AcDbLine
 10
6.6842262838191
 20
13.91536640499569
 30
0.0
 11
6.6842262838191
 21
12.91028454960688
 31
0.0
  0
SOLID
  5
69F6
330
17
100
AcDbEntity
  8
R-ANNO-DIMS
100
AcDbTrace
 10
6.642559617152432
 20
14.91536640499569
 30
0.0
 11
6.725892950485768
 21
14.91536640499569
 31
0.0
 12
6.6842262838191
 22
14.66536640499569
 32
0.0
 13
6.6842262838191
 23
14.66536640499569
 33
0.0
  0
SOLID
  5
69F7
330
17
100
AcDbEntity
  8
R-ANNO-DIMS
100
AcDbTrace
 10
6.642559617152432
 20
13.91536640499569
 30
0.0
 11
6.725892950485768
 21
13.91536640499569
 31
0.0
 12
6.6842262838191
 22
14.16536640499569
 32
0.0
 13
6.6842262838191
 23
14.16536640499569
 33
0.0
  0
MTEXT
  5
69F8
330
17
100
AcDbEntity
  8
R-ANNO-DIMS
100
AcDbMText
 10
6.454962982318416
 20
13.28782547730129
 30
0.0
 40
0.25
 41
0.0
 71
     5
 72
     1
  1
\A1;1/2"
 11
0.0000000000000001
 21
1.0
 31
0.0
 73
     1
 44
1.0
1001
ACAD
1000
MTEXTBEGIN
1070
    73
1070
     1
1070
    44
1040
1.0
1070
    74
1070
     0
1000
MTEXTEND
  0
MTEXT
  5
69F9
330
17
100
AcDbEntity
  8
R-ANNO-DIMS
100
AcDbMText
 10
14.16599738416697
 20
13.73446863246071
 30
0.0
 40
0.25
 41
4.089
 71
     1
 72
     5
  1
(2) PERIMETER FASTENERS FROM\PSILL ANCHOR TO PERIM.
 73
     1
 44
1.0
1001
ACAD
1000
MTEXTBEGIN
1070
    73
1070
     1
1070
    44
1040
1.0
1070
    74
1070
     0
1000
MTEXTEND
  0
LEADER
  5
69FA
330
17
100
AcDbEntity
  8
R-ANNO-DIMS
100
AcDbLeader
  3
STANDARD
 76
     2
 10
12.82343206098351
 20
14.34831853054869
 30
0.0
 10
13.66118139954631
 20
13.61614833921873
 30
0.0
1001
ACAD
1000
DSTYLE
1002
{
1070
     5
1000

1070
   342
1005
0
1002
}
  0
LINE
  5
69FB
330
17
100
AcDbEntity
  8
R-ANNO-DIMS
100
AcDbLine
 10
13.66118139954631
 20
13.61614833921873
 30
0.0
 11
13.94279521791829
 21
13.61614833921873
 31
0.0
  0
LINE
  5
69FC
330
17
100
AcDbEntity
  8
R-SWTS-DET2
  6
HIDDEN2
100
AcDbLine
 10
9.493567437894114
 20
15.29036640499569
 30
0.0
 11
13.74356743789411
 21
15.29036640499569
 31
0.0
  0
LINE
  5
69FD
330
17
100
AcDbEntity
  8
R-SWTS-DET2
  6
HIDDEN2
100
AcDbLine
 10
9.493567437894114
 20
15.86636643852019
 30
0.0
 11
13.74356743789411
 21
15.86636643852019
 31
0.0
  0
LINE
  5
69FE
330
17
100
AcDbEntity
  8
R-SWTS-DET2
  6
HIDDEN2
100
AcDbLine
 10
9.493567437894114
 20
15.94636643852019
 30
0.0
 11
13.74356743789411
 21
15.94636643852019
 31
0.0
  0
LINE
  5
69FF
330
17
100
AcDbEntity
  8
R-SWTS-DET2
  6
HIDDEN2
100
AcDbLine
 10
9.49356743789411
 20
15.43036643941417
 30
0.0
 11
13.74356743789411
 21
15.43036643941417
 31
0.0
  0
LINE
  5
6A00
330
17
100
AcDbEntity
  8
R-SWTS-DET2
  6
HIDDEN2
100
AcDbLine
 10
9.493567437894114
 20
15.29036640499569
 30
0.0
 11
9.493567437894114
 21
15.94636643852019
 31
0.0
  0
LINE
  5
6A01
330
17
100
AcDbEntity
  8
R-SWTS-DET2
  6
HIDDEN2
100
AcDbLine
 10
13.74356743789411
 20
15.29036640499569
 30
0.0
 11
13.74356743789411
 21
15.94636643852019
 31
0.0
  0
LINE
  5
6A02
330
17
100
AcDbEntity
  8
R-SWTS-DET3
  6
CENTER
100
AcDbLine
 10
12.74356743789411
 20
15.58699967671742
 30
0.0
 11
12.74356743789411
 21
13.20704207719158
 31
0.0
  0
LINE
  5
6A03
330
17
100
AcDbEntity
  8
R-SWTS-DET3
  6
CENTER
100
AcDbLine
 10
10.49356743789411
 20
15.58699967671742
 30
0.0
 11
10.49356743789411
 21
13.20704207719158
 31
0.0
  0
TEXT
  5
6A5E
330
17
100
AcDbEntity
  8
0
  6
Continuous
 62
     2
100
AcDbText
 10
9.492978213843201
 20
9.384587383623134
 30
0.0
 40
0.375
  1
ANCHOR DETAIL
 72
     1
 11
11.61750925067812
 21
9.384587383623134
 31
0.0
100
AcDbText
  0
TEXT
  5
6A5F
330
17
100
AcDbEntity
  8
0
  6
Continuous
 62
     2
100
AcDbText
 10
42.55535646396462
 20
8.524607218218001
 30
0.0
 40
0.375
  1
SPLICE DETAIL
 72
     1
 11
44.47691171635208
 21
8.524607218218001
 31
0.0
100
AcDbText
  0
TEXT
  5
6A60
330
17
100
AcDbEntity
  8
0
  6
Continuous
 62
     2
100
AcDbText
 10
42.51174288961265
 20
9.280532833872463
 30
0.0
 40
0.375
  1
HEAD AND SILL
 72
     1
 11
44.47691171635208
 21
9.280532833872463
 31
0.0
100
AcDbText
  0
MTEXT
  5
6F5F
102
{ACAD_XDICTIONARY
360
6F60
102
}
330
17
100
AcDbEntity
  8
TEXT
100
AcDbMText
 10
1.000000084398437
 20
2.0
 30
0.0
 40
0.375
 41
15.4571868900598
 71
     1
 72
     5
  1
ENGINEERING CHANGE:  97910-095 (MARCH 2017)\PFILE NAME:  KCDD160 SHEET 06 OF 06.DWG
 73
     1
 44
1.0
1001
ACAD
1000
ACAD_MTEXT_COLUMN_INFO_BEGIN
1070
    75
1070
     2
1070
    79
1070
     0
1070
    76
1070
     1
1070
    78
1070
     0
1070
    48
1040
15.4571868900598
1070
    49
1040
1.25
1070
    50
1070
     1
1040
0.0
1000
ACAD_MTEXT_COLUMN_INFO_END
1000
MTEXTBEGIN
1070
    73
1070
     1
1070
    44
1040
1.0
1070
    74
1070
     0
1000
MTEXTEND
  0
INSERT
  5
6F61
330
17
100
AcDbEntity
  8
0
100
AcDbBlockReference
  2
Kawneer Logo English
 10
1.0
 20
2.5
 30
0.0
 41
5.337
 42
5.337
 43
5.337
  0
ENDSEC
  0
SECTION
  2
OBJECTS
  0
DICTIONARY
  5
C
330
0
100
AcDbDictionary
281
     1
  3
ACAD_CIP_PREVIOUS_PRODUCT_INFO
350
6C18
  3
ACAD_COLOR
350
6B7E
  3
ACAD_FIELDLIST
350
6C3C
  3
ACAD_GROUP
350
D
  3
ACAD_LAYOUT
350
485C
  3
ACAD_MATERIAL
350
6B4C
  3
ACAD_MLEADERSTYLE
350
6B93
  3
ACAD_MLINESTYLE
350
1A
  3
ACAD_PLOTSETTINGS
350
485D
  3
ACAD_PLOTSTYLENAME
350
485A
  3
ACAD_SCALELIST
350
6B81
  3
ACAD_TABLESTYLE
350
6B7F
  3
ACAD_VISUALSTYLE
350
6B65
  3
ACDB_RECOMPOSE_DATA
350
6F77
  3
ACDBVARIABLEDICTIONARY
350
3E
  3
DWGPROPS
350
6F78
  0
DICTIONARY
  5
6BD3
330
8
100
AcDbDictionary
280
     1
281
     1
  0
DICTIONARY
  5
6BB2
330
2
100
AcDbDictionary
280
     1
281
     1
  3
ACAD_LAYERSTATES
360
6BB3
  0
DICTIONARY
  5
6BC2
330
E
100
AcDbDictionary
280
     1
281
     1
  3
ADSK_XREC_LAYER_RECONCILED
360
6BC3
  0
DICTIONARY
  5
6BC4
330
5A6B
100
AcDbDictionary
280
     1
281
     1
  3
ADSK_XREC_LAYER_RECONCILED
360
6BC5
  0
DICTIONARY
  5
6BC6
330
5A6C
100
AcDbDictionary
280
     1
281
     1
  3
ADSK_XREC_LAYER_RECONCILED
360
6BC7
  0
DICTIONARY
  5
6BC8
330
5A6D
100
AcDbDictionary
280
     1
281
     1
  3
ADSK_XREC_LAYER_RECONCILED
360
6BC9
  0
DICTIONARY
  5
6BCA
330
5A6E
100
AcDbDictionary
280
     1
281
     1
  3
ADSK_XREC_LAYER_RECONCILED
360
6BCB
  0
DICTIONARY
  5
6BCC
330
5A6F
100
AcDbDictionary
280
     1
281
     1
  3
ADSK_XREC_LAYER_RECONCILED
360
6BCD
  0
DICTIONARY
  5
6BB1
330
6BB0
100
AcDbDictionary
280
     1
281
     1
  3
ADSK_XREC_LAYER_RECONCILED
360
6BCE
  0
DICTIONARY
  5
6C2D
330
6C2C
100
AcDbDictionary
280
     1
281
     1
  0
DICTIONARY
  5
4A11
330
17
100
AcDbDictionary
280
     1
281
     1
  0
DICTIONARY
  5
4A0F
330
14
100
AcDbDictionary
280
     1
281
     1
  0
DICTIONARY
  5
6F47
330
6F46
100
AcDbDictionary
280
     1
281
     1
  3
ACAD_SORTENTS
360
6F48
  0
DICTIONARY
  5
6F75
330
6F4A
100
AcDbDictionary
280
     1
281
     1
  3
ACAD_MTEXT_2008_RT
360
6F76
  0
DICTIONARY
  5
6F60
330
6F5F
100
AcDbDictionary
280
     1
281
     1
  0
XRECORD
  5
6C18
102
{ACAD_REACTORS
330
C
102
}
330
C
100
AcDbXrecord
280
     1
300
ACD
300
2012
300
85730ACD_2012_0F
  0
DICTIONARY
  5
6B7E
102
{ACAD_REACTORS
330
C
102
}
330
C
100
AcDbDictionary
281
     1
  0
FIELDLIST
  5
6C3C
102
{ACAD_REACTORS
330
C
102
}
330
C
100
AcDbIdSet
 90
        0
100
AcDbFieldList
  0
DICTIONARY
  5
D
102
{ACAD_REACTORS
330
C
102
}
330
C
100
AcDbDictionary
281
     1
  0
DICTIONARY
  5
485C
102
{ACAD_REACTORS
330
C
102
}
330
C
100
AcDbDictionary
281
     1
  3
Layout1
350
485F
  3
Model
350
485E
  0
DICTIONARY
  5
6B4C
102
{ACAD_REACTORS
330
C
102
}
330
C
100
AcDbDictionary
281
     1
  3
ByBlock
350
6B55
  3
ByLayer
350
6B4D
  3
Global
350
6B5D
  0
DICTIONARY
  5
6B93
102
{ACAD_REACTORS
330
C
102
}
330
C
100
AcDbDictionary
281
     1
  3
Standard
350
6B94
  0
DICTIONARY
  5
1A
102
{ACAD_REACTORS
330
C
102
}
330
C
100
AcDbDictionary
281
     1
  3
STANDARD
350
1B
  0
DICTIONARY
  5
485D
102
{ACAD_REACTORS
330
C
102
}
330
C
100
AcDbDictionary
281
     1
  0
ACDBDICTIONARYWDFLT
  5
485A
102
{ACAD_REACTORS
330
C
102
}
330
C
100
AcDbDictionary
281
     1
  3
Normal
350
485B
100
AcDbDictionaryWithDefault
340
485B
  0
DICTIONARY
  5
6B81
102
{ACAD_REACTORS
330
C
102
}
330
C
100
AcDbDictionary
281
     1
  3
A0
350
6B82
  3
A1
350
6F63
  3
A2
350
6F64
  3
A3
350
6F65
  3
A4
350
6F66
  3
A5
350
6F67
  3
A6
350
6F68
  3
A7
350
6F69
  3
A8
350
6F6A
  3
A9
350
6F6B
  3
B0
350
6F6C
  3
B1
350
6F6D
  3
B2
350
6F6E
  3
B3
350
6F6F
  3
B4
350
6F70
  3
B5
350
6F71
  3
B6
350
6F72
  0
DICTIONARY
  5
6B7F
102
{ACAD_REACTORS
330
C
102
}
330
C
100
AcDbDictionary
281
     1
  3
Standard
350
6B80
  0
DICTIONARY
  5
6B65
102
{ACAD_REACTORS
330
C
102
}
330
C
100
AcDbDictionary
281
     1
  3
2dWireframe
350
6B6B
  3
Basic
350
6B6A
  3
Brighten
350
6B71
  3
ColorChange
350
6B75
  3
Conceptual
350
6B6E
  3
Dim
350
6B70
  3
EdgeColorOff
350
6B7D
  3
Facepattern
350
6B74
  3
Flat
350
6B66
  3
FlatWithEdges
350
6B67
  3
Gouraud
350
6B68
  3
GouraudWithEdges
350
6B69
  3
Hidden
350
6B6D
  3
JitterOff
350
6B7B
  3
Linepattern
350
6B73
  3
OverhangOff
350
6B7C
  3
Realistic
350
6B6F
  3
Shaded
350
6B7A
  3
Shaded with edges
350
6B79
  3
Shades of Gray
350
6B76
  3
Sketchy
350
6B77
  3
Thicken
350
6B72
  3
Wireframe
350
6B6C
  3
X-Ray
350
6B78
  0
XRECORD
  5
6F77
102
{ACAD_REACTORS
330
C
102
}
330
C
100
AcDbXrecord
280
     1
 90
        1
330
6B80
330
6F4A
330
6F5F
  0
DICTIONARY
  5
3E
102
{ACAD_REACTORS
330
C
102
}
330
C
100
AcDbDictionary
281
     1
  3
CANNOSCALE
350
6C10
  3
CMLEADERSTYLE
350
6C0F
  3
CTABLESTYLE
350
6C0E
  3
DIMADEC
350
3F
  3
DIMASSOC
350
6C13
  3
INDEXCTL
350
6C12
  3
LAYEREVAL
350
6EF6
  3
LAYERNOTIFY
350
6EF7
  3
LIGHTINGUNITS
350
6EF5
  3
MSLTSCALE
350
6EF4
  3
SORTENTS
350
6C11
  3
XCLIPFRAME
350
6F73
  0
XRECORD
  5
6F78
102
{ACAD_REACTORS
330
C
102
}
330
C
100
AcDbXrecord
280
     1
  1
DWGPROPS COOKIE
  2

  3

  4

  6

  7

  8
cottrmr
  9

300
=
301
=
302
=
303
=
304
=
305
=
306
=
307
=
308
=
309
=
 40
0.6255181018518519
 41
2450777.579237616
 42
2457827.60221963
  1

 90
        0
  0
DICTIONARY
  5
6BB3
102
{ACAD_REACTORS
330
6BB2
102
}
330
6BB2
100
AcDbDictionary
281
     1
  0
XRECORD
  5
6BC3
102
{ACAD_REACTORS
330
6BC2
102
}
330
6BC2
100
AcDbXrecord
280
     1
290
     1
  0
XRECORD
  5
6BC5
102
{ACAD_REACTORS
330
6BC4
102
}
330
6BC4
100
AcDbXrecord
280
     1
290
     1
  0
XRECORD
  5
6BC7
102
{ACAD_REACTORS
330
6BC6
102
}
330
6BC6
100
AcDbXrecord
280
     1
290
     1
  0
XRECORD
  5
6BC9
102
{ACAD_REACTORS
330
6BC8
102
}
330
6BC8
100
AcDbXrecord
280
     1
290
     1
  0
XRECORD
  5
6BCB
102
{ACAD_REACTORS
330
6BCA
102
}
330
6BCA
100
AcDbXrecord
280
     1
290
     1
  0
XRECORD
  5
6BCD
102
{ACAD_REACTORS
330
6BCC
102
}
330
6BCC
100
AcDbXrecord
280
     1
290
     1
  0
XRECORD
  5
6BCE
102
{ACAD_REACTORS
330
6BB1
102
}
330
6BB1
100
AcDbXrecord
280
     1
290
     1
  0
SORTENTSTABLE
  5
6F48
102
{ACAD_REACTORS
330
6F47
102
}
330
6F47
100
AcDbSortentsTable
330
6F46
  0
XRECORD
  5
6F76
102
{ACAD_REACTORS
330
6F75
102
}
330
6F75
100
AcDbXrecord
280
     1
 40
102645.0
  1
\pxqr;{\fArial TUR|b0|i0|c0|p34;\T1.05;AN ARCONIC COMPANY}
  0
LAYOUT
  5
485F
102
{ACAD_XDICTIONARY
360
6F7B
102
}
102
{ACAD_REACTORS
330
485C
102
}
330
485C
100
AcDbPlotSettings
  1

  2
\\NOAKCI-SRV7\Marketing Communications - HP4550hdn
  4

  6

 40
0.0
 41
0.0
 42
0.0
 43
0.0
 44
0.0
 45
0.0
 46
0.0
 47
0.0
 48
0.0
 49
0.0
140
0.0
141
0.0
142
1.0
143
1.0
 70
   688
 72
     0
 73
     0
 74
     5
  7
monochrome.ctb
 75
    16
147
1.0
148
0.0
149
0.0
100
AcDbLayout
  1
Layout1
 70
     1
 71
     1
 10
0.0
 20
0.0
 11
12.0
 21
9.0
 12
0.0
 22
0.0
 32
0.0
 14
1.000000000000000E+20
 24
1.000000000000000E+20
 34
1.000000000000000E+20
 15
-1.000000000000000E+20
 25
-1.000000000000000E+20
 35
-1.000000000000000E+20
146
0.0
 13
0.0
 23
0.0
 33
0.0
 16
1.0
 26
0.0
 36
0.0
 17
0.0
 27
1.0
 37
0.0
 76
     0
330
14
  0
LAYOUT
  5
485E
102
{ACAD_XDICTIONARY
360
6F79
102
}
102
{ACAD_REACTORS
330
485C
102
}
330
485C
100
AcDbPlotSettings
  1

  2
\\KWRKCI-HUB03\KCI_MKT_HP9000_PCL6
  4
11x17
  6

 40
3.174999952316284
 41
3.174999952316284
 42
3.17498779296875
 43
3.17498779296875
 44
279.3999938964844
 45
431.8000183105469
 46
0.0
 47
0.0
 48
0.0
 49
0.0
140
0.0
141
0.0
142
1.0
143
3.973236910175821
 70
 11952
 72
     0
 73
     1
 74
     1
  7
monochrome.ctb
 75
     0
147
0.2516839601079183
148
0.0895317202718616
149
0.054043374108403
100
AcDbLayout
  1
Model
 70
     1
 71
     0
 10
0.0
 20
0.0
 11
12.0
 21
9.0
 12
0.0
 22
0.0
 32
0.0
 14
0.0
 24
0.0
 34
0.0
 15
0.0
 25
0.0
 35
0.0
146
0.0
 13
0.0
 23
0.0
 33
0.0
 16
1.0
 26
0.0
 36
0.0
 17
0.0
 27
1.0
 37
0.0
 76
     0
330
17
331
6B4A
  0
MATERIAL
  5
6B55
102
{ACAD_XDICTIONARY
360
6B56
102
}
102
{ACAD_REACTORS
330
6B4C
102
}
330
6B4C
100
AcDbMaterial
  1
ByBlock
 72
     0
 43
0.0208333333333333
 43
0.0
 43
0.0
 43
0.0
 43
0.0
 43
0.0208333333333333
 43
0.0
 43
0.0
 43
0.0
 43
0.0
 43
1.0
 43
0.0
 43
0.0
 43
0.0
 43
0.0
 43
1.0
 77
     0
 47
0.0208333333333333
 47
0.0
 47
0.0
 47
0.0
 47
0.0
 47
0.0208333333333333
 47
0.0
 47
0.0
 47
0.0
 47
0.0
 47
1.0
 47
0.0
 47
0.0
 47
0.0
 47
0.0
 47
1.0
171
     0
 49
0.0208333333333333
 49
0.0
 49
0.0
 49
0.0
 49
0.0
 49
0.0208333333333333
 49
0.0
 49
0.0
 49
0.0
 49
0.0
 49
1.0
 49
0.0
 49
0.0
 49
0.0
 49
0.0
 49
1.0
175
     0
142
0.0208333333333333
142
0.0
142
0.0
142
0.0
142
0.0
142
0.0208333333333333
142
0.0
142
0.0
142
0.0
142
0.0
142
1.0
142
0.0
142
0.0
142
0.0
142
0.0
142
1.0
179
     0
144
0.0208333333333333
144
0.0
144
0.0
144
0.0
144
0.0
144
0.0208333333333333
144
0.0
144
0.0
144
0.0
144
0.0
144
1.0
144
0.0
144
0.0
144
0.0
144
0.0
144
1.0
147
0.0208333333333333
147
0.0
147
0.0
147
0.0
147
0.0
147
0.0208333333333333
147
0.0
147
0.0
147
0.0
147
0.0
147
1.0
147
0.0
147
0.0
147
0.0
147
0.0
147
1.0
  0
MATERIAL
  5
6B4D
102
{ACAD_XDICTIONARY
360
6B4E
102
}
102
{ACAD_REACTORS
330
6B4C
102
}
330
6B4C
100
AcDbMaterial
  1
ByLayer
 72
     0
 43
0.0208333333333333
 43
0.0
 43
0.0
 43
0.0
 43
0.0
 43
0.0208333333333333
 43
0.0
 43
0.0
 43
0.0
 43
0.0
 43
1.0
 43
0.0
 43
0.0
 43
0.0
 43
0.0
 43
1.0
 77
     0
 47
0.0208333333333333
 47
0.0
 47
0.0
 47
0.0
 47
0.0
 47
0.0208333333333333
 47
0.0
 47
0.0
 47
0.0
 47
0.0
 47
1.0
 47
0.0
 47
0.0
 47
0.0
 47
0.0
 47
1.0
171
     0
 49
0.0208333333333333
 49
0.0
 49
0.0
 49
0.0
 49
0.0
 49
0.0208333333333333
 49
0.0
 49
0.0
 49
0.0
 49
0.0
 49
1.0
 49
0.0
 49
0.0
 49
0.0
 49
0.0
 49
1.0
175
     0
142
0.0208333333333333
142
0.0
142
0.0
142
0.0
142
0.0
142
0.0208333333333333
142
0.0
142
0.0
142
0.0
142
0.0
142
1.0
142
0.0
142
0.0
142
0.0
142
0.0
142
1.0
179
     0
144
0.0208333333333333
144
0.0
144
0.0
144
0.0
144
0.0
144
0.0208333333333333
144
0.0
144
0.0
144
0.0
144
0.0
144
1.0
144
0.0
144
0.0
144
0.0
144
0.0
144
1.0
147
0.0208333333333333
147
0.0
147
0.0
147
0.0
147
0.0
147
0.0208333333333333
147
0.0
147
0.0
147
0.0
147
0.0
147
1.0
147
0.0
147
0.0
147
0.0
147
0.0
147
1.0
  0
MATERIAL
  5
6B5D
102
{ACAD_XDICTIONARY
360
6B5E
102
}
102
{ACAD_REACTORS
330
6B4C
102
}
330
6B4C
100
AcDbMaterial
  1
Global
 72
     0
 43
0.0208333333333333
 43
0.0
 43
0.0
 43
0.0
 43
0.0
 43
0.0208333333333333
 43
0.0
 43
0.0
 43
0.0
 43
0.0
 43
1.0
 43
0.0
 43
0.0
 43
0.0
 43
0.0
 43
1.0
 77
     0
 47
0.0208333333333333
 47
0.0
 47
0.0
 47
0.0
 47
0.0
 47
0.0208333333333333
 47
0.0
 47
0.0
 47
0.0
 47
0.0
 47
1.0
 47
0.0
 47
0.0
 47
0.0
 47
0.0
 47
1.0
171
     0
 49
0.0208333333333333
 49
0.0
 49
0.0
 49
0.0
 49
0.0
 49
0.0208333333333333
 49
0.0
 49
0.0
 49
0.0
 49
0.0
 49
1.0
 49
0.0
 49
0.0
 49
0.0
 49
0.0
 49
1.0
175
     0
142
0.0208333333333333
142
0.0
142
0.0
142
0.0
142
0.0
142
0.0208333333333333
142
0.0
142
0.0
142
0.0
142
0.0
142
1.0
142
0.0
142
0.0
142
0.0
142
0.0
142
1.0
179
     0
144
0.0208333333333333
144
0.0
144
0.0
144
0.0
144
0.0
144
0.0208333333333333
144
0.0
144
0.0
144
0.0
144
0.0
144
1.0
144
0.0
144
0.0
144
0.0
144
0.0
144
1.0
147
0.0208333333333333
147
0.0
147
0.0
147
0.0
147
0.0
147
0.0208333333333333
147
0.0
147
0.0
147
0.0
147
0.0
147
1.0
147
0.0
147
0.0
147
0.0
147
0.0
147
1.0
  0
MLEADERSTYLE
  5
6B94
102
{ACAD_REACTORS
330
6B93
102
}
330
6B93
100
AcDbMLeaderStyle
170
     2
171
     1
172
     0
 90
        2
 40
0.0
 41
0.0
173
     1
 91
-1056964608
340
11
 92
       -2
290
     1
 42
0.09
291
     1
 43
0.36
  3
Standard
 44
0.18
300

342
F
174
     1
178
     6
175
     1
176
     0
 93
-1056964608
 45
0.18
292
     0
297
     0
 46
0.18
 94
-1056964608
 47
1.0
 49
1.0
140
1.0
293
     1
141
0.0
294
     1
177
     0
142
1.0
295
     0
296
     0
143
0.125
1001
ACAD_MLEADERVER
1070
     2
  0
MLINESTYLE
  5
1B
102
{ACAD_REACTORS
330
1A
102
}
330
1A
100
AcDbMlineStyle
  2
STANDARD
 70
     0
  3

 62
   256
 51
90.0
 52
90.0
 71
     2
 49
0.5
 62
   256
  6
BYLAYER
 49
-0.5
 62
   256
  6
BYLAYER
  0
ACDBPLACEHOLDER
  5
485B
102
{ACAD_REACTORS
330
485A
102
}
330
485A
  0
SCALE
  5
6B82
102
{ACAD_REACTORS
330
6B81
102
}
330
6B81
100
AcDbScale
 70
     0
300
1:1
140
1.0
141
1.0
290
     1
  0
SCALE
  5
6F63
102
{ACAD_REACTORS
330
6B81
102
}
330
6B81
100
AcDbScale
 70
     0
300
1/128" = 1'-0"
140
0.0078125
141
12.0
290
     0
  0
SCALE
  5
6F64
102
{ACAD_REACTORS
330
6B81
102
}
330
6B81
100
AcDbScale
 70
     0
300
1/64" = 1'-0"
140
0.015625
141
12.0
290
     0
  0
SCALE
  5
6F65
102
{ACAD_REACTORS
330
6B81
102
}
330
6B81
100
AcDbScale
 70
     0
300
1/32" = 1'-0"
140
0.03125
141
12.0
290
     0
  0
SCALE
  5
6F66
102
{ACAD_REACTORS
330
6B81
102
}
330
6B81
100
AcDbScale
 70
     0
300
1/16" = 1'-0"
140
0.0625
141
12.0
290
     0
  0
SCALE
  5
6F67
102
{ACAD_REACTORS
330
6B81
102
}
330
6B81
100
AcDbScale
 70
     0
300
3/32" = 1'-0"
140
0.09375
141
12.0
290
     0
  0
SCALE
  5
6F68
102
{ACAD_REACTORS
330
6B81
102
}
330
6B81
100
AcDbScale
 70
     0
300
1/8" = 1'-0"
140
0.125
141
12.0
290
     0
  0
SCALE
  5
6F69
102
{ACAD_REACTORS
330
6B81
102
}
330
6B81
100
AcDbScale
 70
     0
300
3/16" = 1'-0"
140
0.1875
141
12.0
290
     0
  0
SCALE
  5
6F6A
102
{ACAD_REACTORS
330
6B81
102
}
330
6B81
100
AcDbScale
 70
     0
300
1/4" = 1'-0"
140
0.25
141
12.0
290
     0
  0
SCALE
  5
6F6B
102
{ACAD_REACTORS
330
6B81
102
}
330
6B81
100
AcDbScale
 70
     0
300
3/8" = 1'-0"
140
0.375
141
12.0
290
     0
  0
SCALE
  5
6F6C
102
{ACAD_REACTORS
330
6B81
102
}
330
6B81
100
AcDbScale
 70
     0
300
1/2" = 1'-0"
140
0.5
141
12.0
290
     0
  0
SCALE
  5
6F6D
102
{ACAD_REACTORS
330
6B81
102
}
330
6B81
100
AcDbScale
 70
     0
300
3/4" = 1'-0"
140
0.75
141
12.0
290
     0
  0
SCALE
  5
6F6E
102
{ACAD_REACTORS
330
6B81
102
}
330
6B81
100
AcDbScale
 70
     0
300
1" = 1'-0"
140
1.0
141
12.0
290
     0
  0
SCALE
  5
6F6F
102
{ACAD_REACTORS
330
6B81
102
}
330
6B81
100
AcDbScale
 70
     0
300
1-1/2" = 1'-0"
140
1.5
141
12.0
290
     0
  0
SCALE
  5
6F70
102
{ACAD_REACTORS
330
6B81
102
}
330
6B81
100
AcDbScale
 70
     0
300
3" = 1'-0"
140
3.0
141
12.0
290
     0
  0
SCALE
  5
6F71
102
{ACAD_REACTORS
330
6B81
102
}
330
6B81
100
AcDbScale
 70
     0
300
6" = 1'-0"
140
6.0
141
12.0
290
     0
  0
SCALE
  5
6F72
102
{ACAD_REACTORS
330
6B81
102
}
330
6B81
100
AcDbScale
 70
     0
300
1'-0" = 1'-0"
140
12.0
141
12.0
290
     0
  0
TABLESTYLE
  5
6B80
102
{ACAD_XDICTIONARY
360
6BCF
102
}
102
{ACAD_REACTORS
330
6B7F
102
}
330
6B7F
100
AcDbTableStyle
  3
Standard
 70
     0
 71
     0
 40
0.06
 41
0.06
280
     0
281
     0
  7
STANDARD
140
0.18
170
     2
 62
     0
 63
     7
283
     0
274
    -2
284
     1
 64
     0
275
    -2
285
     1
 65
     0
276
    -2
286
     1
 66
     0
277
    -2
287
     1
 67
     0
278
    -2
288
     1
 68
     0
279
    -2
289
     1
 69
     0
  7
STANDARD
140
0.25
170
     5
 62
     0
 63
     7
283
     0
274
    -2
284
     1
 64
     0
275
    -2
285
     1
 65
     0
276
    -2
286
     1
 66
     0
277
    -2
287
     1
 67
     0
278
    -2
288
     1
 68
     0
279
    -2
289
     1
 69
     0
  7
STANDARD
140
0.18
170
     5
 62
     0
 63
     7
283
     0
274
    -2
284
     1
 64
     0
275
    -2
285
     1
 65
     0
276
    -2
286
     1
 66
     0
277
    -2
287
     1
 67
     0
278
    -2
288
     1
 68
     0
279
    -2
289
     1
 69
     0
  0
VISUALSTYLE
  5
6B6B
102
{ACAD_XDICTIONARY
360
6F8A
102
}
102
{ACAD_REACTORS
330
6B65
102
}
330
6B65
100
AcDbVisualStyle
  2
2dWireframe
 70
     4
 71
     0
 72
     2
 73
     0
 90
        0
 40
-0.6
 41
-30.0
 62
     5
 63
     7
 74
     1
 91
        4
 64
     7
 65
   257
 75
     1
175
     1
 42
1.0
 92
        0
 66
   257
 43
1.0
 76
     1
 77
     6
 78
     2
 67
     7
 79
     5
170
     0
171
     0
290
     0
174
     0
 93
        1
 44
0.0
173
     0
291
     0
 45
0.0
1001
ACAD
1000
AcDbSavedByObjectVersion
1070
     0
  0
VISUALSTYLE
  5
6B6A
102
{ACAD_XDICTIONARY
360
6F88
102
}
102
{ACAD_REACTORS
330
6B65
102
}
330
6B65
100
AcDbVisualStyle
  2
Basic
 70
     7
 71
     1
 72
     0
 73
     1
 90
        0
 40
-0.6
 41
-30.0
 62
     5
 63
     7
 74
     0
 91
        4
 64
     7
 65
   257
 75
     1
175
     1
 42
1.0
 92
        8
 66
     7
 43
1.0
 76
     1
 77
     6
 78
     2
 67
     7
 79
     5
170
     0
171
     0
290
     0
174
     0
 93
        1
 44
0.0
173
     0
291
     1
 45
0.0
1001
ACAD
1000
AcDbSavedByObjectVersion
1070
     0
  0
VISUALSTYLE
  5
6B71
102
{ACAD_XDICTIONARY
360
6F96
102
}
102
{ACAD_REACTORS
330
6B65
102
}
330
6B65
100
AcDbVisualStyle
  2
Brighten
 70
    12
 71
     2
 72
     2
 73
     0
 90
        0
 40
-0.6
 41
-30.0
 62
     5
 63
     7
 74
     1
 91
        4
 64
     7
 65
   257
 75
     1
175
     1
 42
1.0
 92
        8
 66
     7
 43
1.0
 76
     1
 77
     6
 78
     2
 67
     7
 79
     5
170
     0
171
     0
290
     0
174
     0
 93
        1
 44
50.0
173
     0
291
     1
 45
0.0
1001
ACAD
1000
AcDbSavedByObjectVersion
1070
     0
  0
VISUALSTYLE
  5
6B75
102
{ACAD_XDICTIONARY
360
6F9E
102
}
102
{ACAD_REACTORS
330
6B65
102
}
330
6B65
100
AcDbVisualStyle
  2
ColorChange
 70
    16
 71
     2
 72
     2
 73
     3
 90
        0
 40
-0.6
 41
-30.0
 62
     5
 63
     8
 74
     1
 91
        4
 64
     7
 65
   257
 75
     1
175
     1
 42
1.0
 92
        8
 66
     8
 43
1.0
 76
     1
 77
     6
 78
     2
 67
     7
 79
     5
170
     0
171
     0
290
     0
174
     0
 93
        1
 44
0.0
173
     0
291
     1
 45
0.0
1001
ACAD
1000
AcDbSavedByObjectVersion
1070
     0
  0
VISUALSTYLE
  5
6B6E
102
{ACAD_XDICTIONARY
360
6F90
102
}
102
{ACAD_REACTORS
330
6B65
102
}
330
6B65
100
AcDbVisualStyle
  2
Conceptual
 70
     9
 71
     3
 72
     2
 73
     0
 90
        0
 40
-0.6
 41
-30.0
 62
     5
 63
     7
 74
     2
 91
        2
 64
     7
 65
   257
 75
     1
175
     1
 42
179.0
 92
        8
 66
     7
 43
1.0
 76
     1
 77
     6
 78
     2
 67
     7
 79
     3
170
     0
171
     0
290
     0
174
     0
 93
        1
 44
0.0
173
     0
291
     0
 45
0.0
1001
ACAD
1000
AcDbSavedByObjectVersion
1070
     0
  0
VISUALSTYLE
  5
6B70
102
{ACAD_XDICTIONARY
360
6F94
102
}
102
{ACAD_REACTORS
330
6B65
102
}
330
6B65
100
AcDbVisualStyle
  2
Dim
 70
    11
 71
     2
 72
     2
 73
     0
 90
        0
 40
-0.6
 41
-30.0
 62
     5
 63
     7
 74
     1
 91
        4
 64
     7
 65
   257
 75
     1
175
     1
 42
1.0
 92
        8
 66
     7
 43
1.0
 76
     1
 77
     6
 78
     2
 67
     7
 79
     5
170
     0
171
     0
290
     0
174
     0
 93
        1
 44
-50.0
173
     0
291
     1
 45
0.0
1001
ACAD
1000
AcDbSavedByObjectVersion
1070
     0
  0
VISUALSTYLE
  5
6B7D
102
{ACAD_XDICTIONARY
360
6FAE
102
}
102
{ACAD_REACTORS
330
6B65
102
}
330
6B65
100
AcDbVisualStyle
  2
EdgeColorOff
 70
    22
 71
     2
 72
     2
 73
     0
 90
        0
 40
-0.6
 41
-30.0
 62
     5
 63
     7
 74
     1
 91
        4
 64
     7
 65
   257
 75
     1
175
     1
 42
1.0
 92
        8
 66
     7
 43
1.0
 76
     1
 77
     6
 78
     2
 67
     7
 79
     5
170
     0
171
     0
290
     0
174
     0
 93
        1
 44
0.0
173
     0
291
     1
 45
0.0
1001
ACAD
1000
AcDbSavedByObjectVersion
1070
     0
  0
VISUALSTYLE
  5
6B74
102
{ACAD_XDICTIONARY
360
6F9C
102
}
102
{ACAD_REACTORS
330
6B65
102
}
330
6B65
100
AcDbVisualStyle
  2
Facepattern
 70
    15
 71
     2
 72
     2
 73
     0
 90
        0
 40
-0.6
 41
-30.0
 62
     5
 63
     7
 74
     1
 91
        4
 64
     7
 65
   257
 75
     1
175
     1
 42
1.0
 92
        8
 66
     7
 43
1.0
 76
     1
 77
     6
 78
     2
 67
     7
 79
     5
170
     0
171
     0
290
     0
174
     0
 93
        1
 44
0.0
173
     0
291
     1
 45
0.0
1001
ACAD
1000
AcDbSavedByObjectVersion
1070
     0
  0
VISUALSTYLE
  5
6B66
102
{ACAD_XDICTIONARY
360
6F80
102
}
102
{ACAD_REACTORS
330
6B65
102
}
330
6B65
100
AcDbVisualStyle
  2
Flat
 70
     0
 71
     2
 72
     1
 73
     1
 90
        2
 40
-0.6
 41
30.0
 62
     5
 63
     7
 74
     0
 91
        0
 64
     7
 65
   257
 75
     1
175
     1
 42
1.0
 92
        8
 66
     7
 43
1.0
 76
     1
 77
     6
 78
     2
 67
     7
 79
     5
170
     0
171
     0
290
     0
174
     0
 93
       13
 44
0.0
173
     0
291
     1
 45
0.0
1001
ACAD
1000
AcDbSavedByObjectVersion
1070
     0
  0
VISUALSTYLE
  5
6B67
102
{ACAD_XDICTIONARY
360
6F82
102
}
102
{ACAD_REACTORS
330
6B65
102
}
330
6B65
100
AcDbVisualStyle
  2
FlatWithEdges
 70
     1
 71
     2
 72
     1
 73
     1
 90
        2
 40
-0.6
 41
30.0
 62
     5
 63
     7
 74
     1
 91
        0
 64
     7
 65
   257
 75
     1
175
     1
 42
1.0
 92
        0
 66
   257
 43
1.0
 76
     1
 77
     6
 78
     2
 67
     7
 79
     5
170
     0
171
     0
290
     0
174
     0
 93
       13
 44
0.0
173
     0
291
     1
 45
0.0
1001
ACAD
1000
AcDbSavedByObjectVersion
1070
     0
  0
VISUALSTYLE
  5
6B68
102
{ACAD_XDICTIONARY
360
6F84
102
}
102
{ACAD_REACTORS
330
6B65
102
}
330
6B65
100
AcDbVisualStyle
  2
Gouraud
 70
     2
 71
     2
 72
     2
 73
     1
 90
        2
 40
-0.6
 41
30.0
 62
     5
 63
     7
 74
     0
 91
        0
 64
     7
 65
   257
 75
     1
175
     1
 42
1.0
 92
        0
 66
     7
 43
1.0
 76
     1
 77
     6
 78
     2
 67
     7
 79
     5
170
     0
171
     0
290
     0
174
     0
 93
       13
 44
0.0
173
     0
291
     1
 45
0.0
1001
ACAD
1000
AcDbSavedByObjectVersion
1070
     0
  0
VISUALSTYLE
  5
6B69
102
{ACAD_XDICTIONARY
360
6F86
102
}
102
{ACAD_REACTORS
330
6B65
102
}
330
6B65
100
AcDbVisualStyle
  2
GouraudWithEdges
 70
     3
 71
     2
 72
     2
 73
     1
 90
        2
 40
-0.6
 41
30.0
 62
     5
 63
     7
 74
     1
 91
        0
 64
     7
 65
   257
 75
     1
175
     1
 42
1.0
 92
        0
 66
   257
 43
1.0
 76
     1
 77
     6
 78
     2
 67
     7
 79
     5
170
     0
171
     0
290
     0
174
     0
 93
       13
 44
0.0
173
     0
291
     1
 45
0.0
1001
ACAD
1000
AcDbSavedByObjectVersion
1070
     0
  0
VISUALSTYLE
  5
6B6D
102
{ACAD_XDICTIONARY
360
6F8E
102
}
102
{ACAD_REACTORS
330
6B65
102
}
330
6B65
100
AcDbVisualStyle
  2
Hidden
 70
     6
 71
     1
 72
     2
 73
     2
 90
        0
 40
-0.6
 41
-30.0
 62
     5
 63
     7
 74
     2
 91
        2
 64
     7
 65
   257
 75
     2
175
     1
 42
40.0
 92
        0
 66
   257
 43
1.0
 76
     1
 77
     6
 78
     2
 67
     7
 79
     3
170
     0
171
     0
290
     0
174
     0
 93
        1
 44
0.0
173
     0
291
     0
 45
0.0
1001
ACAD
1000
AcDbSavedByObjectVersion
1070
     0
  0
VISUALSTYLE
  5
6B7B
102
{ACAD_XDICTIONARY
360
6FAA
102
}
102
{ACAD_REACTORS
330
6B65
102
}
330
6B65
100
AcDbVisualStyle
  2
JitterOff
 70
    20
 71
     2
 72
     2
 73
     0
 90
        0
 40
-0.6
 41
-30.0
 62
     5
 63
     7
 74
     1
 91
        4
 64
     7
 65
   257
 75
     1
175
     1
 42
1.0
 92
       10
 66
     7
 43
1.0
 76
     1
 77
     6
 78
     2
 67
     7
 79
     5
170
     0
171
     0
290
     0
174
     0
 93
        1
 44
0.0
173
     0
291
     1
 45
0.0
1001
ACAD
1000
AcDbSavedByObjectVersion
1070
     0
  0
VISUALSTYLE
  5
6B73
102
{ACAD_XDICTIONARY
360
6F9A
102
}
102
{ACAD_REACTORS
330
6B65
102
}
330
6B65
100
AcDbVisualStyle
  2
Linepattern
 70
    14
 71
     2
 72
     2
 73
     0
 90
        0
 40
-0.6
 41
-30.0
 62
     5
 63
     7
 74
     1
 91
        4
 64
     7
 65
   257
 75
     7
175
     7
 42
1.0
 92
        8
 66
     7
 43
1.0
 76
     1
 77
     6
 78
     2
 67
     7
 79
     5
170
     0
171
     0
290
     0
174
     0
 93
        1
 44
0.0
173
     0
291
     1
 45
0.0
1001
ACAD
1000
AcDbSavedByObjectVersion
1070
     0
  0
VISUALSTYLE
  5
6B7C
102
{ACAD_XDICTIONARY
360
6FAC
102
}
102
{ACAD_REACTORS
330
6B65
102
}
330
6B65
100
AcDbVisualStyle
  2
OverhangOff
 70
    21
 71
     2
 72
     2
 73
     0
 90
        0
 40
-0.6
 41
-30.0
 62
     5
 63
     7
 74
     1
 91
        4
 64
     7
 65
   257
 75
     1
175
     1
 42
1.0
 92
        9
 66
     7
 43
1.0
 76
     1
 77
     6
 78
     2
 67
     7
 79
     5
170
     0
171
     0
290
     0
174
     0
 93
        1
 44
0.0
173
     0
291
     1
 45
0.0
1001
ACAD
1000
AcDbSavedByObjectVersion
1070
     0
  0
VISUALSTYLE
  5
6B6F
102
{ACAD_XDICTIONARY
360
6F92
102
}
102
{ACAD_REACTORS
330
6B65
102
}
330
6B65
100
AcDbVisualStyle
  2
Realistic
 70
     8
 71
     2
 72
     2
 73
     0
 90
        2
 40
-0.6
 41
30.0
 62
     5
 63
     7
 74
     0
 91
        0
 64
     7
 65
   257
 75
     1
175
     1
 42
1.0
 92
        8
 66
   257
 43
1.0
 76
     1
 77
     6
 78
     2
 67
     7
 79
     3
170
     0
171
     0
290
     0
174
     0
 93
       13
 44
0.0
173
     0
291
     0
 45
0.0
1001
ACAD
1000
AcDbSavedByObjectVersion
1070
     0
  0
VISUALSTYLE
  5
6B7A
102
{ACAD_XDICTIONARY
360
6FA8
102
}
102
{ACAD_REACTORS
330
6B65
102
}
330
6B65
100
AcDbVisualStyle
  2
Shaded
 70
    27
 71
     2
 72
     2
 73
     1
 90
        2
 40
-0.6
 41
30.0
 62
     5
 63
     7
 74
     0
 91
        4
 64
     7
 65
   257
 75
     1
175
     1
 42
1.0
 92
        8
 66
   257
 43
1.0
 76
     1
 77
     6
 78
     2
 67
     8
 79
     3
170
     0
171
     0
290
     0
174
     0
 93
        5
 44
0.0
173
     0
291
     0
 45
0.0
1001
ACAD
1000
AcDbSavedByObjectVersion
1070
     0
  0
VISUALSTYLE
  5
6B79
102
{ACAD_XDICTIONARY
360
6FA6
102
}
102
{ACAD_REACTORS
330
6B65
102
}
330
6B65
100
AcDbVisualStyle
  2
Shaded with edges
 70
    26
 71
     2
 72
     2
 73
     1
 90
        2
 40
-0.6
 41
30.0
 62
     5
 63
     7
 74
     1
 91
       10
 64
     7
 65
   257
 75
     2
175
     1
 42
1.0
 92
        8
 66
   257
 43
1.0
 76
     1
 77
     6
 78
     2
 67
     7
 79
     3
170
     0
171
     0
290
     0
174
     0
 93
        5
 44
0.0
173
     0
291
     0
 45
0.0
1001
ACAD
1000
AcDbSavedByObjectVersion
1070
     0
  0
VISUALSTYLE
  5
6B76
102
{ACAD_XDICTIONARY
360
6FA0
102
}
102
{ACAD_REACTORS
330
6B65
102
}
330
6B65
100
AcDbVisualStyle
  2
Shades of Gray
 70
    23
 71
     2
 72
     2
 73
     3
 90
        0
 40
-0.6
 41
-30.0
 62
     5
 63
     7
 74
     2
 91
        2
 64
     7
 65
     7
 75
     1
175
     1
 42
40.0
 92
        8
 66
     7
 43
1.0
 76
     1
 77
     6
 78
     2
 67
     7
 79
     3
170
     0
171
     0
290
     0
174
     0
 93
        1
 44
0.0
173
     0
291
     0
 45
0.0
1001
ACAD
1000
AcDbSavedByObjectVersion
1070
     0
  0
VISUALSTYLE
  5
6B77
102
{ACAD_XDICTIONARY
360
6FA2
102
}
102
{ACAD_REACTORS
330
6B65
102
}
330
6B65
100
AcDbVisualStyle
  2
Sketchy
 70
    24
 71
     1
 72
     2
 73
     2
 90
        0
 40
-0.6
 41
-30.0
 62
     5
 63
     7
 74
     2
 91
        2
 64
     7
 65
     7
 75
     1
175
     1
 42
40.0
 92
       11
 66
     7
 43
1.0
 76
     1
 77
     6
 78
     2
 67
     7
 79
     6
170
     0
171
     0
290
     0
174
     0
 93
        1
 44
0.0
173
     0
291
     0
 45
0.0
1001
ACAD
1000
AcDbSavedByObjectVersion
1070
     0
  0
VISUALSTYLE
  5
6B72
102
{ACAD_XDICTIONARY
360
6F98
102
}
102
{ACAD_REACTORS
330
6B65
102
}
330
6B65
100
AcDbVisualStyle
  2
Thicken
 70
    13
 71
     2
 72
     2
 73
     0
 90
        0
 40
-0.6
 41
-30.0
 62
     5
 63
     7
 74
     1
 91
        4
 64
     7
 65
   257
 75
     1
175
     1
 42
1.0
 92
       12
 66
     7
 43
1.0
 76
     1
 77
     6
 78
     2
 67
     7
 79
     5
170
     0
171
     0
290
     0
174
     0
 93
        1
 44
0.0
173
     0
291
     1
 45
0.0
1001
ACAD
1000
AcDbSavedByObjectVersion
1070
     0
  0
VISUALSTYLE
  5
6B6C
102
{ACAD_XDICTIONARY
360
6F8C
102
}
102
{ACAD_REACTORS
330
6B65
102
}
330
6B65
100
AcDbVisualStyle
  2
Wireframe
 70
     5
 71
     0
 72
     2
 73
     0
 90
        0
 40
-0.6
 41
-30.0
 62
     5
 63
     7
 74
     1
 91
        4
 64
     7
 65
   257
 75
     1
175
     1
 42
1.0
 92
        0
 66
   257
 43
1.0
 76
     1
 77
     6
 78
     2
 67
     7
 79
     3
170
     0
171
     0
290
     0
174
     0
 93
        1
 44
0.0
173
     0
291
     0
 45
0.0
1001
ACAD
1000
AcDbSavedByObjectVersion
1070
     0
  0
VISUALSTYLE
  5
6B78
102
{ACAD_XDICTIONARY
360
6FA4
102
}
102
{ACAD_REACTORS
330
6B65
102
}
330
6B65
100
AcDbVisualStyle
  2
X-Ray
 70
    25
 71
     2
 72
     2
 73
     1
 90
        1
 40
0.5
 41
-30.0
 62
     5
 63
     7
 74
     1
 91
        0
 64
     7
 65
   257
 75
     1
175
     1
 42
1.0
 92
        8
 66
     7
 43
1.0
 76
     1
 77
     6
 78
     2
 67
     7
 79
     3
170
     0
171
     0
290
     0
174
     0
 93
       13
 44
0.0
173
     0
291
     0
 45
0.0
1001
ACAD
1000
AcDbSavedByObjectVersion
1070
     0
  0
DICTIONARYVAR
  5
6C10
102
{ACAD_REACTORS
330
3E
102
}
330
3E
100
DictionaryVariables
280
     0
  1
1:1
  0
DICTIONARYVAR
  5
6C0F
102
{ACAD_REACTORS
330
3E
102
}
330
3E
100
DictionaryVariables
280
     0
  1
STANDARD
  0
DICTIONARYVAR
  5
6C0E
102
{ACAD_REACTORS
330
3E
102
}
330
3E
100
DictionaryVariables
280
     0
  1
STANDARD
  0
DICTIONARYVAR
  5
3F
102
{ACAD_REACTORS
330
3E
102
}
330
3E
100
DictionaryVariables
280
     0
  1
0
  0
DICTIONARYVAR
  5
6C13
102
{ACAD_REACTORS
330
3E
102
}
330
3E
100
DictionaryVariables
280
     0
  1
1
  0
DICTIONARYVAR
  5
6C12
102
{ACAD_REACTORS
330
3E
102
}
330
3E
100
DictionaryVariables
280
     0
  1
0
  0
DICTIONARYVAR
  5
6EF6
102
{ACAD_REACTORS
330
3E
102
}
330
3E
100
DictionaryVariables
280
     0
  1
1
  0
DICTIONARYVAR
  5
6EF7
102
{ACAD_REACTORS
330
3E
102
}
330
3E
100
DictionaryVariables
280
     0
  1
15
  0
DICTIONARYVAR
  5
6EF5
102
{ACAD_REACTORS
330
3E
102
}
330
3E
100
DictionaryVariables
280
     0
  1
0
  0
DICTIONARYVAR
  5
6EF4
102
{ACAD_REACTORS
330
3E
102
}
330
3E
100
DictionaryVariables
280
     0
  1
0
  0
DICTIONARYVAR
  5
6C11
102
{ACAD_REACTORS
330
3E
102
}
330
3E
100
DictionaryVariables
280
     0
  1
127
  0
DICTIONARYVAR
  5
6F73
102
{ACAD_REACTORS
330
3E
102
}
330
3E
100
DictionaryVariables
280
     0
  1
2
  0
DICTIONARY
  5
6F7B
330
485F
100
AcDbDictionary
280
     1
281
     1
  3
ACAD_XREC_ROUNDTRIP
360
6F7C
  0
DICTIONARY
  5
6F79
330
485E
100
AcDbDictionary
280
     1
281
     1
  3
ACAD_XREC_ROUNDTRIP
360
6F7A
  0
DICTIONARY
  5
6B56
330
6B55
100
AcDbDictionary
280
     1
281
     1
  3
ACAD_XREC_ROUNDTRIP
360
6F7E
  3
BUMPTILE
360
6B58
  3
DIFFUSETILE
360
6B57
  3
OPACITYTILE
360
6B5B
  3
REFLECTIONTILE
360
6B5A
  3
REFRACTIONTILE
360
6B5C
  3
SPECULARTILE
360
6B59
  0
DICTIONARY
  5
6B4E
330
6B4D
100
AcDbDictionary
280
     1
281
     1
  3
ACAD_XREC_ROUNDTRIP
360
6F7D
  3
BUMPTILE
360
6B50
  3
DIFFUSETILE
360
6B4F
  3
OPACITYTILE
360
6B53
  3
REFLECTIONTILE
360
6B52
  3
REFRACTIONTILE
360
6B54
  3
SPECULARTILE
360
6B51
  0
DICTIONARY
  5
6B5E
330
6B5D
100
AcDbDictionary
280
     1
281
     1
  3
ACAD_XREC_ROUNDTRIP
360
6F7F
  3
BUMPTILE
360
6B60
  3
DIFFUSETILE
360
6B5F
  3
OPACITYTILE
360
6B63
  3
REFLECTIONTILE
360
6B62
  3
REFRACTIONTILE
360
6B64
  3
SPECULARTILE
360
6B61
  0
DICTIONARY
  5
6BCF
330
6B80
100
AcDbDictionary
280
     1
281
     1
  3
ACAD_ROUNDTRIP_2008_TABLESTYLE_CELLSTYLEMAP
360
6F74
  3
ACAD_XREC_ROUNDTRIP
360
6FB0
  0
DICTIONARY
  5
6F8A
330
6B6B
100
AcDbDictionary
280
     1
281
     1
  3
ACAD_XREC_ROUNDTRIP
360
6F8B
  0
DICTIONARY
  5
6F88
330
6B6A
100
AcDbDictionary
280
     1
281
     1
  3
ACAD_XREC_ROUNDTRIP
360
6F89
  0
DICTIONARY
  5
6F96
330
6B71
100
AcDbDictionary
280
     1
281
     1
  3
ACAD_XREC_ROUNDTRIP
360
6F97
  0
DICTIONARY
  5
6F9E
330
6B75
100
AcDbDictionary
280
     1
281
     1
  3
ACAD_XREC_ROUNDTRIP
360
6F9F
  0
DICTIONARY
  5
6F90
330
6B6E
100
AcDbDictionary
280
     1
281
     1
  3
ACAD_XREC_ROUNDTRIP
360
6F91
  0
DICTIONARY
  5
6F94
330
6B70
100
AcDbDictionary
280
     1
281
     1
  3
ACAD_XREC_ROUNDTRIP
360
6F95
  0
DICTIONARY
  5
6FAE
330
6B7D
100
AcDbDictionary
280
     1
281
     1
  3
ACAD_XREC_ROUNDTRIP
360
6FAF
  0
DICTIONARY
  5
6F9C
330
6B74
100
AcDbDictionary
280
     1
281
     1
  3
ACAD_XREC_ROUNDTRIP
360
6F9D
  0
DICTIONARY
  5
6F80
330
6B66
100
AcDbDictionary
280
     1
281
     1
  3
ACAD_XREC_ROUNDTRIP
360
6F81
  0
DICTIONARY
  5
6F82
330
6B67
100
AcDbDictionary
280
     1
281
     1
  3
ACAD_XREC_ROUNDTRIP
360
6F83
  0
DICTIONARY
  5
6F84
330
6B68
100
AcDbDictionary
280
     1
281
     1
  3
ACAD_XREC_ROUNDTRIP
360
6F85
  0
DICTIONARY
  5
6F86
330
6B69
100
AcDbDictionary
280
     1
281
     1
  3
ACAD_XREC_ROUNDTRIP
360
6F87
  0
DICTIONARY
  5
6F8E
330
6B6D
100
AcDbDictionary
280
     1
281
     1
  3
ACAD_XREC_ROUNDTRIP
360
6F8F
  0
DICTIONARY
  5
6FAA
330
6B7B
100
AcDbDictionary
280
     1
281
     1
  3
ACAD_XREC_ROUNDTRIP
360
6FAB
  0
DICTIONARY
  5
6F9A
330
6B73
100
AcDbDictionary
280
     1
281
     1
  3
ACAD_XREC_ROUNDTRIP
360
6F9B
  0
DICTIONARY
  5
6FAC
330
6B7C
100
AcDbDictionary
280
     1
281
     1
  3
ACAD_XREC_ROUNDTRIP
360
6FAD
  0
DICTIONARY
  5
6F92
330
6B6F
100
AcDbDictionary
280
     1
281
     1
  3
ACAD_XREC_ROUNDTRIP
360
6F93
  0
DICTIONARY
  5
6FA8
330
6B7A
100
AcDbDictionary
280
     1
281
     1
  3
ACAD_XREC_ROUNDTRIP
360
6FA9
  0
DICTIONARY
  5
6FA6
330
6B79
100
AcDbDictionary
280
     1
281
     1
  3
ACAD_XREC_ROUNDTRIP
360
6FA7
  0
DICTIONARY
  5
6FA0
330
6B76
100
AcDbDictionary
280
     1
281
     1
  3
ACAD_XREC_ROUNDTRIP
360
6FA1
  0
DICTIONARY
  5
6FA2
330
6B77
100
AcDbDictionary
280
     1
281
     1
  3
ACAD_XREC_ROUNDTRIP
360
6FA3
  0
DICTIONARY
  5
6F98
330
6B72
100
AcDbDictionary
280
     1
281
     1
  3
ACAD_XREC_ROUNDTRIP
360
6F99
  0
DICTIONARY
  5
6F8C
330
6B6C
100
AcDbDictionary
280
     1
281
     1
  3
ACAD_XREC_ROUNDTRIP
360
6F8D
  0
DICTIONARY
  5
6FA4
330
6B78
100
AcDbDictionary
280
     1
281
     1
  3
ACAD_XREC_ROUNDTRIP
360
6FA5
  0
XRECORD
  5
6F7C
102
{ACAD_REACTORS
330
6F7B
102
}
330
6F7B
100
AcDbXrecord
280
     1
102
SHADEPLOT
 70
     0
102
SHADEPLOTRESLEVEL
 70
     2
102
SHADEPLOTCUSTOMDPI
 70
   300
  0
XRECORD
  5
6F7A
102
{ACAD_REACTORS
330
6F79
102
}
330
6F79
100
AcDbXrecord
280
     1
102
SHADEPLOT
 70
     0
102
SHADEPLOTRESLEVEL
 70
     2
102
SHADEPLOTCUSTOMDPI
 70
   300
  0
XRECORD
  5
6F7E
102
{ACAD_REACTORS
330
6B56
102
}
330
6B56
100
AcDbXrecord
280
     1
102
MATERIAL
148
0.0
149
0.0
149
0.0
 93
        0
 94
      127
282
     0
 72
     0
 77
     0
171
     0
175
     0
179
     0
273
     0
  0
XRECORD
  5
6B58
102
{ACAD_REACTORS
330
6B56
102
}
330
6B56
100
AcDbXrecord
280
     1
270
     1
271
     1
  0
XRECORD
  5
6B57
102
{ACAD_REACTORS
330
6B56
102
}
330
6B56
100
AcDbXrecord
280
     1
270
     1
271
     1
  0
XRECORD
  5
6B5B
102
{ACAD_REACTORS
330
6B56
102
}
330
6B56
100
AcDbXrecord
280
     1
270
     1
271
     1
  0
XRECORD
  5
6B5A
102
{ACAD_REACTORS
330
6B56
102
}
330
6B56
100
AcDbXrecord
280
     1
270
     1
271
     1
  0
XRECORD
  5
6B5C
102
{ACAD_REACTORS
330
6B56
102
}
330
6B56
100
AcDbXrecord
280
     1
270
     1
271
     1
  0
XRECORD
  5
6B59
102
{ACAD_REACTORS
330
6B56
102
}
330
6B56
100
AcDbXrecord
280
     1
270
     1
271
     1
  0
XRECORD
  5
6F7D
102
{ACAD_REACTORS
330
6B4E
102
}
330
6B4E
100
AcDbXrecord
280
     1
102
MATERIAL
148
0.0
149
0.0
149
0.0
 93
        0
 94
      127
282
     0
 72
     0
 77
     0
171
     0
175
     0
179
     0
273
     0
  0
XRECORD
  5
6B50
102
{ACAD_REACTORS
330
6B4E
102
}
330
6B4E
100
AcDbXrecord
280
     1
270
     1
271
     1
  0
XRECORD
  5
6B4F
102
{ACAD_REACTORS
330
6B4E
102
}
330
6B4E
100
AcDbXrecord
280
     1
270
     1
271
     1
  0
XRECORD
  5
6B53
102
{ACAD_REACTORS
330
6B4E
102
}
330
6B4E
100
AcDbXrecord
280
     1
270
     1
271
     1
  0
XRECORD
  5
6B52
102
{ACAD_REACTORS
330
6B4E
102
}
330
6B4E
100
AcDbXrecord
280
     1
270
     1
271
     1
  0
XRECORD
  5
6B54
102
{ACAD_REACTORS
330
6B4E
102
}
330
6B4E
100
AcDbXrecord
280
     1
270
     1
271
     1
  0
XRECORD
  5
6B51
102
{ACAD_REACTORS
330
6B4E
102
}
330
6B4E
100
AcDbXrecord
280
     1
270
     1
271
     1
  0
XRECORD
  5
6F7F
102
{ACAD_REACTORS
330
6B5E
102
}
330
6B5E
100
AcDbXrecord
280
     1
102
MATERIAL
148
0.0
149
0.0
149
0.0
 93
        0
 94
      127
282
     0
 72
     0
 77
     0
171
     0
175
     0
179
     0
273
     0
  0
XRECORD
  5
6B60
102
{ACAD_REACTORS
330
6B5E
102
}
330
6B5E
100
AcDbXrecord
280
     1
270
     1
271
     1
  0
XRECORD
  5
6B5F
102
{ACAD_REACTORS
330
6B5E
102
}
330
6B5E
100
AcDbXrecord
280
     1
270
     1
271
     1
  0
XRECORD
  5
6B63
102
{ACAD_REACTORS
330
6B5E
102
}
330
6B5E
100
AcDbXrecord
280
     1
270
     1
271
     1
  0
XRECORD
  5
6B62
102
{ACAD_REACTORS
330
6B5E
102
}
330
6B5E
100
AcDbXrecord
280
     1
270
     1
271
     1
  0
XRECORD
  5
6B64
102
{ACAD_REACTORS
330
6B5E
102
}
330
6B5E
100
AcDbXrecord
280
     1
270
     1
271
     1
  0
XRECORD
  5
6B61
102
{ACAD_REACTORS
330
6B5E
102
}
330
6B5E
100
AcDbXrecord
280
     1
270
     1
271
     1
  0
CELLSTYLEMAP
  5
6F74
102
{ACAD_REACTORS
330
6BCF
102
}
330
6BCF
100
AcDbCellStyleMap
 90
        3
300
CELLSTYLE
  1
TABLEFORMAT_BEGIN
 90
        5
170
     1
 91
        0
 92
    32768
 62
   257
 93
        1
300
CONTENTFORMAT
  1
CONTENTFORMAT_BEGIN
 90
        0
 91
        0
 92
      512
 93
        0
300

 40
0.0
140
1.0
 94
        5
 62
     0
340
F
144
0.25
309
CONTENTFORMAT_END
171
     0
 94
        0
309
TABLEFORMAT_END
  1
CELLSTYLE_BEGIN
 90
        1
 91
        1
300
_TITLE
309
CELLSTYLE_END
300
CELLSTYLE
  1
TABLEFORMAT_BEGIN
 90
        5
170
     1
 91
        0
 92
        0
 62
   257
 93
        1
300
CONTENTFORMAT
  1
CONTENTFORMAT_BEGIN
 90
        0
 91
        0
 92
      512
 93
        0
300

 40
0.0
140
1.0
 94
        5
 62
     0
340
F
144
0.18
309
CONTENTFORMAT_END
171
     0
 94
        0
309
TABLEFORMAT_END
  1
CELLSTYLE_BEGIN
 90
        2
 91
        1
300
_HEADER
309
CELLSTYLE_END
300
CELLSTYLE
  1
TABLEFORMAT_BEGIN
 90
        5
170
     1
 91
        0
 92
        0
 62
   257
 93
        1
300
CONTENTFORMAT
  1
CONTENTFORMAT_BEGIN
 90
        0
 91
        0
 92
      512
 93
        0
300

 40
0.0
140
1.0
 94
        2
 62
     0
340
F
144
0.18
309
CONTENTFORMAT_END
171
     0
 94
        0
309
TABLEFORMAT_END
  1
CELLSTYLE_BEGIN
 90
        3
 91
        2
300
_DATA
309
CELLSTYLE_END
  0
XRECORD
  5
6FB0
102
{ACAD_REACTORS
330
6BCF
102
}
330
6BCF
100
AcDbXrecord
280
     1
102
ACAD_ROUNDTRIP_PRE2007_TABLESTYLE
 90
      512
 91
        0
  1

 92
      512
 93
        0
  2

 94
      512
 95
        0
  3

  0
XRECORD
  5
6F8B
102
{ACAD_REACTORS
330
6F8A
102
}
330
6F8A
100
AcDbXrecord
280
     1
102
RTVSPropertyOp0
 70
     1
102
RTVSPropertyOp1
 70
     1
102
RTVSPropertyOp2
 70
     1
102
RTVSPropertyOp3
 70
     1
102
RTVSPropertyOp4
 70
     1
102
RTVSPropertyOp5
 70
     1
102
RTVSPropertyOp6
 70
     1
102
RTVSPropertyOp7
 70
     1
102
RTVSPropertyOp8
 70
     1
102
RTVSPropertyOp9
 70
     1
102
RTVSPropertyOp10
 70
     1
102
RTVSPropertyOp11
 70
     1
102
RTVSPropertyOp12
 70
     1
102
RTVSPropertyOp13
 70
     1
102
RTVSPropertyOp14
 70
     1
102
RTVSPropertyOp15
 70
     1
102
RTVSPropertyOp16
 70
     1
102
RTVSPropertyOp17
 70
     1
102
RTVSPropertyOp18
 70
     1
102
RTVSPropertyOp19
 70
     1
102
RTVSPropertyOp20
 70
     1
102
RTVSPropertyOp21
 70
     1
102
RTVSPropertyOp22
 70
     1
102
RTVSPropertyOp23
 70
     1
102
RTVSPropertyOp24
 70
     1
102
RTVSPropertyOp25
 70
     1
102
RTVSPropertyOp26
 70
     1
102
RTVSPropertyOp27
 70
     1
102
RTVSPropertyOp28
 70
     1
102
RTVSPropertyOp29
 70
     1
102
RTVSPropertyOp30
 70
     1
102
RTVSPropertyOp31
 70
     1
102
RTVSPropertyOp32
 70
     1
  0
XRECORD
  5
6F89
102
{ACAD_REACTORS
330
6F88
102
}
330
6F88
100
AcDbXrecord
280
     1
102
RTVSPropertyOp0
 70
     1
102
RTVSPropertyOp1
 70
     1
102
RTVSPropertyOp2
 70
     1
102
RTVSPropertyOp3
 70
     1
102
RTVSPropertyOp4
 70
     1
102
RTVSPropertyOp5
 70
     1
102
RTVSPropertyOp6
 70
     1
102
RTVSPropertyOp7
 70
     1
102
RTVSPropertyOp8
 70
     1
102
RTVSPropertyOp9
 70
     1
102
RTVSPropertyOp10
 70
     1
102
RTVSPropertyOp11
 70
     1
102
RTVSPropertyOp12
 70
     1
102
RTVSPropertyOp13
 70
     1
102
RTVSPropertyOp14
 70
     1
102
RTVSPropertyOp15
 70
     1
102
RTVSPropertyOp16
 70
     1
102
RTVSPropertyOp17
 70
     1
102
RTVSPropertyOp18
 70
     1
102
RTVSPropertyOp19
 70
     1
102
RTVSPropertyOp20
 70
     1
102
RTVSPropertyOp21
 70
     1
102
RTVSPropertyOp22
 70
     1
102
RTVSPropertyOp23
 70
     1
102
RTVSPropertyOp24
 70
     1
102
RTVSPropertyOp25
 70
     1
102
RTVSPropertyOp26
 70
     1
102
RTVSPropertyOp27
 70
     1
102
RTVSPropertyOp28
 70
     1
102
RTVSPropertyOp29
 70
     1
102
RTVSPropertyOp30
 70
     1
102
RTVSPropertyOp31
 70
     1
102
RTVSPropertyOp32
 70
     1
  0
XRECORD
  5
6F97
102
{ACAD_REACTORS
330
6F96
102
}
330
6F96
100
AcDbXrecord
280
     1
102
RTVSPropertyOp0
 70
     1
102
RTVSPropertyOp1
 70
     1
102
RTVSPropertyOp2
 70
     1
102
RTVSPropertyOp3
 70
     1
102
RTVSPropertyOp4
 70
     1
102
RTVSPropertyOp5
 70
     1
102
RTVSPropertyOp6
 70
     1
102
RTVSPropertyOp7
 70
     1
102
RTVSPropertyOp8
 70
     1
102
RTVSPropertyOp9
 70
     1
102
RTVSPropertyOp10
 70
     1
102
RTVSPropertyOp11
 70
     1
102
RTVSPropertyOp12
 70
     1
102
RTVSPropertyOp13
 70
     1
102
RTVSPropertyOp14
 70
     1
102
RTVSPropertyOp15
 70
     1
102
RTVSPropertyOp16
 70
     1
102
RTVSPropertyOp17
 70
     1
102
RTVSPropertyOp18
 70
     1
102
RTVSPropertyOp19
 70
     1
102
RTVSPropertyOp20
 70
     1
102
RTVSPropertyOp21
 70
     1
102
RTVSPropertyOp22
 70
     1
102
RTVSPropertyOp23
 70
     1
102
RTVSPropertyOp24
 70
     1
102
RTVSPropertyOp25
 70
     1
102
RTVSPropertyOp26
 70
     1
102
RTVSPropertyOp27
 70
     1
102
RTVSPropertyOp28
 70
     1
102
RTVSPropertyOp29
 70
     1
102
RTVSPropertyOp30
 70
     1
102
RTVSPropertyOp31
 70
     1
102
RTVSPropertyOp32
 70
     1
  0
XRECORD
  5
6F9F
102
{ACAD_REACTORS
330
6F9E
102
}
330
6F9E
100
AcDbXrecord
280
     1
102
RTVSPropertyOp0
 70
     1
102
RTVSPropertyOp1
 70
     1
102
RTVSPropertyOp2
 70
     1
102
RTVSPropertyOp3
 70
     1
102
RTVSPropertyOp4
 70
     1
102
RTVSPropertyOp5
 70
     1
102
RTVSPropertyOp6
 70
     1
102
RTVSPropertyOp7
 70
     1
102
RTVSPropertyOp8
 70
     1
102
RTVSPropertyOp9
 70
     1
102
RTVSPropertyOp10
 70
     1
102
RTVSPropertyOp11
 70
     1
102
RTVSPropertyOp12
 70
     1
102
RTVSPropertyOp13
 70
     1
102
RTVSPropertyOp14
 70
     1
102
RTVSPropertyOp15
 70
     1
102
RTVSPropertyOp16
 70
     1
102
RTVSPropertyOp17
 70
     1
102
RTVSPropertyOp18
 70
     1
102
RTVSPropertyOp19
 70
     1
102
RTVSPropertyOp20
 70
     1
102
RTVSPropertyOp21
 70
     1
102
RTVSPropertyOp22
 70
     1
102
RTVSPropertyOp23
 70
     1
102
RTVSPropertyOp24
 70
     1
102
RTVSPropertyOp25
 70
     1
102
RTVSPropertyOp26
 70
     1
102
RTVSPropertyOp27
 70
     1
102
RTVSPropertyOp28
 70
     1
102
RTVSPropertyOp29
 70
     1
102
RTVSPropertyOp30
 70
     1
102
RTVSPropertyOp31
 70
     1
102
RTVSPropertyOp32
 70
     1
  0
XRECORD
  5
6F91
102
{ACAD_REACTORS
330
6F90
102
}
330
6F90
100
AcDbXrecord
280
     1
102
RTVSPropertyOp0
 70
     1
102
RTVSPropertyOp1
 70
     1
102
RTVSPropertyOp2
 70
     1
102
RTVSPropertyOp3
 70
     1
102
RTVSPropertyOp4
 70
     1
102
RTVSPropertyOp5
 70
     1
102
RTVSPropertyOp6
 70
     1
102
RTVSPropertyOp7
 70
     1
102
RTVSPropertyOp8
 70
     1
102
RTVSPropertyOp9
 70
     1
102
RTVSPropertyOp10
 70
     1
102
RTVSPropertyOp11
 70
     1
102
RTVSPropertyOp12
 70
     1
102
RTVSPropertyOp13
 70
     1
102
RTVSPropertyOp14
 70
     1
102
RTVSPropertyOp15
 70
     1
102
RTVSPropertyOp16
 70
     1
102
RTVSPropertyOp17
 70
     1
102
RTVSPropertyOp18
 70
     1
102
RTVSPropertyOp19
 70
     1
102
RTVSPropertyOp20
 70
     1
102
RTVSPropertyOp21
 70
     1
102
RTVSPropertyOp22
 70
     1
102
RTVSPropertyOp23
 70
     1
102
RTVSPropertyOp24
 70
     1
102
RTVSPropertyOp25
 70
     1
102
RTVSPropertyOp26
 70
     1
102
RTVSPropertyOp27
 70
     1
102
RTVSPropertyOp28
 70
     1
102
RTVSPropertyOp29
 70
     1
102
RTVSPropertyOp30
 70
     1
102
RTVSPropertyOp31
 70
     1
102
RTVSPropertyOp32
 70
     1
  0
XRECORD
  5
6F95
102
{ACAD_REACTORS
330
6F94
102
}
330
6F94
100
AcDbXrecord
280
     1
102
RTVSPropertyOp0
 70
     1
102
RTVSPropertyOp1
 70
     1
102
RTVSPropertyOp2
 70
     1
102
RTVSPropertyOp3
 70
     1
102
RTVSPropertyOp4
 70
     1
102
RTVSPropertyOp5
 70
     1
102
RTVSPropertyOp6
 70
     1
102
RTVSPropertyOp7
 70
     1
102
RTVSPropertyOp8
 70
     1
102
RTVSPropertyOp9
 70
     1
102
RTVSPropertyOp10
 70
     1
102
RTVSPropertyOp11
 70
     1
102
RTVSPropertyOp12
 70
     1
102
RTVSPropertyOp13
 70
     1
102
RTVSPropertyOp14
 70
     1
102
RTVSPropertyOp15
 70
     1
102
RTVSPropertyOp16
 70
     1
102
RTVSPropertyOp17
 70
     1
102
RTVSPropertyOp18
 70
     1
102
RTVSPropertyOp19
 70
     1
102
RTVSPropertyOp20
 70
     1
102
RTVSPropertyOp21
 70
     1
102
RTVSPropertyOp22
 70
     1
102
RTVSPropertyOp23
 70
     1
102
RTVSPropertyOp24
 70
     1
102
RTVSPropertyOp25
 70
     1
102
RTVSPropertyOp26
 70
     1
102
RTVSPropertyOp27
 70
     1
102
RTVSPropertyOp28
 70
     1
102
RTVSPropertyOp29
 70
     1
102
RTVSPropertyOp30
 70
     1
102
RTVSPropertyOp31
 70
     1
102
RTVSPropertyOp32
 70
     1
  0
XRECORD
  5
6FAF
102
{ACAD_REACTORS
330
6FAE
102
}
330
6FAE
100
AcDbXrecord
280
     1
102
RTVSPropertyOp0
 70
     0
102
RTVSPropertyOp1
 70
     0
102
RTVSPropertyOp2
 70
     0
102
RTVSPropertyOp3
 70
     0
102
RTVSPropertyOp4
 70
     0
102
RTVSPropertyOp5
 70
     0
102
RTVSPropertyOp6
 70
     0
102
RTVSPropertyOp7
 70
     0
102
RTVSPropertyOp8
 70
     0
102
RTVSPropertyOp9
 70
     0
102
RTVSPropertyOp10
 70
     0
102
RTVSPropertyOp11
 70
     0
102
RTVSPropertyOp12
 70
     0
102
RTVSPropertyOp13
 70
     0
102
RTVSPropertyOp14
 70
     2
102
RTVSPropertyOp15
 70
     0
102
RTVSPropertyOp16
 70
     0
102
RTVSPropertyOp17
 70
     0
102
RTVSPropertyOp18
 70
     0
102
RTVSPropertyOp19
 70
     0
102
RTVSPropertyOp20
 70
     0
102
RTVSPropertyOp21
 70
     0
102
RTVSPropertyOp22
 70
     0
102
RTVSPropertyOp23
 70
     0
102
RTVSPropertyOp24
 70
     0
102
RTVSPropertyOp25
 70
     0
102
RTVSPropertyOp26
 70
     0
102
RTVSPropertyOp27
 70
     0
102
RTVSPropertyOp28
 70
     1
102
RTVSPropertyOp29
 70
     1
102
RTVSPropertyOp30
 70
     1
102
RTVSPropertyOp31
 70
     1
102
RTVSPropertyOp32
 70
     1
  0
XRECORD
  5
6F9D
102
{ACAD_REACTORS
330
6F9C
102
}
330
6F9C
100
AcDbXrecord
280
     1
102
RTVSPropertyOp0
 70
     1
102
RTVSPropertyOp1
 70
     1
102
RTVSPropertyOp2
 70
     1
102
RTVSPropertyOp3
 70
     1
102
RTVSPropertyOp4
 70
     1
102
RTVSPropertyOp5
 70
     1
102
RTVSPropertyOp6
 70
     1
102
RTVSPropertyOp7
 70
     1
102
RTVSPropertyOp8
 70
     1
102
RTVSPropertyOp9
 70
     1
102
RTVSPropertyOp10
 70
     1
102
RTVSPropertyOp11
 70
     1
102
RTVSPropertyOp12
 70
     1
102
RTVSPropertyOp13
 70
     1
102
RTVSPropertyOp14
 70
     1
102
RTVSPropertyOp15
 70
     1
102
RTVSPropertyOp16
 70
     1
102
RTVSPropertyOp17
 70
     1
102
RTVSPropertyOp18
 70
     1
102
RTVSPropertyOp19
 70
     1
102
RTVSPropertyOp20
 70
     1
102
RTVSPropertyOp21
 70
     1
102
RTVSPropertyOp22
 70
     1
102
RTVSPropertyOp23
 70
     1
102
RTVSPropertyOp24
 70
     1
102
RTVSPropertyOp25
 70
     1
102
RTVSPropertyOp26
 70
     1
102
RTVSPropertyOp27
 70
     1
102
RTVSPropertyOp28
 70
     1
102
RTVSPropertyOp29
 70
     1
102
RTVSPropertyOp30
 70
     1
102
RTVSPropertyOp31
 70
     1
102
RTVSPropertyOp32
 70
     1
  0
XRECORD
  5
6F81
102
{ACAD_REACTORS
330
6F80
102
}
330
6F80
100
AcDbXrecord
280
     1
102
RTVSPropertyOp0
 70
     1
102
RTVSPropertyOp1
 70
     1
102
RTVSPropertyOp2
 70
     1
102
RTVSPropertyOp3
 70
     1
102
RTVSPropertyOp4
 70
     1
102
RTVSPropertyOp5
 70
     1
102
RTVSPropertyOp6
 70
     1
102
RTVSPropertyOp7
 70
     1
102
RTVSPropertyOp8
 70
     1
102
RTVSPropertyOp9
 70
     1
102
RTVSPropertyOp10
 70
     1
102
RTVSPropertyOp11
 70
     1
102
RTVSPropertyOp12
 70
     1
102
RTVSPropertyOp13
 70
     1
102
RTVSPropertyOp14
 70
     1
102
RTVSPropertyOp15
 70
     1
102
RTVSPropertyOp16
 70
     1
102
RTVSPropertyOp17
 70
     1
102
RTVSPropertyOp18
 70
     1
102
RTVSPropertyOp19
 70
     1
102
RTVSPropertyOp20
 70
     1
102
RTVSPropertyOp21
 70
     1
102
RTVSPropertyOp22
 70
     1
102
RTVSPropertyOp23
 70
     1
102
RTVSPropertyOp24
 70
     1
102
RTVSPropertyOp25
 70
     1
102
RTVSPropertyOp26
 70
     1
102
RTVSPropertyOp27
 70
     1
102
RTVSPropertyOp28
 70
     1
102
RTVSPropertyOp29
 70
     1
102
RTVSPropertyOp30
 70
     1
102
RTVSPropertyOp31
 70
     1
102
RTVSPropertyOp32
 70
     1
  0
XRECORD
  5
6F83
102
{ACAD_REACTORS
330
6F82
102
}
330
6F82
100
AcDbXrecord
280
     1
102
RTVSPropertyOp0
 70
     1
102
RTVSPropertyOp1
 70
     1
102
RTVSPropertyOp2
 70
     1
102
RTVSPropertyOp3
 70
     1
102
RTVSPropertyOp4
 70
     1
102
RTVSPropertyOp5
 70
     1
102
RTVSPropertyOp6
 70
     1
102
RTVSPropertyOp7
 70
     1
102
RTVSPropertyOp8
 70
     1
102
RTVSPropertyOp9
 70
     1
102
RTVSPropertyOp10
 70
     1
102
RTVSPropertyOp11
 70
     1
102
RTVSPropertyOp12
 70
     1
102
RTVSPropertyOp13
 70
     1
102
RTVSPropertyOp14
 70
     1
102
RTVSPropertyOp15
 70
     1
102
RTVSPropertyOp16
 70
     1
102
RTVSPropertyOp17
 70
     1
102
RTVSPropertyOp18
 70
     1
102
RTVSPropertyOp19
 70
     1
102
RTVSPropertyOp20
 70
     1
102
RTVSPropertyOp21
 70
     1
102
RTVSPropertyOp22
 70
     1
102
RTVSPropertyOp23
 70
     1
102
RTVSPropertyOp24
 70
     1
102
RTVSPropertyOp25
 70
     1
102
RTVSPropertyOp26
 70
     1
102
RTVSPropertyOp27
 70
     1
102
RTVSPropertyOp28
 70
     1
102
RTVSPropertyOp29
 70
     1
102
RTVSPropertyOp30
 70
     1
102
RTVSPropertyOp31
 70
     1
102
RTVSPropertyOp32
 70
     1
  0
XRECORD
  5
6F85
102
{ACAD_REACTORS
330
6F84
102
}
330
6F84
100
AcDbXrecord
280
     1
102
RTVSPropertyOp0
 70
     1
102
RTVSPropertyOp1
 70
     1
102
RTVSPropertyOp2
 70
     1
102
RTVSPropertyOp3
 70
     1
102
RTVSPropertyOp4
 70
     1
102
RTVSPropertyOp5
 70
     1
102
RTVSPropertyOp6
 70
     1
102
RTVSPropertyOp7
 70
     1
102
RTVSPropertyOp8
 70
     1
102
RTVSPropertyOp9
 70
     1
102
RTVSPropertyOp10
 70
     1
102
RTVSPropertyOp11
 70
     1
102
RTVSPropertyOp12
 70
     1
102
RTVSPropertyOp13
 70
     1
102
RTVSPropertyOp14
 70
     1
102
RTVSPropertyOp15
 70
     1
102
RTVSPropertyOp16
 70
     1
102
RTVSPropertyOp17
 70
     1
102
RTVSPropertyOp18
 70
     1
102
RTVSPropertyOp19
 70
     1
102
RTVSPropertyOp20
 70
     1
102
RTVSPropertyOp21
 70
     1
102
RTVSPropertyOp22
 70
     1
102
RTVSPropertyOp23
 70
     1
102
RTVSPropertyOp24
 70
     1
102
RTVSPropertyOp25
 70
     1
102
RTVSPropertyOp26
 70
     1
102
RTVSPropertyOp27
 70
     1
102
RTVSPropertyOp28
 70
     1
102
RTVSPropertyOp29
 70
     1
102
RTVSPropertyOp30
 70
     1
102
RTVSPropertyOp31
 70
     1
102
RTVSPropertyOp32
 70
     1
  0
XRECORD
  5
6F87
102
{ACAD_REACTORS
330
6F86
102
}
330
6F86
100
AcDbXrecord
280
     1
102
RTVSPropertyOp0
 70
     1
102
RTVSPropertyOp1
 70
     1
102
RTVSPropertyOp2
 70
     1
102
RTVSPropertyOp3
 70
     1
102
RTVSPropertyOp4
 70
     1
102
RTVSPropertyOp5
 70
     1
102
RTVSPropertyOp6
 70
     1
102
RTVSPropertyOp7
 70
     1
102
RTVSPropertyOp8
 70
     1
102
RTVSPropertyOp9
 70
     1
102
RTVSPropertyOp10
 70
     1
102
RTVSPropertyOp11
 70
     1
102
RTVSPropertyOp12
 70
     1
102
RTVSPropertyOp13
 70
     1
102
RTVSPropertyOp14
 70
     1
102
RTVSPropertyOp15
 70
     1
102
RTVSPropertyOp16
 70
     1
102
RTVSPropertyOp17
 70
     1
102
RTVSPropertyOp18
 70
     1
102
RTVSPropertyOp19
 70
     1
102
RTVSPropertyOp20
 70
     1
102
RTVSPropertyOp21
 70
     1
102
RTVSPropertyOp22
 70
     1
102
RTVSPropertyOp23
 70
     1
102
RTVSPropertyOp24
 70
     1
102
RTVSPropertyOp25
 70
     1
102
RTVSPropertyOp26
 70
     1
102
RTVSPropertyOp27
 70
     1
102
RTVSPropertyOp28
 70
     1
102
RTVSPropertyOp29
 70
     1
102
RTVSPropertyOp30
 70
     1
102
RTVSPropertyOp31
 70
     1
102
RTVSPropertyOp32
 70
     1
  0
XRECORD
  5
6F8F
102
{ACAD_REACTORS
330
6F8E
102
}
330
6F8E
100
AcDbXrecord
280
     1
102
RTVSPropertyOp0
 70
     1
102
RTVSPropertyOp1
 70
     1
102
RTVSPropertyOp2
 70
     1
102
RTVSPropertyOp3
 70
     1
102
RTVSPropertyOp4
 70
     1
102
RTVSPropertyOp5
 70
     1
102
RTVSPropertyOp6
 70
     1
102
RTVSPropertyOp7
 70
     1
102
RTVSPropertyOp8
 70
     1
102
RTVSPropertyOp9
 70
     1
102
RTVSPropertyOp10
 70
     1
102
RTVSPropertyOp11
 70
     1
102
RTVSPropertyOp12
 70
     1
102
RTVSPropertyOp13
 70
     1
102
RTVSPropertyOp14
 70
     1
102
RTVSPropertyOp15
 70
     1
102
RTVSPropertyOp16
 70
     1
102
RTVSPropertyOp17
 70
     1
102
RTVSPropertyOp18
 70
     1
102
RTVSPropertyOp19
 70
     1
102
RTVSPropertyOp20
 70
     1
102
RTVSPropertyOp21
 70
     1
102
RTVSPropertyOp22
 70
     1
102
RTVSPropertyOp23
 70
     1
102
RTVSPropertyOp24
 70
     1
102
RTVSPropertyOp25
 70
     1
102
RTVSPropertyOp26
 70
     1
102
RTVSPropertyOp27
 70
     1
102
RTVSPropertyOp28
 70
     1
102
RTVSPropertyOp29
 70
     1
102
RTVSPropertyOp30
 70
     1
102
RTVSPropertyOp31
 70
     1
102
RTVSPropertyOp32
 70
     1
  0
XRECORD
  5
6FAB
102
{ACAD_REACTORS
330
6FAA
102
}
330
6FAA
100
AcDbXrecord
280
     1
102
RTVSPropertyOp0
 70
     0
102
RTVSPropertyOp1
 70
     0
102
RTVSPropertyOp2
 70
     0
102
RTVSPropertyOp3
 70
     0
102
RTVSPropertyOp4
 70
     0
102
RTVSPropertyOp5
 70
     0
102
RTVSPropertyOp6
 70
     0
102
RTVSPropertyOp7
 70
     0
102
RTVSPropertyOp8
 70
     0
102
RTVSPropertyOp9
 70
     0
102
RTVSPropertyOp10
 70
     0
102
RTVSPropertyOp11
 70
     0
102
RTVSPropertyOp12
 70
     0
102
RTVSPropertyOp13
 70
     0
102
RTVSPropertyOp14
 70
     2
102
RTVSPropertyOp15
 70
     0
102
RTVSPropertyOp16
 70
     0
102
RTVSPropertyOp17
 70
     0
102
RTVSPropertyOp18
 70
     0
102
RTVSPropertyOp19
 70
     0
102
RTVSPropertyOp20
 70
     0
102
RTVSPropertyOp21
 70
     0
102
RTVSPropertyOp22
 70
     0
102
RTVSPropertyOp23
 70
     0
102
RTVSPropertyOp24
 70
     0
102
RTVSPropertyOp25
 70
     0
102
RTVSPropertyOp26
 70
     0
102
RTVSPropertyOp27
 70
     0
102
RTVSPropertyOp28
 70
     1
102
RTVSPropertyOp29
 70
     1
102
RTVSPropertyOp30
 70
     1
102
RTVSPropertyOp31
 70
     1
102
RTVSPropertyOp32
 70
     1
  0
XRECORD
  5
6F9B
102
{ACAD_REACTORS
330
6F9A
102
}
330
6F9A
100
AcDbXrecord
280
     1
102
RTVSPropertyOp0
 70
     1
102
RTVSPropertyOp1
 70
     1
102
RTVSPropertyOp2
 70
     1
102
RTVSPropertyOp3
 70
     1
102
RTVSPropertyOp4
 70
     1
102
RTVSPropertyOp5
 70
     1
102
RTVSPropertyOp6
 70
     1
102
RTVSPropertyOp7
 70
     1
102
RTVSPropertyOp8
 70
     1
102
RTVSPropertyOp9
 70
     1
102
RTVSPropertyOp10
 70
     1
102
RTVSPropertyOp11
 70
     1
102
RTVSPropertyOp12
 70
     1
102
RTVSPropertyOp13
 70
     1
102
RTVSPropertyOp14
 70
     1
102
RTVSPropertyOp15
 70
     1
102
RTVSPropertyOp16
 70
     1
102
RTVSPropertyOp17
 70
     1
102
RTVSPropertyOp18
 70
     1
102
RTVSPropertyOp19
 70
     1
102
RTVSPropertyOp20
 70
     1
102
RTVSPropertyOp21
 70
     1
102
RTVSPropertyOp22
 70
     1
102
RTVSPropertyOp23
 70
     1
102
RTVSPropertyOp24
 70
     1
102
RTVSPropertyOp25
 70
     1
102
RTVSPropertyOp26
 70
     1
102
RTVSPropertyOp27
 70
     1
102
RTVSPropertyOp28
 70
     1
102
RTVSPropertyOp29
 70
     1
102
RTVSPropertyOp30
 70
     1
102
RTVSPropertyOp31
 70
     1
102
RTVSPropertyOp32
 70
     1
  0
XRECORD
  5
6FAD
102
{ACAD_REACTORS
330
6FAC
102
}
330
6FAC
100
AcDbXrecord
280
     1
102
RTVSPropertyOp0
 70
     0
102
RTVSPropertyOp1
 70
     0
102
RTVSPropertyOp2
 70
     0
102
RTVSPropertyOp3
 70
     0
102
RTVSPropertyOp4
 70
     0
102
RTVSPropertyOp5
 70
     0
102
RTVSPropertyOp6
 70
     0
102
RTVSPropertyOp7
 70
     0
102
RTVSPropertyOp8
 70
     0
102
RTVSPropertyOp9
 70
     0
102
RTVSPropertyOp10
 70
     0
102
RTVSPropertyOp11
 70
     0
102
RTVSPropertyOp12
 70
     0
102
RTVSPropertyOp13
 70
     0
102
RTVSPropertyOp14
 70
     2
102
RTVSPropertyOp15
 70
     0
102
RTVSPropertyOp16
 70
     0
102
RTVSPropertyOp17
 70
     0
102
RTVSPropertyOp18
 70
     0
102
RTVSPropertyOp19
 70
     0
102
RTVSPropertyOp20
 70
     0
102
RTVSPropertyOp21
 70
     0
102
RTVSPropertyOp22
 70
     0
102
RTVSPropertyOp23
 70
     0
102
RTVSPropertyOp24
 70
     0
102
RTVSPropertyOp25
 70
     0
102
RTVSPropertyOp26
 70
     0
102
RTVSPropertyOp27
 70
     0
102
RTVSPropertyOp28
 70
     1
102
RTVSPropertyOp29
 70
     1
102
RTVSPropertyOp30
 70
     1
102
RTVSPropertyOp31
 70
     1
102
RTVSPropertyOp32
 70
     1
  0
XRECORD
  5
6F93
102
{ACAD_REACTORS
330
6F92
102
}
330
6F92
100
AcDbXrecord
280
     1
102
RTVSPropertyOp0
 70
     1
102
RTVSPropertyOp1
 70
     1
102
RTVSPropertyOp2
 70
     1
102
RTVSPropertyOp3
 70
     1
102
RTVSPropertyOp4
 70
     1
102
RTVSPropertyOp5
 70
     1
102
RTVSPropertyOp6
 70
     1
102
RTVSPropertyOp7
 70
     1
102
RTVSPropertyOp8
 70
     1
102
RTVSPropertyOp9
 70
     1
102
RTVSPropertyOp10
 70
     1
102
RTVSPropertyOp11
 70
     1
102
RTVSPropertyOp12
 70
     1
102
RTVSPropertyOp13
 70
     1
102
RTVSPropertyOp14
 70
     1
102
RTVSPropertyOp15
 70
     1
102
RTVSPropertyOp16
 70
     1
102
RTVSPropertyOp17
 70
     1
102
RTVSPropertyOp18
 70
     1
102
RTVSPropertyOp19
 70
     1
102
RTVSPropertyOp20
 70
     1
102
RTVSPropertyOp21
 70
     1
102
RTVSPropertyOp22
 70
     1
102
RTVSPropertyOp23
 70
     1
102
RTVSPropertyOp24
 70
     1
102
RTVSPropertyOp25
 70
     1
102
RTVSPropertyOp26
 70
     1
102
RTVSPropertyOp27
 70
     1
102
RTVSPropertyOp28
 70
     1
102
RTVSPropertyOp29
 70
     1
102
RTVSPropertyOp30
 70
     1
102
RTVSPropertyOp31
 70
     1
102
RTVSPropertyOp32
 70
     1
  0
XRECORD
  5
6FA9
102
{ACAD_REACTORS
330
6FA8
102
}
330
6FA8
100
AcDbXrecord
280
     1
102
RTVSPropertyOp0
 70
     1
102
RTVSPropertyOp1
 70
     1
102
RTVSPropertyOp2
 70
     1
102
RTVSPropertyOp3
 70
     1
102
RTVSPropertyOp4
 70
     1
102
RTVSPropertyOp5
 70
     1
102
RTVSPropertyOp6
 70
     1
102
RTVSPropertyOp7
 70
     1
102
RTVSPropertyOp8
 70
     1
102
RTVSPropertyOp9
 70
     1
102
RTVSPropertyOp10
 70
     1
102
RTVSPropertyOp11
 70
     1
102
RTVSPropertyOp12
 70
     1
102
RTVSPropertyOp13
 70
     1
102
RTVSPropertyOp14
 70
     1
102
RTVSPropertyOp15
 70
     1
102
RTVSPropertyOp16
 70
     1
102
RTVSPropertyOp17
 70
     1
102
RTVSPropertyOp18
 70
     1
102
RTVSPropertyOp19
 70
     1
102
RTVSPropertyOp20
 70
     1
102
RTVSPropertyOp21
 70
     1
102
RTVSPropertyOp22
 70
     1
102
RTVSPropertyOp23
 70
     1
102
RTVSPropertyOp24
 70
     1
102
RTVSPropertyOp25
 70
     1
102
RTVSPropertyOp26
 70
     1
102
RTVSPropertyOp27
 70
     1
102
RTVSPropertyOp28
 70
     1
102
RTVSPropertyOp29
 70
     1
102
RTVSPropertyOp30
 70
     1
102
RTVSPropertyOp31
 70
     1
102
RTVSPropertyOp32
 70
     1
  0
XRECORD
  5
6FA7
102
{ACAD_REACTORS
330
6FA6
102
}
330
6FA6
100
AcDbXrecord
280
     1
102
RTVSPropertyOp0
 70
     1
102
RTVSPropertyOp1
 70
     1
102
RTVSPropertyOp2
 70
     1
102
RTVSPropertyOp3
 70
     1
102
RTVSPropertyOp4
 70
     1
102
RTVSPropertyOp5
 70
     1
102
RTVSPropertyOp6
 70
     1
102
RTVSPropertyOp7
 70
     1
102
RTVSPropertyOp8
 70
     1
102
RTVSPropertyOp9
 70
     1
102
RTVSPropertyOp10
 70
     1
102
RTVSPropertyOp11
 70
     1
102
RTVSPropertyOp12
 70
     1
102
RTVSPropertyOp13
 70
     1
102
RTVSPropertyOp14
 70
     1
102
RTVSPropertyOp15
 70
     1
102
RTVSPropertyOp16
 70
     1
102
RTVSPropertyOp17
 70
     1
102
RTVSPropertyOp18
 70
     1
102
RTVSPropertyOp19
 70
     1
102
RTVSPropertyOp20
 70
     1
102
RTVSPropertyOp21
 70
     1
102
RTVSPropertyOp22
 70
     1
102
RTVSPropertyOp23
 70
     1
102
RTVSPropertyOp24
 70
     1
102
RTVSPropertyOp25
 70
     1
102
RTVSPropertyOp26
 70
     1
102
RTVSPropertyOp27
 70
     1
102
RTVSPropertyOp28
 70
     1
102
RTVSPropertyOp29
 70
     1
102
RTVSPropertyOp30
 70
     1
102
RTVSPropertyOp31
 70
     1
102
RTVSPropertyOp32
 70
     1
  0
XRECORD
  5
6FA1
102
{ACAD_REACTORS
330
6FA0
102
}
330
6FA0
100
AcDbXrecord
280
     1
102
RTVSPropertyOp0
 70
     1
102
RTVSPropertyOp1
 70
     1
102
RTVSPropertyOp2
 70
     1
102
RTVSPropertyOp3
 70
     1
102
RTVSPropertyOp4
 70
     1
102
RTVSPropertyOp5
 70
     1
102
RTVSPropertyOp6
 70
     1
102
RTVSPropertyOp7
 70
     1
102
RTVSPropertyOp8
 70
     1
102
RTVSPropertyOp9
 70
     1
102
RTVSPropertyOp10
 70
     1
102
RTVSPropertyOp11
 70
     1
102
RTVSPropertyOp12
 70
     1
102
RTVSPropertyOp13
 70
     1
102
RTVSPropertyOp14
 70
     1
102
RTVSPropertyOp15
 70
     1
102
RTVSPropertyOp16
 70
     1
102
RTVSPropertyOp17
 70
     1
102
RTVSPropertyOp18
 70
     1
102
RTVSPropertyOp19
 70
     1
102
RTVSPropertyOp20
 70
     1
102
RTVSPropertyOp21
 70
     1
102
RTVSPropertyOp22
 70
     1
102
RTVSPropertyOp23
 70
     1
102
RTVSPropertyOp24
 70
     1
102
RTVSPropertyOp25
 70
     1
102
RTVSPropertyOp26
 70
     1
102
RTVSPropertyOp27
 70
     1
102
RTVSPropertyOp28
 70
     1
102
RTVSPropertyOp29
 70
     1
102
RTVSPropertyOp30
 70
     1
102
RTVSPropertyOp31
 70
     1
102
RTVSPropertyOp32
 70
     1
  0
XRECORD
  5
6FA3
102
{ACAD_REACTORS
330
6FA2
102
}
330
6FA2
100
AcDbXrecord
280
     1
102
RTVSPropertyOp0
 70
     1
102
RTVSPropertyOp1
 70
     1
102
RTVSPropertyOp2
 70
     1
102
RTVSPropertyOp3
 70
     1
102
RTVSPropertyOp4
 70
     1
102
RTVSPropertyOp5
 70
     1
102
RTVSPropertyOp6
 70
     1
102
RTVSPropertyOp7
 70
     1
102
RTVSPropertyOp8
 70
     1
102
RTVSPropertyOp9
 70
     1
102
RTVSPropertyOp10
 70
     1
102
RTVSPropertyOp11
 70
     1
102
RTVSPropertyOp12
 70
     1
102
RTVSPropertyOp13
 70
     1
102
RTVSPropertyOp14
 70
     1
102
RTVSPropertyOp15
 70
     1
102
RTVSPropertyOp16
 70
     1
102
RTVSPropertyOp17
 70
     1
102
RTVSPropertyOp18
 70
     1
102
RTVSPropertyOp19
 70
     1
102
RTVSPropertyOp20
 70
     1
102
RTVSPropertyOp21
 70
     1
102
RTVSPropertyOp22
 70
     1
102
RTVSPropertyOp23
 70
     1
102
RTVSPropertyOp24
 70
     1
102
RTVSPropertyOp25
 70
     1
102
RTVSPropertyOp26
 70
     1
102
RTVSPropertyOp27
 70
     1
102
RTVSPropertyOp28
 70
     1
102
RTVSPropertyOp29
 70
     1
102
RTVSPropertyOp30
 70
     1
102
RTVSPropertyOp31
 70
     1
102
RTVSPropertyOp32
 70
     1
  0
XRECORD
  5
6F99
102
{ACAD_REACTORS
330
6F98
102
}
330
6F98
100
AcDbXrecord
280
     1
102
RTVSPropertyOp0
 70
     1
102
RTVSPropertyOp1
 70
     1
102
RTVSPropertyOp2
 70
     1
102
RTVSPropertyOp3
 70
     1
102
RTVSPropertyOp4
 70
     1
102
RTVSPropertyOp5
 70
     1
102
RTVSPropertyOp6
 70
     1
102
RTVSPropertyOp7
 70
     1
102
RTVSPropertyOp8
 70
     1
102
RTVSPropertyOp9
 70
     1
102
RTVSPropertyOp10
 70
     1
102
RTVSPropertyOp11
 70
     1
102
RTVSPropertyOp12
 70
     1
102
RTVSPropertyOp13
 70
     1
102
RTVSPropertyOp14
 70
     1
102
RTVSPropertyOp15
 70
     1
102
RTVSPropertyOp16
 70
     1
102
RTVSPropertyOp17
 70
     1
102
RTVSPropertyOp18
 70
     1
102
RTVSPropertyOp19
 70
     1
102
RTVSPropertyOp20
 70
     1
102
RTVSPropertyOp21
 70
     1
102
RTVSPropertyOp22
 70
     1
102
RTVSPropertyOp23
 70
     1
102
RTVSPropertyOp24
 70
     1
102
RTVSPropertyOp25
 70
     1
102
RTVSPropertyOp26
 70
     1
102
RTVSPropertyOp27
 70
     1
102
RTVSPropertyOp28
 70
     1
102
RTVSPropertyOp29
 70
     1
102
RTVSPropertyOp30
 70
     1
102
RTVSPropertyOp31
 70
     1
102
RTVSPropertyOp32
 70
     1
  0
XRECORD
  5
6F8D
102
{ACAD_REACTORS
330
6F8C
102
}
330
6F8C
100
AcDbXrecord
280
     1
102
RTVSPropertyOp0
 70
     1
102
RTVSPropertyOp1
 70
     1
102
RTVSPropertyOp2
 70
     1
102
RTVSPropertyOp3
 70
     1
102
RTVSPropertyOp4
 70
     1
102
RTVSPropertyOp5
 70
     1
102
RTVSPropertyOp6
 70
     1
102
RTVSPropertyOp7
 70
     1
102
RTVSPropertyOp8
 70
     1
102
RTVSPropertyOp9
 70
     1
102
RTVSPropertyOp10
 70
     1
102
RTVSPropertyOp11
 70
     1
102
RTVSPropertyOp12
 70
     1
102
RTVSPropertyOp13
 70
     1
102
RTVSPropertyOp14
 70
     1
102
RTVSPropertyOp15
 70
     1
102
RTVSPropertyOp16
 70
     1
102
RTVSPropertyOp17
 70
     1
102
RTVSPropertyOp18
 70
     1
102
RTVSPropertyOp19
 70
     1
102
RTVSPropertyOp20
 70
     1
102
RTVSPropertyOp21
 70
     1
102
RTVSPropertyOp22
 70
     1
102
RTVSPropertyOp23
 70
     1
102
RTVSPropertyOp24
 70
     1
102
RTVSPropertyOp25
 70
     1
102
RTVSPropertyOp26
 70
     1
102
RTVSPropertyOp27
 70
     1
102
RTVSPropertyOp28
 70
     1
102
RTVSPropertyOp29
 70
     1
102
RTVSPropertyOp30
 70
     1
102
RTVSPropertyOp31
 70
     1
102
RTVSPropertyOp32
 70
     1
  0
XRECORD
  5
6FA5
102
{ACAD_REACTORS
330
6FA4
102
}
330
6FA4
100
AcDbXrecord
280
     1
102
RTVSPropertyOp0
 70
     1
102
RTVSPropertyOp1
 70
     1
102
RTVSPropertyOp2
 70
     1
102
RTVSPropertyOp3
 70
     1
102
RTVSPropertyOp4
 70
     1
102
RTVSPropertyOp5
 70
     1
102
RTVSPropertyOp6
 70
     1
102
RTVSPropertyOp7
 70
     1
102
RTVSPropertyOp8
 70
     1
102
RTVSPropertyOp9
 70
     1
102
RTVSPropertyOp10
 70
     1
102
RTVSPropertyOp11
 70
     1
102
RTVSPropertyOp12
 70
     1
102
RTVSPropertyOp13
 70
     1
102
RTVSPropertyOp14
 70
     1
102
RTVSPropertyOp15
 70
     1
102
RTVSPropertyOp16
 70
     1
102
RTVSPropertyOp17
 70
     1
102
RTVSPropertyOp18
 70
     1
102
RTVSPropertyOp19
 70
     1
102
RTVSPropertyOp20
 70
     1
102
RTVSPropertyOp21
 70
     1
102
RTVSPropertyOp22
 70
     1
102
RTVSPropertyOp23
 70
     1
102
RTVSPropertyOp24
 70
     1
102
RTVSPropertyOp25
 70
     1
102
RTVSPropertyOp26
 70
     1
102
RTVSPropertyOp27
 70
     1
102
RTVSPropertyOp28
 70
     1
102
RTVSPropertyOp29
 70
     1
102
RTVSPropertyOp30
 70
     1
102
RTVSPropertyOp31
 70
     1
102
RTVSPropertyOp32
 70
     1
  0
ENDSEC
  0
EOF
