  0
SECTION
  2
HEADER
  9
$ACADVER
  1
AC1015
  9
$ACADMAINTVER
 70
    20
  9
$DWGCODEPAGE
  3
ANSI_1252
  9
$INSBASE
 10
0.0
 20
0.0
 30
0.0
  9
$EXTMIN
 10
-0.0000000410553014
 20
-0.0000000154741571
 30
0.0
  9
$EXTMAX
 10
89.42969637211538
 20
49.18876710478312
 30
0.0
  9
$LIMMIN
 10
0.0
 20
0.0
  9
$LIMMAX
 10
12.0
 20
9.0
  9
$ORTHOMODE
 70
     0
  9
$REGENMODE
 70
     1
  9
$FILLMODE
 70
     1
  9
$QTEXTMODE
 70
     0
  9
$MIRRTEXT
 70
     1
  9
$LTSCALE
 40
0.5
  9
$ATTMODE
 70
     1
  9
$TEXTSIZE
 40
0.25
  9
$TRACEWID
 40
0.05
  9
$TEXTSTYLE
  7
STANDARD
  9
$CLAYER
  8
0
  9
$CELTYPE
  6
BYLAYER
  9
$CECOLOR
 62
   256
  9
$CELTSCALE
 40
1.0
  9
$DISPSILH
 70
     0
  9
$DIMSCALE
 40
1.0
  9
$DIMASZ
 40
0.2
  9
$DIMEXO
 40
0.125
  9
$DIMDLI
 40
0.375
  9
$DIMRND
 40
0.0
  9
$DIMDLE
 40
0.0
  9
$DIMEXE
 40
0.125
  9
$DIMTP
 40
0.0
  9
$DIMTM
 40
0.0
  9
$DIMTXT
 40
0.25
  9
$DIMCEN
 40
0.0
  9
$DIMTSZ
 40
0.0
  9
$DIMTOL
 70
     0
  9
$DIMLIM
 70
     0
  9
$DIMTIH
 70
     0
  9
$DIMTOH
 70
     0
  9
$DIMSE1
 70
     0
  9
$DIMSE2
 70
     0
  9
$DIMTAD
 70
     1
  9
$DIMZIN
 70
     3
  9
$DIMBLK
  1

  9
$DIMASO
 70
     1
  9
$DIMSHO
 70
     1
  9
$DIMPOST
  1

  9
$DIMAPOST
  1

  9
$DIMALT
 70
     0
  9
$DIMALTD
 70
     2
  9
$DIMALTF
 40
25.4
  9
$DIMLFAC
 40
1.0
  9
$DIMTOFL
 70
     0
  9
$DIMTVP
 40
0.0
  9
$DIMTIX
 70
     0
  9
$DIMSOXD
 70
     0
  9
$DIMSAH
 70
     0
  9
$DIMBLK1
  1

  9
$DIMBLK2
  1

  9
$DIMSTYLE
  2
STANDARD
  9
$DIMCLRD
 70
     0
  9
$DIMCLRE
 70
     0
  9
$DIMCLRT
 70
     0
  9
$DIMTFAC
 40
1.0
  9
$DIMGAP
 40
0.125
  9
$DIMJUST
 70
     0
  9
$DIMSD1
 70
     0
  9
$DIMSD2
 70
     0
  9
$DIMTOLJ
 70
     1
  9
$DIMTZIN
 70
     3
  9
$DIMALTZ
 70
     3
  9
$DIMALTTZ
 70
     3
  9
$DIMUPT
 70
     0
  9
$DIMDEC
 70
     5
  9
$DIMTDEC
 70
     5
  9
$DIMALTU
 70
     4
  9
$DIMALTTD
 70
     2
  9
$DIMTXSTY
  7
STANDARD
  9
$DIMAUNIT
 70
     0
  9
$DIMADEC
 70
     0
  9
$DIMALTRND
 40
0.0
  9
$DIMAZIN
 70
     0
  9
$DIMDSEP
 70
    46
  9
$DIMATFIT
 70
     0
  9
$DIMFRAC
 70
     2
  9
$DIMLDRBLK
  1

  9
$DIMLUNIT
 70
     4
  9
$DIMLWD
 70
    -2
  9
$DIMLWE
 70
    -2
  9
$DIMTMOVE
 70
     0
  9
$LUNITS
 70
     2
  9
$LUPREC
 70
     5
  9
$SKETCHINC
 40
0.1
  9
$FILLETRAD
 40
0.0
  9
$AUNITS
 70
     0
  9
$AUPREC
 70
     0
  9
$MENU
  1
ACAD
  9
$ELEVATION
 40
0.0
  9
$PELEVATION
 40
0.0
  9
$THICKNESS
 40
0.0
  9
$LIMCHECK
 70
     0
  9
$CHAMFERA
 40
0.0
  9
$CHAMFERB
 40
0.0
  9
$CHAMFERC
 40
0.0
  9
$CHAMFERD
 40
0.0
  9
$SKPOLY
 70
     0
  9
$TDCREATE
 40
2450777.579237616
  9
$TDUCREATE
 40
2450777.787570949
  9
$TDUPDATE
 40
2457809.472245567
  9
$TDUUPDATE
 40
2457809.680578900
  9
$TDINDWG
 40
0.8048460069
  9
$TDUSRTIMER
 40
0.8048460069
  9
$USRTIMER
 70
     1
  9
$ANGBASE
 50
0.0
  9
$ANGDIR
 70
     0
  9
$PDMODE
 70
     0
  9
$PDSIZE
 40
0.0
  9
$PLINEWID
 40
0.0
  9
$SPLFRAME
 70
     0
  9
$SPLINETYPE
 70
     6
  9
$SPLINESEGS
 70
     8
  9
$HANDSEED
  5
7F27
  9
$SURFTAB1
 70
     6
  9
$SURFTAB2
 70
     6
  9
$SURFTYPE
 70
     6
  9
$SURFU
 70
     6
  9
$SURFV
 70
     6
  9
$UCSBASE
  2

  9
$UCSNAME
  2

  9
$UCSORG
 10
0.0
 20
0.0
 30
0.0
  9
$UCSXDIR
 10
1.0
 20
0.0
 30
0.0
  9
$UCSYDIR
 10
0.0
 20
1.0
 30
0.0
  9
$UCSORTHOREF
  2

  9
$UCSORTHOVIEW
 70
     0
  9
$UCSORGTOP
 10
0.0
 20
0.0
 30
0.0
  9
$UCSORGBOTTOM
 10
0.0
 20
0.0
 30
0.0
  9
$UCSORGLEFT
 10
0.0
 20
0.0
 30
0.0
  9
$UCSORGRIGHT
 10
0.0
 20
0.0
 30
0.0
  9
$UCSORGFRONT
 10
0.0
 20
0.0
 30
0.0
  9
$UCSORGBACK
 10
0.0
 20
0.0
 30
0.0
  9
$PUCSBASE
  2

  9
$PUCSNAME
  2

  9
$PUCSORG
 10
0.0
 20
0.0
 30
0.0
  9
$PUCSXDIR
 10
1.0
 20
0.0
 30
0.0
  9
$PUCSYDIR
 10
0.0
 20
1.0
 30
0.0
  9
$PUCSORTHOREF
  2

  9
$PUCSORTHOVIEW
 70
     0
  9
$PUCSORGTOP
 10
0.0
 20
0.0
 30
0.0
  9
$PUCSORGBOTTOM
 10
0.0
 20
0.0
 30
0.0
  9
$PUCSORGLEFT
 10
0.0
 20
0.0
 30
0.0
  9
$PUCSORGRIGHT
 10
0.0
 20
0.0
 30
0.0
  9
$PUCSORGFRONT
 10
0.0
 20
0.0
 30
0.0
  9
$PUCSORGBACK
 10
0.0
 20
0.0
 30
0.0
  9
$USERI1
 70
     0
  9
$USERI2
 70
     0
  9
$USERI3
 70
     0
  9
$USERI4
 70
     0
  9
$USERI5
 70
     0
  9
$USERR1
 40
0.0
  9
$USERR2
 40
0.0
  9
$USERR3
 40
0.0
  9
$USERR4
 40
0.0
  9
$USERR5
 40
0.0
  9
$WORLDVIEW
 70
     1
  9
$SHADEDGE
 70
     3
  9
$SHADEDIF
 70
    70
  9
$TILEMODE
 70
     1
  9
$MAXACTVP
 70
    16
  9
$PINSBASE
 10
0.0
 20
0.0
 30
0.0
  9
$PLIMCHECK
 70
     0
  9
$PEXTMIN
 10
1.000000000000000E+20
 20
1.000000000000000E+20
 30
1.000000000000000E+20
  9
$PEXTMAX
 10
-1.000000000000000E+20
 20
-1.000000000000000E+20
 30
-1.000000000000000E+20
  9
$PLIMMIN
 10
0.0
 20
0.0
  9
$PLIMMAX
 10
12.0
 20
9.0
  9
$UNITMODE
 70
     0
  9
$VISRETAIN
 70
     0
  9
$PLINEGEN
 70
     0
  9
$PSLTSCALE
 70
     1
  9
$TREEDEPTH
 70
  3020
  9
$CMLSTYLE
  2
STANDARD
  9
$CMLJUST
 70
     0
  9
$CMLSCALE
 40
1.0
  9
$PROXYGRAPHICS
 70
     1
  9
$MEASUREMENT
 70
     0
  9
$CELWEIGHT
370
    -1
  9
$ENDCAPS
280
     0
  9
$JOINSTYLE
280
     0
  9
$LWDISPLAY
290
     0
  9
$INSUNITS
 70
     0
  9
$HYPERLINKBASE
  1

  9
$STYLESHEET
  1
monochrome.ctb
  9
$XEDIT
290
     1
  9
$CEPSNTYPE
380
     0
  9
$PSTYLEMODE
290
     1
  9
$FINGERPRINTGUID
  2
{AFB9463B-F323-4607-850C-DC68DBB64F67}
  9
$VERSIONGUID
  2
{CEC73551-97CD-48B0-B739-2A6728E523D6}
  9
$EXTNAMES
290
     1
  9
$PSVPSCALE
 40
0.0
  9
$OLESTARTUP
290
     0
  0
ENDSEC
  0
SECTION
  2
CLASSES
  0
CLASS
  1
DICTIONARYVAR
  2
AcDbDictionaryVar
  3
ObjectDBX Classes
 90
        0
280
     0
281
     0
  0
CLASS
  1
ACDBDICTIONARYWDFLT
  2
AcDbDictionaryWithDefault
  3
ObjectDBX Classes
 90
        0
280
     0
281
     0
  0
CLASS
  1
ACDBPLACEHOLDER
  2
AcDbPlaceHolder
  3
ObjectDBX Classes
 90
        0
280
     0
281
     0
  0
CLASS
  1
LAYOUT
  2
AcDbLayout
  3
ObjectDBX Classes
 90
        0
280
     0
281
     0
  0
CLASS
  1
MATERIAL
  2
AcDbMaterial
  3
ObjectDBX Classes
 90
     1153
280
     0
281
     0
  0
CLASS
  1
VISUALSTYLE
  2
AcDbVisualStyle
  3
ObjectDBX Classes
 90
     4095
280
     0
281
     0
  0
CLASS
  1
TABLESTYLE
  2
AcDbTableStyle
  3
ObjectDBX Classes
 90
     4095
280
     0
281
     0
  0
CLASS
  1
SCALE
  2
AcDbScale
  3
ObjectDBX Classes
 90
     1153
280
     0
281
     0
  0
CLASS
  1
MLEADERSTYLE
  2
AcDbMLeaderStyle
  3
ACDB_MLEADERSTYLE_CLASS
 90
     4095
280
     0
281
     0
  0
CLASS
  1
SORTENTSTABLE
  2
AcDbSortentsTable
  3
ObjectDBX Classes
 90
        0
280
     0
281
     0
  0
CLASS
  1
CELLSTYLEMAP
  2
AcDbCellStyleMap
  3
ObjectDBX Classes
 90
     1152
280
     0
281
     0
  0
CLASS
  1
EXACXREFPANELOBJECT
  2
ExAcXREFPanelObject
  3
EXAC_ESW
 90
     1025
280
     0
281
     0
  0
CLASS
  1
NPOCOLLECTION
  2
AcDbImpNonPersistentObjectsCollection
  3
ObjectDBX Classes
 90
     1153
280
     0
281
     0
  0
CLASS
  1
FIELD
  2
AcDbField
  3
ObjectDBX Classes
 90
    33920
280
     0
281
     0
  0
CLASS
  1
FIELDLIST
  2
AcDbFieldList
  3
ObjectDBX Classes
 90
     1152
280
     0
281
     0
  0
ENDSEC
  0
SECTION
  2
TABLES
  0
TABLE
  2
VPORT
  5
8
102
{ACAD_XDICTIONARY
360
76B8
102
}
330
0
100
AcDbSymbolTable
 70
     1
  0
VPORT
  5
762C
330
8
100
AcDbSymbolTableRecord
100
AcDbViewportTableRecord
  2
*Active
 70
     0
 10
0.0
 20
0.0
 11
1.0
 21
1.0
 12
134.0849464608974
 22
38.18426895755304
 13
0.0
 23
0.0
 14
1.0
 24
1.0
 15
0.0
 25
0.0
 16
0.0
 26
0.0
 36
1.0
 17
0.0
 27
0.0
 37
0.0
 40
76.71006290754758
 41
3.716019417475727
 42
50.0
 43
0.0
 44
0.0
 50
0.0
 51
0.0
 71
     0
 72
  2000
 73
     1
 74
     0
 75
     0
 76
     0
 77
     0
 78
     0
281
     0
 65
     1
110
0.0
120
0.0
130
0.0
111
1.0
121
0.0
131
0.0
112
0.0
122
1.0
132
0.0
 79
     0
146
0.0
1001
ACAD_NAV_VCDISPLAY
1070
     3
  0
ENDTAB
  0
TABLE
  2
LTYPE
  5
5
330
0
100
AcDbSymbolTable
 70
     4
  0
LTYPE
  5
11
330
5
100
AcDbSymbolTableRecord
100
AcDbLinetypeTableRecord
  2
BYBLOCK
 70
     0
  3

 72
    65
 73
     0
 40
0.0
  0
LTYPE
  5
12
330
5
100
AcDbSymbolTableRecord
100
AcDbLinetypeTableRecord
  2
BYLAYER
 70
     0
  3

 72
    65
 73
     0
 40
0.0
  0
LTYPE
  5
13
330
5
100
AcDbSymbolTableRecord
100
AcDbLinetypeTableRecord
  2
CONTINUOUS
 70
     0
  3
Solid line
 72
    65
 73
     0
 40
0.0
  0
LTYPE
  5
5B69
330
5
100
AcDbSymbolTableRecord
100
AcDbLinetypeTableRecord
  2
DASHED
 70
     0
  3
Dashed __ __ __ __ __ __ __ __ __ __ __ __ __ _
 72
    65
 73
     2
 40
0.75
 49
0.5
 74
     0
 49
-0.25
 74
     0
  0
LTYPE
  5
63A1
330
5
100
AcDbSymbolTableRecord
100
AcDbLinetypeTableRecord
  2
HIDDEN
 70
     0
  3
Hidden __ __ __ __ __ __ __ __ __ __ __ __ __ _
 72
    65
 73
     2
 40
0.375
 49
0.25
 74
     0
 49
-0.125
 74
     0
  0
LTYPE
  5
7E6D
330
5
100
AcDbSymbolTableRecord
100
AcDbLinetypeTableRecord
  2
DOT
 70
     0
  3
Dot . . . . . . . . . . . . . . . . . . . . . .
 72
    65
 73
     2
 40
0.25
 49
0.0
 74
     0
 49
-0.25
 74
     0
  0
ENDTAB
  0
TABLE
  2
LAYER
  5
2
102
{ACAD_XDICTIONARY
360
7699
102
}
330
0
100
AcDbSymbolTable
 70
     7
  0
LAYER
  5
E
102
{ACAD_XDICTIONARY
360
76A9
102
}
330
2
100
AcDbSymbolTableRecord
100
AcDbLayerTableRecord
  2
0
 70
     0
 62
     7
  6
CONTINUOUS
370
    -3
390
485B
  0
LAYER
  5
273
102
{ACAD_XDICTIONARY
360
76AB
102
}
330
2
100
AcDbSymbolTableRecord
100
AcDbLayerTableRecord
  2
R-SWTS-DET1
 70
     0
 62
     1
  6
CONTINUOUS
370
    -3
390
485B
  0
LAYER
  5
277
102
{ACAD_XDICTIONARY
360
76AD
102
}
330
2
100
AcDbSymbolTableRecord
100
AcDbLayerTableRecord
  2
R-ANNO-DIMS
 70
     0
 62
     3
  6
CONTINUOUS
370
    -3
390
485B
  0
LAYER
  5
42D
102
{ACAD_XDICTIONARY
360
76AF
102
}
330
2
100
AcDbSymbolTableRecord
100
AcDbLayerTableRecord
  2
R-SWTS-DET2
 70
     0
 62
     4
  6
CONTINUOUS
370
    -3
390
485B
  0
LAYER
  5
42E
102
{ACAD_XDICTIONARY
360
76B1
102
}
330
2
100
AcDbSymbolTableRecord
100
AcDbLayerTableRecord
  2
R-SWTS-DET3
 70
     0
 62
     5
  6
CONTINUOUS
370
    -3
390
485B
  0
LAYER
  5
7710
102
{ACAD_XDICTIONARY
360
7711
102
}
330
2
100
AcDbSymbolTableRecord
100
AcDbLayerTableRecord
  2
TEXT
 70
     0
 62
     3
  6
CONTINUOUS
370
    -3
390
485B
  0
LAYER
  5
7E6E
330
2
100
AcDbSymbolTableRecord
100
AcDbLayerTableRecord
  2
Kawneer Logo-English
 70
     0
 62
     7
  6
CONTINUOUS
370
    -3
390
485B
1001
AcAecLayerStandard
1000

1000

1001
AcCmTransparency
1071
        0
  0
ENDTAB
  0
TABLE
  2
STYLE
  5
3
330
0
100
AcDbSymbolTable
 70
     1
  0
STYLE
  5
F
330
3
100
AcDbSymbolTableRecord
100
AcDbTextStyleTableRecord
  2
STANDARD
 70
     0
 40
0.0
 41
1.0
 50
0.0
 71
     0
 42
0.25
  3
arial.ttf
  4

1001
ACAD
1000
Arial
1071
       34
  0
ENDTAB
  0
TABLE
  2
VIEW
  5
6
330
0
100
AcDbSymbolTable
 70
     0
  0
ENDTAB
  0
TABLE
  2
UCS
  5
7
330
0
100
AcDbSymbolTable
 70
     0
  0
ENDTAB
  0
TABLE
  2
APPID
  5
9
330
0
100
AcDbSymbolTable
 70
    15
  0
APPID
  5
10
330
9
100
AcDbSymbolTableRecord
100
AcDbRegAppTableRecord
  2
ACAD
 70
     0
  0
APPID
  5
7714
330
9
100
AcDbSymbolTableRecord
100
AcDbRegAppTableRecord
  2
ACAD_NAV_VCDISPLAY
 70
     0
  0
APPID
  5
7E6F
330
9
100
AcDbSymbolTableRecord
100
AcDbRegAppTableRecord
  2
ACAD_EXEMPT_FROM_CAD_STANDARDS
 70
     0
  0
APPID
  5
7E70
330
9
100
AcDbSymbolTableRecord
100
AcDbRegAppTableRecord
  2
GradientColor1ACI
 70
     0
  0
APPID
  5
7E71
330
9
100
AcDbSymbolTableRecord
100
AcDbRegAppTableRecord
  2
GradientColor2ACI
 70
     0
  0
APPID
  5
7E72
330
9
100
AcDbSymbolTableRecord
100
AcDbRegAppTableRecord
  2
ACAD_MLEADERVER
 70
     0
  0
APPID
  5
7E73
330
9
100
AcDbSymbolTableRecord
100
AcDbRegAppTableRecord
  2
ACAD_PSEXT
 70
     0
  0
APPID
  5
7E74
330
9
100
AcDbSymbolTableRecord
100
AcDbRegAppTableRecord
  2
ACAD_DSTYLE_DIMJAG
 70
     0
  0
APPID
  5
7E75
330
9
100
AcDbSymbolTableRecord
100
AcDbRegAppTableRecord
  2
ACAD_DSTYLE_DIMTALN
 70
     0
  0
APPID
  5
7E76
330
9
100
AcDbSymbolTableRecord
100
AcDbRegAppTableRecord
  2
ACAD_DSTYLE_DIMBREAK
 70
     0
  0
APPID
  5
7E77
330
9
100
AcDbSymbolTableRecord
100
AcDbRegAppTableRecord
  2
AcDbDynamicBlockGUID
 70
     0
  0
APPID
  5
7E78
330
9
100
AcDbSymbolTableRecord
100
AcDbRegAppTableRecord
  2
ACAUTHENVIRON
 70
     0
  0
APPID
  5
7E79
330
9
100
AcDbSymbolTableRecord
100
AcDbRegAppTableRecord
  2
AcDbDynamicBlockTrueName
 70
     0
  0
APPID
  5
7E7A
330
9
100
AcDbSymbolTableRecord
100
AcDbRegAppTableRecord
  2
AcAecLayerStandard
 70
     0
  0
APPID
  5
7E7B
330
9
100
AcDbSymbolTableRecord
100
AcDbRegAppTableRecord
  2
AcCmTransparency
 70
     0
  0
ENDTAB
  0
TABLE
  2
DIMSTYLE
  5
A
330
0
100
AcDbSymbolTable
 70
     1
100
AcDbDimStyleTable
 71
     1
340
26C
  0
DIMSTYLE
105
26C
330
A
100
AcDbSymbolTableRecord
100
AcDbDimStyleTableRecord
  2
STANDARD
 70
     0
340
F
  0
ENDTAB
  0
TABLE
  2
BLOCK_RECORD
  5
1
330
0
100
AcDbSymbolTable
 70
     1
  0
BLOCK_RECORD
  5
17
102
{ACAD_XDICTIONARY
360
4A11
102
}
330
1
100
AcDbSymbolTableRecord
100
AcDbBlockTableRecord
  2
*MODEL_SPACE
340
485E
  0
BLOCK_RECORD
  5
14
102
{ACAD_XDICTIONARY
360
4A0F
102
}
330
1
100
AcDbSymbolTableRecord
100
AcDbBlockTableRecord
  2
*PAPER_SPACE
340
485F
  0
BLOCK_RECORD
  5
7E7E
102
{ACAD_XDICTIONARY
360
7E88
102
}
330
1
100
AcDbSymbolTableRecord
100
AcDbBlockTableRecord
  2
Kawneer Logo English
340
0
102
{BLKREFS
331
7E8C
102
}
1001
ACAD
1000
DesignCenter Data
1002
{
1070
     1
1070
     1
1002
}
  0
ENDTAB
  0
ENDSEC
  0
SECTION
  2
BLOCKS
  0
BLOCK
  5
3C
330
17
100
AcDbEntity
  8
0
100
AcDbBlockBegin
  2
*MODEL_SPACE
 70
     0
 10
0.0
 20
0.0
 30
0.0
  3
*MODEL_SPACE
  1

  0
ENDBLK
  5
3D
330
17
100
AcDbEntity
  8
0
100
AcDbBlockEnd
  0
BLOCK
  5
3A
330
14
100
AcDbEntity
 67
     1
  8
0
100
AcDbBlockBegin
  2
*PAPER_SPACE
 70
     0
 10
0.0
 20
0.0
 30
0.0
  3
*PAPER_SPACE
  1

  0
ENDBLK
  5
3B
330
14
100
AcDbEntity
 67
     1
  8
0
100
AcDbBlockEnd
  0
BLOCK
  5
7E8A
330
7E7E
100
AcDbEntity
  8
0
100
AcDbBlockBegin
  2
Kawneer Logo English
 70
     0
 10
0.0
 20
0.0
 30
0.0
  3
Kawneer Logo English
  1

  0
MTEXT
  5
7E7F
102
{ACAD_XDICTIONARY
360
7EE7
102
}
330
7E7E
100
AcDbEntity
  8
Kawneer Logo-English
100
AcDbMText
 10
1.510096758583198
 20
0.0372523876656778
 30
0.0
 40
0.036
 41
0.6125900866323382
 71
     3
 72
     5
  1
{\fArial TUR|b0|i0|c0|p34;\T1.05;AN ARCONIC COMPANY}
 73
     1
 44
1.0
1001
ACAD
1000
ACAD_MTEXT_COLUMN_INFO_BEGIN
1070
    75
1070
     2
1070
    79
1070
     0
1070
    76
1070
     1
1070
    78
1070
     0
1070
    48
1040
0.6125900866323382
1070
    49
1040
1.0
1070
    50
1070
     1
1040
0.0
1000
ACAD_MTEXT_COLUMN_INFO_END
1000
MTEXTBEGIN
1070
    73
1070
     1
1070
    44
1040
1.0
1070
    74
1070
     0
1000
MTEXTEND
  0
HATCH
  5
7E80
330
7E7E
100
AcDbEntity
  8
Kawneer Logo-English
100
AcDbHatch
 10
0.0
 20
0.0
 30
0.0
210
0.0
220
0.0
230
1.0
  2
SOLID
 70
     1
 71
     0
 91
        1
 92
        1
 93
       81
 72
     1
 10
0.2706169776412204
 20
0.0336337282279411
 11
0.2687512969786691
 21
0.0350329887248546
 72
     1
 10
0.2687512969786696
 20
0.0350329887248547
 11
0.2633408230572721
 21
0.039137486182467
 72
     1
 10
0.2633408230572729
 20
0.0391374861824669
 11
0.2550385441089194
 21
0.0453875164020133
 72
     1
 10
0.2550385441089191
 20
0.0453875164020132
 11
0.2442175962661241
 21
0.053596511317238
 72
     1
 10
0.2442175962661235
 20
0.0535965113172379
 11
0.2314376837276472
 21
0.0632980507625037
 72
     1
 10
0.2314376837276479
 20
0.0632980507625037
 11
0.2172585106922595
 21
0.0741189986052996
 72
     1
 10
0.2172585106922598
 20
0.0741189986052996
 11
0.2019599292593419
 21
0.0856862187131167
 72
     1
 10
0.201959929259341
 20
0.0856862187131167
 11
0.1862882116939105
 21
0.0976265749534437
 72
     1
 10
0.1862882116939102
 20
0.0976265749534437
 11
0.1706164941284813
 21
0.1095669311937706
 72
     1
 10
0.1706164941284811
 20
0.1095669311937709
 11
0.1553179126955632
 21
0.1211341513015875
 72
     1
 10
0.1553179126955642
 20
0.1211341513015876
 11
0.1411387396601757
 21
0.131955099144384
 72
     1
 10
0.1411387396601755
 20
0.1319550991443839
 11
0.1284521111548274
 21
0.141749922622777
 72
     1
 10
0.1284521111548278
 20
0.1417499226227768
 11
0.117631163312031
 21
0.1499589175380016
 72
     1
 10
0.1176311633120304
 20
0.1499589175380017
 11
0.1094221683968068
 21
0.1563022317906752
 72
     1
 10
0.1094221683968062
 20
0.1563022317906754
 11
0.1041049785085351
 21
0.1604067292482882
 72
     1
 10
0.1041049785085351
 20
0.1604067292482878
 11
0.1023325818791119
 21
0.1618992737783286
 72
     1
 10
0.1023325818791116
 20
0.1618992737783289
 11
0.1043848306079176
 21
0.1636716704077524
 72
     1
 10
0.1043848306079194
 20
0.1636716704077524
 11
0.1100751566286996
 21
0.1683358720641301
 72
     1
 10
0.1100751566286986
 20
0.1683358720641301
 11
0.1189371397758159
 21
0.1757053106812067
 72
     1
 10
0.1189371397758161
 20
0.1757053106812067
 11
0.1304110758505067
 21
0.1851269980270901
 72
     1
 10
0.1304110758505059
 20
0.1851269980270902
 11
0.1439372606540007
 21
0.1963210820023967
 72
     1
 10
0.1439372606540017
 20
0.1963210820023967
 11
0.1589559899875385
 21
0.2087278584083611
 72
     1
 10
0.1589559899875379
 20
0.2087278584083611
 11
0.1750941277186041
 21
0.2220674751456017
 72
     1
 10
0.1750941277186047
 20
0.2220674751456017
 11
0.19169868561531
 21
0.2358735120484796
 72
     1
 10
0.1916986856153105
 20
0.2358735120484796
 11
0.208303243512014
 21
0.2495862649182301
 72
     1
 10
0.2083032435120131
 20
0.2495862649182304
 11
0.2244413812430811
 21
0.2628325976223432
 72
     1
 10
0.2244413812430812
 20
0.2628325976223429
 11
0.239460110576618
 21
0.2753326580614352
 72
     1
 10
0.2394601105766174
 20
0.2753326580614351
 11
0.2529862953801122
 21
0.2864334580036143
 72
     1
 10
0.2529862953801132
 20
0.2864334580036143
 11
0.2643669474216756
 21
0.2958551453494973
 72
     1
 10
0.2643669474216757
 20
0.2958551453494973
 11
0.2731356465356649
 21
0.3031312999334466
 72
     1
 10
0.273135646535664
 20
0.3031312999334466
 11
0.2788259725564443
 21
0.3077955015898243
 72
     1
 10
0.278825972556445
 20
0.3077955015898246
 11
0.2807849372521245
 21
0.3094746141861208
 72
     1
 10
0.2807849372521249
 20
0.3094746141861205
 11
0.2798520969208501
 21
0.3094746141861205
 72
     1
 10
0.2798520969208496
 20
0.3094746141861205
 11
0.2769602918938953
 21
0.3095678982192478
 72
     1
 10
0.2769602918938943
 20
0.3095678982192481
 11
0.2724826583037715
 21
0.3095678982192481
 72
     1
 10
0.2724826583037729
 20
0.3095678982192481
 11
0.2666057642167363
 21
0.3095678982192481
 72
     1
 10
0.266605764216735
 20
0.3095678982192481
 11
0.2597027457652953
 21
0.3095678982192481
 72
     1
 10
0.2597027457652956
 20
0.3095678982192481
 11
0.2519601710157094
 21
0.3095678982192481
 72
     1
 10
0.2519601710157104
 20
0.3095678982192481
 11
0.2437511761004851
 21
0.3095678982192481
 72
     1
 10
0.243751176100484
 20
0.3095678982192481
 11
0.2351690450527495
 21
0.3095678982192481
 72
     1
 10
0.2351690450527495
 20
0.3095678982192481
 11
0.2266801980381413
 21
0.3095678982192481
 72
     1
 10
0.2266801980381423
 20
0.3095678982192481
 11
0.2183779190897905
 21
0.3094746141861208
 72
     1
 10
0.2183779190897899
 20
0.3094746141861205
 11
0.2106353443402037
 21
0.3094746141861205
 72
     1
 10
0.2106353443402029
 20
0.3094746141861205
 11
0.2037323258887632
 21
0.3094746141861205
 72
     1
 10
0.203732325888764
 20
0.3094746141861205
 11
0.1978554318017273
 21
0.3094746141861205
 72
     1
 10
0.1978554318017278
 20
0.3094746141861205
 11
0.1932845141784786
 21
0.3094746141861205
 72
     1
 10
0.1932845141784787
 20
0.3094746141861205
 11
0.1903927091515244
 21
0.3094746141861205
 72
     1
 10
0.1903927091515234
 20
0.3094746141861205
 11
0.1893665847871204
 21
0.3094746141861205
 72
     1
 10
0.1893665847871206
 20
0.3094746141861205
 11
0.1879673242902067
 21
0.3077955015898243
 72
     1
 10
0.1879673242902076
 20
0.3077955015898246
 11
0.1841426789319786
 21
0.3030380159003196
 72
     1
 10
0.1841426789319787
 20
0.3030380159003192
 11
0.1780792167786874
 21
0.29576186131637
 72
     1
 10
0.1780792167786873
 20
0.29576186131637
 11
0.170243357995973
 21
0.2862468899373593
 72
     1
 10
0.170243357995973
 20
0.2862468899373593
 11
0.1610082387163447
 21
0.2750528059620528
 72
     1
 10
0.1610082387163438
 20
0.2750528059620528
 11
0.1507469950723126
 21
0.2624594614898328
 72
     1
 10
0.1507469950723133
 20
0.2624594614898328
 11
0.1396461951301336
 21
0.2491198447525922
 72
     1
 10
0.1396461951301333
 20
0.2491198447525922
 11
0.1282655430885727
 21
0.2352205238165866
 72
     1
 10
0.1282655430885726
 20
0.2352205238165868
 11
0.1168848910470102
 21
0.2214144869137089
 72
     1
 10
0.1168848910470102
 20
0.2214144869137087
 11
0.1058773751379587
 21
0.2079815861433408
 72
     1
 10
0.105877375137958
 20
0.2079815861433408
 11
0.0955228474608004
 21
0.1954815257042486
 72
     1
 10
0.0955228474608019
 20
0.1954815257042488
 11
0.0862877281811736
 21
0.1842874417289424
 72
     1
 10
0.0862877281811727
 20
0.1842874417289424
 11
0.0784518693984583
 21
0.1747724703499316
 72
     1
 10
0.0784518693984584
 20
0.1747724703499314
 11
0.0723884072451672
 21
0.1674963157659821
 72
     1
 10
0.0723884072451671
 20
0.1674963157659822
 11
0.0685637618869363
 21
0.1627388300764767
 72
     1
 10
0.0685637618869364
 20
0.1627388300764767
 11
0.0671645013900242
 21
0.1611530015133082
 72
     1
 10
0.0671645013900251
 20
0.1611530015133082
 11
0.0680040576881734
 21
0.1596604569832674
 72
     1
 10
0.0680040576881726
 20
0.1596604569832674
 11
0.0704294425494878
 21
0.1556492435587824
 72
     1
 10
0.0704294425494871
 20
0.1556492435587824
 11
0.0742540879077179
 21
0.1493059293061089
 72
     1
 10
0.0742540879077192
 20
0.1493059293061089
 11
0.0791048576303511
 21
0.1411902184240116
 72
     1
 10
0.0791048576303508
 20
0.1411902184240116
 11
0.0848884676842594
 21
0.1314886789787458
 72
     1
 10
0.0848884676842596
 20
0.1314886789787459
 11
0.0913250659700619
 21
0.1207610151690772
 72
     1
 10
0.0913250659700613
 20
0.1207610151690775
 11
0.0982280844214992
 21
0.1091937950612604
 72
     1
 10
0.0982280844214985
 20
0.1091937950612603
 11
0.1053176709391927
 21
0.0973467228540611
 72
     1
 10
0.105317670939193
 20
0.0973467228540612
 11
0.1124072574568872
 21
0.0854996506468619
 72
     1
 10
0.1124072574568871
 20
0.0854996506468617
 11
0.1193102759083267
 21
0.0739324305390446
 72
     1
 10
0.1193102759083278
 20
0.0739324305390448
 11
0.1257468741941283
 21
0.0632047667293762
 72
     1
 10
0.1257468741941277
 20
0.063204766729376
 11
0.1315304842480362
 21
0.0535032272841102
 72
     1
 10
0.1315304842480365
 20
0.0535032272841104
 11
0.1363812539706702
 21
0.0453875164020132
 72
     1
 10
0.1363812539706699
 20
0.0453875164020132
 11
0.1402058993288989
 21
0.0391374861824667
 72
     1
 10
0.1402058993288988
 20
0.0391374861824669
 11
0.1426312841902157
 21
0.0350329887248546
 72
     1
 10
0.1426312841902164
 20
0.0350329887248547
 11
0.1434708404883648
 21
0.0336337282279412
 72
     1
 10
0.143470840488364
 20
0.0336337282279411
 11
0.2706169776412211
 21
0.0336337282279411
 97
        0
 75
     0
 76
     1
 98
        1
 10
-0.3743130907707726
 20
-0.2500502867693841
1001
ACAD
1010
0.0
1020
0.0
1030
0.0
  0
HATCH
  5
7E81
330
7E7E
100
AcDbEntity
  8
Kawneer Logo-English
100
AcDbHatch
 10
0.0
 20
0.0
 30
0.0
210
0.0
220
0.0
230
1.0
  2
SOLID
 70
     1
 71
     0
 91
        1
 92
        1
 93
       18
 72
     1
 10
0.0001865656044393
 20
0.2563959993365415
 11
-0.0000000024618153
 21
0.113671428651383
 72
     1
 10
-0.0000000024618159
 20
0.1136714286513832
 11
0.0012126899688416
 21
0.1152572572145516
 72
     1
 10
0.0012126899688421
 20
0.1152572572145516
 11
0.0045709151614355
 21
0.1197348908046738
 72
     1
 10
0.004570915161435
 20
0.119734890804674
 11
0.0098881050497044
 21
0.1268244773223682
 72
     1
 10
0.0098881050497044
 20
0.1268244773223682
 11
0.0166978394680158
 21
0.1359663125688683
 72
     1
 10
0.016697839468016
 20
0.1359663125688683
 11
0.0248135503501131
 21
0.1467872604116651
 72
     1
 10
0.024813550350113
 20
0.1467872604116652
 11
0.0338621015634867
 21
0.1588209006851195
 72
     1
 10
0.0338621015634872
 20
0.1588209006851194
 11
0.0434703569756247
 21
0.1716940972567221
 72
     1
 10
0.0434703569756247
 20
0.1716940972567224
 11
0.0534517485202732
 21
0.1850337139939626
 72
     1
 10
0.0534517485202724
 20
0.1850337139939624
 11
0.0634331400649208
 21
0.1983733307312025
 72
     1
 10
0.0634331400649222
 20
0.1983733307312024
 11
0.0730413954770597
 21
0.2112465273028051
 72
     1
 10
0.0730413954770595
 20
0.2112465273028053
 11
0.0820899466904331
 21
0.2233734516093873
 72
     1
 10
0.0820899466904321
 20
0.2233734516093873
 11
0.0902056575725293
 21
0.2341943994521837
 72
     1
 10
0.0902056575725308
 20
0.2341943994521837
 11
0.0970153919908422
 21
0.2433362346986839
 72
     1
 10
0.0970153919908405
 20
0.2433362346986839
 11
0.1022392978459834
 21
0.2503325371832507
 72
     1
 10
0.1022392978459843
 20
0.2503325371832508
 11
0.1056908070717041
 21
0.2549034548065008
 72
     1
 10
0.1056908070717046
 20
0.254903454806501
 11
0.1069034995023621
 21
0.2564892833696694
 72
     1
 10
0.1069034995023625
 20
0.2564892833696695
 11
0.0001865656044399
 21
0.2563959993365418
 97
        0
 75
     0
 76
     1
 98
        1
 10
-0.3743130907707726
 20
-0.2500502867693841
1001
ACAD
1010
0.0
1020
0.0
1030
0.0
  0
HATCH
  5
7E82
330
7E7E
100
AcDbEntity
  8
Kawneer Logo-English
100
AcDbHatch
 10
0.0
 20
0.0
 30
0.0
210
0.0
220
0.0
230
1.0
  2
SOLID
 70
     1
 71
     0
 91
        2
 92
       16
 93
       76
 72
     1
 10
1.358402087941634
 20
0.1650709309046659
 11
1.358402087941634
 21
0.16796273593162
 72
     1
 10
1.358402087941634
 20
0.1679627359316202
 11
1.358402087941634
 21
0.1729067896873803
 72
     1
 10
1.358402087941634
 20
0.1729067896873803
 11
1.358402087941634
 21
0.1791568199069267
 72
     1
 10
1.358402087941634
 20
0.1791568199069267
 11
1.358402087941634
 21
0.1861531223914932
 72
     1
 10
1.358402087941634
 20
0.186153122391493
 11
1.358402087941634
 21
0.1931494248760595
 72
     1
 10
1.358402087941634
 20
0.1931494248760596
 11
1.358402087941634
 21
0.1994927391287338
 72
     1
 10
1.358402087941634
 20
0.1994927391287336
 11
1.358402087941634
 21
0.2044367928844937
 72
     1
 10
1.358402087941634
 20
0.2044367928844937
 11
1.358402087941634
 21
0.2072353138783208
 72
     1
 10
1.358402087941634
 20
0.2072353138783208
 11
1.359894632471676
 21
0.2072353138783208
 72
     1
 10
1.359894632471676
 20
0.2072353138783208
 11
1.362693153465502
 21
0.2072353138783208
 72
     1
 10
1.362693153465502
 20
0.2072353138783208
 11
1.366424514790605
 21
0.2072353138783208
 72
     1
 10
1.366424514790606
 20
0.2072353138783208
 11
1.371088716446983
 21
0.2072353138783208
 72
     1
 10
1.371088716446982
 20
0.2072353138783208
 11
1.376405906335254
 21
0.2072353138783208
 72
     1
 10
1.376405906335254
 20
0.2072353138783208
 11
1.382282800422289
 21
0.2072353138783208
 72
     1
 10
1.38228280042229
 20
0.2072353138783208
 11
1.388346262575581
 21
0.2072353138783208
 72
     1
 10
1.388346262575579
 20
0.2072353138783208
 11
1.394596292795125
 21
0.2072353138783208
 72
     1
 10
1.394596292795125
 20
0.2072353138783208
 11
1.400753038981545
 21
0.2072353138783208
 72
     1
 10
1.400753038981546
 20
0.2072353138783208
 11
1.406723217101709
 21
0.2072353138783208
 72
     1
 10
1.406723217101708
 20
0.2072353138783208
 11
1.412320259089362
 21
0.2072353138783208
 72
     1
 10
1.412320259089362
 20
0.2072353138783208
 11
1.417264312845122
 21
0.2072353138783208
 72
     1
 10
1.417264312845123
 20
0.2072353138783208
 11
1.421368810302735
 21
0.2072353138783208
 72
     1
 10
1.421368810302734
 20
0.2072353138783208
 11
1.424540467429071
 21
0.2072353138783208
 72
     1
 10
1.424540467429072
 20
0.2072353138783208
 11
1.426592716157878
 21
0.2072353138783208
 72
     1
 10
1.426592716157878
 20
0.2072353138783208
 11
1.427338988422898
 21
0.2072353138783208
 72
     1
 10
1.427338988422898
 20
0.2072353138783208
 11
1.430977065714873
 21
0.207142029845193
 72
     1
 10
1.430977065714872
 20
0.207142029845193
 11
1.434335290907465
 21
0.2068621777458102
 72
     1
 10
1.434335290907465
 20
0.2068621777458102
 11
1.435921119470633
 21
0.2066756096795552
 72
     1
 10
1.435921119470633
 20
0.206675609679555
 11
1.437413664000673
 21
0.2063957575801723
 72
     1
 10
1.437413664000674
 20
0.2063957575801723
 11
1.438906208530714
 21
0.2061159054807895
 72
     1
 10
1.438906208530714
 20
0.2061159054807898
 11
1.440398753060756
 21
0.2056494853151523
 72
     1
 10
1.440398753060756
 20
0.2056494853151521
 11
1.441704729524542
 21
0.2050897811163865
 72
     1
 10
1.441704729524542
 20
0.2050897811163866
 11
1.443010705988328
 21
0.204530076917621
 72
     1
 10
1.443010705988329
 20
0.204530076917621
 11
1.444223398418986
 21
0.2036905206194736
 72
     1
 10
1.444223398418985
 20
0.2036905206194736
 11
1.445436090849643
 21
0.2028509643213252
 72
     1
 10
1.445436090849643
 20
0.2028509643213252
 11
1.446555499247174
 21
0.2018248399569224
 72
     1
 10
1.446555499247173
 20
0.2018248399569223
 11
1.447581623611576
 21
0.2007054315593917
 72
     1
 10
1.447581623611578
 20
0.2007054315593915
 11
1.448607747975981
 21
0.1993061710624781
 72
     1
 10
1.448607747975981
 20
0.1993061710624781
 11
1.449540588307258
 21
0.1978136265324374
 72
     1
 10
1.449540588307256
 20
0.1978136265324373
 11
1.450380144605403
 21
0.1961345139361415
 72
     1
 10
1.450380144605404
 20
0.1961345139361415
 11
1.451126416870426
 21
0.1944554013398453
 72
     1
 10
1.451126416870426
 20
0.1944554013398454
 11
1.451592837036063
 21
0.1929628568098046
 72
     1
 10
1.451592837036062
 20
0.1929628568098046
 11
1.451965973168573
 21
0.1913770282466361
 72
     1
 10
1.451965973168574
 20
0.1913770282466361
 11
1.452245825267955
 21
0.1899777677497231
 72
     1
 10
1.452245825267954
 20
0.1899777677497231
 11
1.452432393334211
 21
0.188671791285937
 72
     1
 10
1.452432393334211
 20
0.1886717912859369
 11
1.452432393334211
 21
0.1874590988552789
 72
     1
 10
1.452432393334211
 20
0.1874590988552789
 11
1.452525677367338
 21
0.1863396904577482
 72
     1
 10
1.452525677367337
 20
0.1863396904577481
 11
1.452432393334211
 21
0.1844740097951972
 72
     1
 10
1.452432393334211
 20
0.1844740097951974
 11
1.452245825267955
 21
0.1827948971989012
 72
     1
 10
1.452245825267954
 20
0.1827948971989009
 11
1.451872689135445
 21
0.1810225005694773
 72
     1
 10
1.451872689135446
 20
0.1810225005694774
 11
1.451406268969809
 21
0.1794366720063093
 72
     1
 10
1.451406268969809
 20
0.1794366720063094
 11
1.450846564771043
 21
0.1779441274762682
 72
     1
 10
1.450846564771041
 20
0.1779441274762681
 11
1.450100292506021
 21
0.1764515829462274
 72
     1
 10
1.450100292506023
 20
0.1764515829462275
 11
1.449260736207875
 21
0.1750523224493141
 72
     1
 10
1.449260736207873
 20
0.1750523224493139
 11
1.448327895876597
 21
0.1737463459855283
 72
     1
 10
1.448327895876596
 20
0.1737463459855281
 11
1.44702191941281
 21
0.1723470854886151
 72
     1
 10
1.447021919412811
 20
0.1723470854886151
 11
1.445715942949025
 21
0.1711343930579568
 72
     1
 10
1.445715942949026
 20
0.1711343930579568
 11
1.444316682452114
 21
0.1700149846604262
 72
     1
 10
1.444316682452114
 20
0.1700149846604259
 11
1.442824137922072
 21
0.168988860296023
 72
     1
 10
1.442824137922072
 20
0.168988860296023
 11
1.441238309358904
 21
0.1682425880310024
 72
     1
 10
1.441238309358902
 20
0.1682425880310024
 11
1.439559196762608
 21
0.1674963157659821
 72
     1
 10
1.439559196762608
 20
0.1674963157659822
 11
1.437880084166311
 21
0.1669366115672166
 72
     1
 10
1.437880084166311
 20
0.1669366115672167
 11
1.436107687536888
 21
0.1664701914015788
 72
     1
 10
1.436107687536888
 20
0.1664701914015789
 11
1.434242006874337
 21
0.166003771235941
 72
     1
 10
1.434242006874337
 20
0.1660037712359412
 11
1.432376326211786
 21
0.1657239191365588
 72
     1
 10
1.432376326211785
 20
0.1657239191365585
 11
1.430417361516107
 21
0.1655373510703035
 72
     1
 10
1.430417361516108
 20
0.1655373510703037
 11
1.428458396820429
 21
0.1653507830040482
 72
     1
 10
1.428458396820428
 20
0.1653507830040482
 11
1.424353899362817
 21
0.1651642149377932
 72
     1
 10
1.424353899362817
 20
0.1651642149377932
 11
1.420156117872077
 21
0.1650709309046658
 72
     1
 10
1.420156117872076
 20
0.1650709309046659
 11
1.41773073301076
 21
0.1650709309046659
 72
     1
 10
1.417730733010761
 20
0.1650709309046659
 11
1.411107566658704
 21
0.1650709309046659
 72
     1
 10
1.411107566658702
 20
0.1650709309046659
 11
1.401779163345947
 21
0.1650709309046659
 72
     1
 10
1.401779163345949
 20
0.1650709309046659
 11
1.390958215503152
 21
0.1650709309046659
 72
     1
 10
1.390958215503152
 20
0.1650709309046659
 11
1.379950699594101
 21
0.1650709309046659
 72
     1
 10
1.379950699594099
 20
0.1650709309046659
 11
1.369969308049451
 21
0.1650709309046659
 72
     1
 10
1.369969308049451
 20
0.1650709309046659
 11
1.362320017332992
 21
0.1650709309046659
 72
     1
 10
1.362320017332992
 20
0.1650709309046659
 11
1.358402087941635
 21
0.1650709309046659
 97
        0
 92
        1
 93
      107
 72
     1
 10
1.443756978253348
 20
0.1485596570410883
 11
1.446928635379685
 21
0.1492126452729816
 72
     1
 10
1.446928635379685
 20
0.1492126452729817
 11
1.449540588307256
 21
0.1498656335048746
 72
     1
 10
1.449540588307256
 20
0.1498656335048745
 11
1.451872689135445
 21
0.1506119057698948
 72
     1
 10
1.451872689135446
 20
0.1506119057698946
 11
1.45401822189738
 21
0.1514514620680426
 72
     1
 10
1.45401822189738
 20
0.1514514620680425
 11
1.455883902559929
 21
0.1521977343330632
 72
     1
 10
1.455883902559929
 20
0.1521977343330631
 11
1.457563015156225
 21
0.1530372906312111
 72
     1
 10
1.457563015156225
 20
0.1530372906312111
 11
1.459148843719394
 21
0.1539701309624869
 72
     1
 10
1.459148843719394
 20
0.1539701309624866
 11
1.460641388249434
 21
0.1549029712937624
 72
     1
 10
1.460641388249434
 20
0.1549029712937622
 11
1.462133932779476
 21
0.155835811625038
 72
     1
 10
1.462133932779476
 20
0.155835811625038
 11
1.463439909243262
 21
0.1568619359894408
 72
     1
 10
1.463439909243262
 20
0.1568619359894408
 11
1.464745885707048
 21
0.1579813443869714
 72
     1
 10
1.464745885707047
 20
0.1579813443869716
 11
1.465865294104579
 21
0.1591007527845022
 72
     1
 10
1.465865294104579
 20
0.1591007527845025
 11
1.466984702502109
 21
0.1602201611820331
 72
     1
 10
1.466984702502108
 20
0.1602201611820328
 11
1.468010826866511
 21
0.1613395695795634
 72
     1
 10
1.468010826866511
 20
0.1613395695795637
 11
1.468943667197788
 21
0.1625522620102216
 72
     1
 10
1.468943667197788
 20
0.1625522620102216
 11
1.469876507529063
 21
0.1636716704077522
 72
     1
 10
1.469876507529063
 20
0.1636716704077524
 11
1.470622779794084
 21
0.1648843628384107
 72
     1
 10
1.470622779794084
 20
0.1648843628384107
 11
1.471462336092232
 21
0.1661903393021964
 72
     1
 10
1.471462336092232
 20
0.1661903393021967
 11
1.472115324324125
 21
0.1674030317328546
 72
     1
 10
1.472115324324124
 20
0.1674030317328546
 11
1.472768312556016
 21
0.1686157241635125
 72
     1
 10
1.472768312556017
 20
0.1686157241635125
 11
1.473328016754783
 21
0.1699217006272986
 72
     1
 10
1.473328016754782
 20
0.1699217006272989
 11
1.47379443692042
 21
0.1711343930579568
 72
     1
 10
1.47379443692042
 20
0.1711343930579568
 11
1.474260857086057
 21
0.1724403695217425
 72
     1
 10
1.474260857086058
 20
0.1724403695217424
 11
1.474727277251697
 21
0.1736530619524008
 72
     1
 10
1.474727277251697
 20
0.173653061952401
 11
1.475380265483589
 21
0.1760784468137175
 72
     1
 10
1.475380265483588
 20
0.1760784468137173
 11
1.475846685649225
 21
0.1785038316750338
 72
     1
 10
1.475846685649226
 20
0.1785038316750335
 11
1.476219821781737
 21
0.1808359325032223
 72
     1
 10
1.476219821781738
 20
0.1808359325032223
 11
1.47649967388112
 21
0.1830747492982838
 72
     1
 10
1.47649967388112
 20
0.1830747492982838
 11
1.476592957914248
 21
0.1851269980270901
 72
     1
 10
1.476592957914248
 20
0.1851269980270902
 11
1.476686241947374
 21
0.1870859627227688
 72
     1
 10
1.476686241947375
 20
0.1870859627227687
 11
1.476592957914249
 21
0.1888583593521923
 72
     1
 10
1.476592957914248
 20
0.1888583593521922
 11
1.476499673881119
 21
0.1906307559816158
 72
     1
 10
1.47649967388112
 20
0.1906307559816159
 11
1.476406389847991
 21
0.1924031526110394
 72
     1
 10
1.476406389847991
 20
0.1924031526110394
 11
1.476126537748608
 21
0.1940822652073352
 72
     1
 10
1.476126537748608
 20
0.1940822652073352
 11
1.475846685649226
 21
0.195761377803631
 72
     1
 10
1.475846685649226
 20
0.1957613778036309
 11
1.475566833549843
 21
0.1974404903999272
 72
     1
 10
1.475566833549843
 20
0.1974404903999272
 11
1.475100413384206
 21
0.1990263189630953
 72
     1
 10
1.475100413384205
 20
0.1990263189630952
 11
1.474633993218568
 21
0.2006121475262637
 72
     1
 10
1.474633993218568
 20
0.2006121475262639
 11
1.47416757305293
 21
0.2021046920563051
 72
     1
 10
1.474167573052932
 20
0.2021046920563049
 11
1.473514584821038
 21
0.2035972365863457
 72
     1
 10
1.473514584821037
 20
0.2035972365863459
 11
1.472954880622271
 21
0.2050897811163867
 72
     1
 10
1.472954880622272
 20
0.2050897811163866
 11
1.472208608357252
 21
0.2064890416133
 72
     1
 10
1.472208608357252
 20
0.2064890416133001
 11
1.471462336092232
 21
0.2078883021102135
 72
     1
 10
1.471462336092232
 20
0.2078883021102136
 11
1.470622779794083
 21
0.2091942785739993
 72
     1
 10
1.470622779794084
 20
0.2091942785739991
 11
1.469783223495935
 21
0.2105002550377848
 72
     1
 10
1.469783223495934
 20
0.2105002550377851
 11
1.468850383164659
 21
0.2118062315015707
 72
     1
 10
1.468850383164661
 20
0.2118062315015709
 11
1.467917542833386
 21
0.2130189239322288
 72
     1
 10
1.467917542833385
 20
0.2130189239322289
 11
1.466891418468982
 21
0.2141383323297595
 72
     1
 10
1.466891418468982
 20
0.2141383323297595
 11
1.465772010071451
 21
0.2153510247604178
 72
     1
 10
1.46577201007145
 20
0.215351024760418
 11
1.464652601673919
 21
0.2163771491248209
 72
     1
 10
1.46465260167392
 20
0.2163771491248209
 11
1.463533193276389
 21
0.2174032734892238
 72
     1
 10
1.463533193276389
 20
0.2174032734892238
 11
1.462227216812603
 21
0.2184293978536266
 72
     1
 10
1.462227216812602
 20
0.2184293978536266
 11
1.461014524381945
 21
0.2193622381849024
 72
     1
 10
1.461014524381946
 20
0.2193622381849023
 11
1.459615263885032
 21
0.2202950785161781
 72
     1
 10
1.459615263885031
 20
0.2202950785161782
 11
1.458309287421245
 21
0.2211346348143262
 72
     1
 10
1.458309287421246
 20
0.221134634814326
 11
1.456816742891206
 21
0.221974191112474
 72
     1
 10
1.456816742891206
 20
0.2219741911124738
 11
1.455417482394292
 21
0.2227204633774945
 72
     1
 10
1.455417482394291
 20
0.2227204633774944
 11
1.453831653831122
 21
0.2233734516093874
 72
     1
 10
1.453831653831123
 20
0.2233734516093873
 11
1.452339109301082
 21
0.2240264398412803
 72
     1
 10
1.452339109301082
 20
0.2240264398412803
 11
1.450659996704785
 21
0.2245861440400459
 72
     1
 10
1.450659996704787
 20
0.2245861440400457
 11
1.44907416814162
 21
0.2251458482388108
 72
     1
 10
1.449074168141619
 20
0.2251458482388109
 11
1.447301771512194
 21
0.2256122684044489
 72
     1
 10
1.447301771512194
 20
0.2256122684044488
 11
1.445249522783388
 21
0.2261719726032139
 72
     1
 10
1.445249522783388
 20
0.226171972603214
 11
1.44329055808771
 21
0.2265451087357246
 72
     1
 10
1.443290558087712
 20
0.2265451087357244
 11
1.441145025325778
 21
0.2269182448682345
 72
     1
 10
1.441145025325776
 20
0.2269182448682345
 11
1.438906208530714
 21
0.2271980969676173
 72
     1
 10
1.438906208530714
 20
0.2271980969676173
 11
1.436387539636271
 21
0.2273846650338724
 72
     1
 10
1.436387539636271
 20
0.2273846650338724
 11
1.433495734609316
 21
0.2275712331001274
 72
     1
 10
1.433495734609317
 20
0.2275712331001274
 11
1.430044225383597
 21
0.2276645171332552
 72
     1
 10
1.430044225383597
 20
0.2276645171332549
 11
1.42612629599224
 21
0.2277578011663822
 72
     1
 10
1.42612629599224
 20
0.2277578011663825
 11
1.426033011959112
 21
0.2277578011663825
 72
     1
 10
1.426033011959111
 20
0.2277578011663825
 11
1.33489451159349
 21
0.2277578011663825
 72
     1
 10
1.334894511593491
 20
0.2277578011663825
 11
1.334894511593491
 21
0.0926825211976832
 72
     1
 10
1.334894511593491
 20
0.0926825211976832
 11
1.358588656007891
 21
0.0926825211976832
 72
     1
 10
1.358588656007891
 20
0.0926825211976832
 11
1.358588656007891
 21
0.0947347699264896
 72
     1
 10
1.358588656007891
 20
0.0947347699264896
 11
1.358588656007891
 21
0.1001452438478876
 72
     1
 10
1.358588656007891
 20
0.1001452438478875
 11
1.358588656007891
 21
0.1079811026306024
 72
     1
 10
1.358588656007891
 20
0.1079811026306024
 11
1.358588656007891
 21
0.1170296538439752
 72
     1
 10
1.358588656007891
 20
0.1170296538439753
 11
1.358588656007891
 21
0.1262647731236032
 72
     1
 10
1.358588656007891
 20
0.1262647731236031
 11
1.358588656007891
 21
0.1347536201382103
 72
     1
 10
1.358588656007891
 20
0.1347536201382104
 11
1.358588656007891
 21
0.1412835024571394
 72
     1
 10
1.358588656007891
 20
0.1412835024571393
 11
1.358588656007891
 21
0.1448282957159864
 72
     1
 10
1.358588656007891
 20
0.1448282957159865
 11
1.362320017332992
 21
0.1448282957159865
 72
     1
 10
1.362320017332992
 20
0.1448282957159865
 11
1.369409603850688
 21
0.1448282957159865
 72
     1
 10
1.369409603850688
 20
0.1448282957159865
 11
1.378738007163443
 21
0.1448282957159865
 72
     1
 10
1.378738007163443
 20
0.1448282957159865
 11
1.388999250807475
 21
0.1448282957159865
 72
     1
 10
1.388999250807473
 20
0.1448282957159865
 11
1.399260494451505
 21
0.1448282957159865
 72
     1
 10
1.399260494451506
 20
0.1448282957159865
 11
1.408215761631749
 21
0.1448282957159865
 72
     1
 10
1.408215761631748
 20
0.1448282957159865
 11
1.414745643950677
 21
0.1448282957159865
 72
     1
 10
1.414745643950678
 20
0.1448282957159865
 11
1.41773073301076
 21
0.1448282957159865
 72
     1
 10
1.417730733010761
 20
0.1448282957159865
 11
1.420062833838949
 21
0.1420297747221594
 72
     1
 10
1.420062833838949
 20
0.1420297747221597
 11
1.425193455660966
 21
0.1359663125688683
 72
     1
 10
1.425193455660965
 20
0.1359663125688683
 11
1.432283042178659
 21
0.1275707495873888
 72
     1
 10
1.432283042178659
 20
0.1275707495873886
 11
1.440305469027628
 21
0.1180557782083779
 72
     1
 10
1.440305469027629
 20
0.1180557782083781
 11
1.448234611843471
 21
0.1087273748956225
 72
     1
 10
1.448234611843471
 20
0.1087273748956225
 11
1.455044346261782
 21
0.1006116640135252
 72
     1
 10
1.455044346261782
 20
0.1006116640135252
 11
1.459895115984414
 21
0.0948280539596167
 72
     1
 10
1.459895115984414
 20
0.0948280539596169
 11
1.461760796646965
 21
0.0926825211976832
 72
     1
 10
1.461760796646967
 20
0.0926825211976832
 11
1.49254452757906
 21
0.0926825211976832
 72
     1
 10
1.492544527579059
 20
0.0926825211976832
 11
1.490678846916508
 21
0.0948280539596169
 72
     1
 10
1.490678846916508
 20
0.0948280539596169
 11
1.48564150912762
 21
0.100518379980398
 72
     1
 10
1.48564150912762
 20
0.1005183799803981
 11
1.478458638576797
 21
0.1088206589287502
 72
     1
 10
1.478458638576798
 20
0.1088206589287502
 11
1.470063075595318
 21
0.1183356303077609
 72
     1
 10
1.470063075595317
 20
0.118335630307761
 11
1.461480944547582
 21
0.1282237378192818
 72
     1
 10
1.461480944547582
 20
0.1282237378192818
 11
1.453551801731739
 21
0.1372722890326546
 72
     1
 10
1.45355180173174
 20
0.1372722890326546
 11
1.447395055545323
 21
0.1444551595834761
 72
     1
 10
1.447395055545323
 20
0.1444551595834759
 11
1.443756978253349
 21
0.1485596570410882
 97
        0
 75
     0
 76
     1
 98
        1
 10
-0.3743130907707726
 20
-0.2500502867693841
1001
ACAD
1010
0.0
1020
0.0
1030
0.0
  0
HATCH
  5
7E83
330
7E7E
100
AcDbEntity
  8
Kawneer Logo-English
100
AcDbHatch
 10
0.0
 20
0.0
 30
0.0
210
0.0
220
0.0
230
1.0
  2
SOLID
 70
     1
 71
     0
 91
        1
 92
        1
 93
       87
 72
     1
 10
1.205602841678699
 20
0.1525708704655737
 11
1.207468522341251
 21
0.1525708704655737
 72
     1
 10
1.207468522341252
 20
0.1525708704655737
 11
1.211199883666355
 21
0.1525708704655737
 72
     1
 10
1.211199883666355
 20
0.1525708704655737
 11
1.216517073554626
 21
0.1525708704655737
 72
     1
 10
1.216517073554626
 20
0.1525708704655737
 11
1.223046955873555
 21
0.1525708704655737
 72
     1
 10
1.223046955873553
 20
0.1525708704655737
 11
1.230602962556885
 21
0.1525708704655737
 72
     1
 10
1.230602962556885
 20
0.1525708704655737
 11
1.238998525538365
 21
0.1525708704655737
 72
     1
 10
1.238998525538365
 20
0.1525708704655737
 11
1.247767224652354
 21
0.1525708704655737
 72
     1
 10
1.247767224652355
 20
0.1525708704655737
 11
1.256815775865728
 21
0.1525708704655737
 72
     1
 10
1.256815775865729
 20
0.1525708704655737
 11
1.265771043045974
 21
0.1525708704655737
 72
     1
 10
1.265771043045973
 20
0.1525708704655737
 11
1.274446458126836
 21
0.1525708704655737
 72
     1
 10
1.274446458126837
 20
0.1525708704655737
 11
1.282562169008935
 21
0.1525708704655737
 72
     1
 10
1.282562169008935
 20
0.1525708704655737
 11
1.289745039559756
 21
0.1525708704655737
 72
     1
 10
1.289745039559755
 20
0.1525708704655737
 11
1.295808501713046
 21
0.1525708704655737
 72
     1
 10
1.295808501713046
 20
0.1525708704655737
 11
1.300472703369423
 21
0.1525708704655737
 72
     1
 10
1.300472703369423
 20
0.1525708704655737
 11
1.303457792429505
 21
0.1525708704655737
 72
     1
 10
1.303457792429505
 20
0.1525708704655737
 11
1.304483916793908
 21
0.1525708704655737
 72
     1
 10
1.304483916793908
 20
0.1525708704655737
 11
1.304483916793908
 21
0.1730000737205081
 72
     1
 10
1.304483916793908
 20
0.1730000737205078
 11
1.303457792429505
 21
0.1730000737205078
 72
     1
 10
1.303457792429505
 20
0.1730000737205078
 11
1.300472703369423
 21
0.1730000737205078
 72
     1
 10
1.300472703369423
 20
0.1730000737205078
 11
1.295808501713045
 21
0.1730000737205078
 72
     1
 10
1.295808501713046
 20
0.1730000737205078
 11
1.289745039559754
 21
0.1730000737205078
 72
     1
 10
1.289745039559755
 20
0.1730000737205078
 11
1.282562169008934
 21
0.1730000737205078
 72
     1
 10
1.282562169008935
 20
0.1730000737205078
 11
1.274446458126837
 21
0.1730000737205078
 72
     1
 10
1.274446458126837
 20
0.1730000737205078
 11
1.265771043045975
 21
0.1730000737205078
 72
     1
 10
1.265771043045973
 20
0.1730000737205078
 11
1.256815775865728
 21
0.1730000737205078
 72
     1
 10
1.256815775865729
 20
0.1730000737205078
 11
1.247767224652355
 21
0.1730000737205078
 72
     1
 10
1.247767224652355
 20
0.1730000737205078
 11
1.238998525538365
 21
0.1730000737205078
 72
     1
 10
1.238998525538365
 20
0.1730000737205078
 11
1.230602962556885
 21
0.1730000737205078
 72
     1
 10
1.230602962556885
 20
0.1730000737205078
 11
1.223046955873553
 21
0.1730000737205078
 72
     1
 10
1.223046955873553
 20
0.1730000737205078
 11
1.216517073554625
 21
0.1730000737205078
 72
     1
 10
1.216517073554626
 20
0.1730000737205078
 11
1.211199883666355
 21
0.1730000737205078
 72
     1
 10
1.211199883666355
 20
0.1730000737205078
 11
1.207468522341252
 21
0.1730000737205078
 72
     1
 10
1.207468522341252
 20
0.1730000737205078
 11
1.205602841678701
 21
0.1730000737205078
 72
     1
 10
1.205602841678699
 20
0.1730000737205078
 11
1.205602841678699
 21
0.1754254585818243
 72
     1
 10
1.205602841678699
 20
0.1754254585818245
 11
1.205602841678699
 21
0.1794366720063095
 72
     1
 10
1.205602841678699
 20
0.1794366720063094
 11
1.205602841678699
 21
0.1843807257620694
 72
     1
 10
1.205602841678699
 20
0.1843807257620694
 11
1.205602841678699
 21
0.1898844837165951
 72
     1
 10
1.205602841678699
 20
0.1898844837165951
 11
1.205602841678699
 21
0.1952949576379935
 72
     1
 10
1.205602841678699
 20
0.1952949576379937
 11
1.205602841678699
 21
0.2003322954268815
 72
     1
 10
1.205602841678699
 20
0.2003322954268814
 11
1.205602841678699
 21
0.2042502248182386
 72
     1
 10
1.205602841678699
 20
0.2042502248182386
 11
1.205602841678699
 21
0.206675609679555
 72
     1
 10
1.205602841678699
 20
0.206675609679555
 11
1.207468522341251
 21
0.206675609679555
 72
     1
 10
1.207468522341252
 20
0.206675609679555
 11
1.211293167699483
 21
0.206675609679555
 72
     1
 10
1.211293167699483
 20
0.206675609679555
 11
1.21670364162088
 21
0.206675609679555
 72
     1
 10
1.216703641620879
 20
0.206675609679555
 11
1.223420092006063
 21
0.206675609679555
 72
     1
 10
1.223420092006064
 20
0.206675609679555
 11
1.231255950788778
 21
0.206675609679555
 72
     1
 10
1.231255950788778
 20
0.206675609679555
 11
1.239744797803386
 21
0.206675609679555
 72
     1
 10
1.239744797803385
 20
0.206675609679555
 11
1.248886633049885
 21
0.206675609679555
 72
     1
 10
1.248886633049885
 20
0.206675609679555
 11
1.258121752329513
 21
0.206675609679555
 72
     1
 10
1.258121752329514
 20
0.206675609679555
 11
1.267356871609143
 21
0.206675609679555
 72
     1
 10
1.267356871609142
 20
0.206675609679555
 11
1.276218854756259
 21
0.206675609679555
 72
     1
 10
1.276218854756259
 20
0.206675609679555
 11
1.284521133704611
 21
0.206675609679555
 72
     1
 10
1.284521133704611
 20
0.206675609679555
 11
1.291890572321688
 21
0.206675609679555
 72
     1
 10
1.291890572321688
 20
0.206675609679555
 11
1.298140602541234
 21
0.206675609679555
 72
     1
 10
1.298140602541234
 20
0.206675609679555
 11
1.30289808823074
 21
0.206675609679555
 72
     1
 10
1.30289808823074
 20
0.206675609679555
 11
1.305976461323949
 21
0.206675609679555
 72
     1
 10
1.305976461323949
 20
0.206675609679555
 11
1.30709586972148
 21
0.206675609679555
 72
     1
 10
1.307095869721479
 20
0.206675609679555
 11
1.307095869721479
 21
0.2277578011663822
 72
     1
 10
1.307095869721479
 20
0.2277578011663825
 11
1.304577200827036
 21
0.2277578011663825
 72
     1
 10
1.304577200827037
 20
0.2277578011663825
 11
1.182188549363684
 21
0.2277578011663825
 72
     1
 10
1.182188549363684
 20
0.2277578011663825
 11
1.182188549363684
 21
0.0926825211976832
 72
     1
 10
1.182188549363684
 20
0.0926825211976832
 11
1.311853355410986
 21
0.0926825211976832
 72
     1
 10
1.311853355410985
 20
0.0926825211976832
 11
1.311853355410985
 21
0.113671428651383
 72
     1
 10
1.311853355410985
 20
0.1136714286513832
 11
1.310733947013454
 21
0.1136714286513832
 72
     1
 10
1.310733947013455
 20
0.1136714286513832
 11
1.307469005853991
 21
0.1136714286513832
 72
     1
 10
1.307469005853991
 20
0.1136714286513832
 11
1.302431668065102
 21
0.1136714286513832
 72
     1
 10
1.302431668065103
 20
0.1136714286513832
 11
1.295901785746174
 21
0.1136714286513832
 72
     1
 10
1.295901785746174
 20
0.1136714286513832
 11
1.288159210996586
 21
0.1136714286513832
 72
     1
 10
1.288159210996587
 20
0.1136714286513832
 11
1.279483795915724
 21
0.1136714286513832
 72
     1
 10
1.279483795915723
 20
0.1136714286513832
 11
1.270155392602968
 21
0.1136714286513832
 72
     1
 10
1.270155392602969
 20
0.1136714286513832
 11
1.260547137190832
 21
0.1136714286513832
 72
     1
 10
1.260547137190831
 20
0.1136714286513832
 11
1.250752313712437
 21
0.1136714286513832
 72
     1
 10
1.250752313712437
 20
0.1136714286513832
 11
1.241330626366554
 21
0.1136714286513832
 72
     1
 10
1.241330626366555
 20
0.1136714286513832
 11
1.23237535918631
 21
0.1136714286513832
 72
     1
 10
1.232375359186308
 20
0.1136714286513832
 11
1.224166364271082
 21
0.1136714286513832
 72
     1
 10
1.224166364271083
 20
0.1136714286513832
 11
1.217170061786517
 21
0.1136714286513832
 72
     1
 10
1.217170061786517
 20
0.1136714286513832
 11
1.211479735765737
 21
0.1136714286513832
 72
     1
 10
1.211479735765737
 20
0.1136714286513832
 11
1.20756180637438
 21
0.1136714286513832
 72
     1
 10
1.207561806374379
 20
0.1136714286513832
 11
1.2056028416787
 21
0.1136714286513832
 72
     1
 10
1.205602841678699
 20
0.1136714286513832
 11
1.205602841678699
 21
0.1163766656120825
 72
     1
 10
1.205602841678699
 20
0.1163766656120823
 11
1.205602841678699
 21
0.1209475832353323
 72
     1
 10
1.205602841678699
 20
0.1209475832353325
 11
1.205602841678699
 21
0.1267311932892411
 72
     1
 10
1.205602841678699
 20
0.1267311932892408
 11
1.205602841678699
 21
0.1330745075419143
 72
     1
 10
1.205602841678699
 20
0.1330745075419144
 11
1.205602841678699
 21
0.1395111058277156
 72
     1
 10
1.205602841678699
 20
0.1395111058277158
 11
1.205602841678699
 21
0.1452947158816239
 72
     1
 10
1.205602841678699
 20
0.145294715881624
 11
1.205602841678699
 21
0.1498656335048746
 72
     1
 10
1.205602841678699
 20
0.1498656335048745
 11
1.205602841678699
 21
0.1525708704655738
 97
        0
 75
     0
 76
     1
 98
        1
 10
-0.3743130907707726
 20
-0.2500502867693841
1001
ACAD
1010
0.0
1020
0.0
1030
0.0
  0
HATCH
  5
7E84
330
7E7E
100
AcDbEntity
  8
Kawneer Logo-English
100
AcDbHatch
 10
0.0
 20
0.0
 30
0.0
210
0.0
220
0.0
230
1.0
  2
SOLID
 70
     1
 71
     0
 91
        1
 92
        1
 93
       87
 72
     1
 10
1.049352086190046
 20
0.1525708704655737
 11
1.051217766852597
 21
0.1525708704655737
 72
     1
 10
1.051217766852596
 20
0.1525708704655737
 11
1.054949128177699
 21
0.1525708704655737
 72
     1
 10
1.0549491281777
 20
0.1525708704655737
 11
1.060173034032843
 21
0.1525708704655737
 72
     1
 10
1.060173034032843
 20
0.1525708704655737
 11
1.0667962003849
 21
0.1525708704655737
 72
     1
 10
1.0667962003849
 20
0.1525708704655737
 11
1.074352207068231
 21
0.1525708704655737
 72
     1
 10
1.074352207068232
 20
0.1525708704655737
 11
1.082747770049711
 21
0.1525708704655737
 72
     1
 10
1.082747770049711
 20
0.1525708704655737
 11
1.0915164691637
 21
0.1525708704655737
 72
     1
 10
1.091516469163701
 20
0.1525708704655737
 11
1.100565020377075
 21
0.1525708704655737
 72
     1
 10
1.100565020377073
 20
0.1525708704655737
 11
1.109520287557319
 21
0.1525708704655737
 72
     1
 10
1.10952028755732
 20
0.1525708704655737
 11
1.118195702638183
 21
0.1525708704655737
 72
     1
 10
1.118195702638182
 20
0.1525708704655737
 11
1.126218129487151
 21
0.1525708704655737
 72
     1
 10
1.126218129487152
 20
0.1525708704655737
 11
1.133401000037974
 21
0.1525708704655737
 72
     1
 10
1.133401000037974
 20
0.1525708704655737
 11
1.139557746224391
 21
0.1525708704655737
 72
     1
 10
1.139557746224392
 20
0.1525708704655737
 11
1.14422194788077
 21
0.1525708704655737
 72
     1
 10
1.144221947880769
 20
0.1525708704655737
 11
1.147207036940851
 21
0.1525708704655737
 72
     1
 10
1.147207036940852
 20
0.1525708704655737
 11
1.148233161305255
 21
0.1525708704655737
 72
     1
 10
1.148233161305255
 20
0.1525708704655737
 11
1.148233161305255
 21
0.1730000737205081
 72
     1
 10
1.148233161305255
 20
0.1730000737205078
 11
1.147207036940852
 21
0.1730000737205078
 72
     1
 10
1.147207036940852
 20
0.1730000737205078
 11
1.14422194788077
 21
0.1730000737205078
 72
     1
 10
1.144221947880769
 20
0.1730000737205078
 11
1.139557746224391
 21
0.1730000737205078
 72
     1
 10
1.139557746224392
 20
0.1730000737205078
 11
1.133494284071101
 21
0.1730000737205078
 72
     1
 10
1.133494284071101
 20
0.1730000737205078
 11
1.126218129487152
 21
0.1730000737205078
 72
     1
 10
1.126218129487152
 20
0.1730000737205078
 11
1.118195702638183
 21
0.1730000737205078
 72
     1
 10
1.118195702638182
 20
0.1730000737205078
 11
1.10952028755732
 21
0.1730000737205078
 72
     1
 10
1.10952028755732
 20
0.1730000737205078
 11
1.100565020377074
 21
0.1730000737205078
 72
     1
 10
1.100565020377073
 20
0.1730000737205078
 11
1.0915164691637
 21
0.1730000737205078
 72
     1
 10
1.091516469163701
 20
0.1730000737205078
 11
1.082747770049712
 21
0.1730000737205078
 72
     1
 10
1.082747770049711
 20
0.1730000737205078
 11
1.074352207068231
 21
0.1730000737205078
 72
     1
 10
1.074352207068232
 20
0.1730000737205078
 11
1.0667962003849
 21
0.1730000737205078
 72
     1
 10
1.0667962003849
 20
0.1730000737205078
 11
1.060173034032843
 21
0.1730000737205078
 72
     1
 10
1.060173034032843
 20
0.1730000737205078
 11
1.054949128177701
 21
0.1730000737205078
 72
     1
 10
1.0549491281777
 20
0.1730000737205078
 11
1.051217766852597
 21
0.1730000737205078
 72
     1
 10
1.051217766852596
 20
0.1730000737205078
 11
1.049352086190045
 21
0.1730000737205078
 72
     1
 10
1.049352086190046
 20
0.1730000737205078
 11
1.049352086190046
 21
0.1754254585818243
 72
     1
 10
1.049352086190046
 20
0.1754254585818245
 11
1.049352086190046
 21
0.1794366720063095
 72
     1
 10
1.049352086190046
 20
0.1794366720063094
 11
1.049352086190046
 21
0.1843807257620694
 72
     1
 10
1.049352086190046
 20
0.1843807257620694
 11
1.049352086190046
 21
0.1898844837165951
 72
     1
 10
1.049352086190046
 20
0.1898844837165951
 11
1.049352086190046
 21
0.1952949576379935
 72
     1
 10
1.049352086190046
 20
0.1952949576379937
 11
1.049352086190046
 21
0.2003322954268815
 72
     1
 10
1.049352086190046
 20
0.2003322954268814
 11
1.049352086190046
 21
0.2042502248182386
 72
     1
 10
1.049352086190046
 20
0.2042502248182386
 11
1.049352086190046
 21
0.206675609679555
 72
     1
 10
1.049352086190046
 20
0.206675609679555
 11
1.051217766852597
 21
0.206675609679555
 72
     1
 10
1.051217766852596
 20
0.206675609679555
 11
1.055042412210825
 21
0.206675609679555
 72
     1
 10
1.055042412210827
 20
0.206675609679555
 11
1.060452886132226
 21
0.206675609679555
 72
     1
 10
1.060452886132225
 20
0.206675609679555
 11
1.067169336517409
 21
0.206675609679555
 72
     1
 10
1.06716933651741
 20
0.206675609679555
 11
1.075005195300124
 21
0.206675609679555
 72
     1
 10
1.075005195300123
 20
0.206675609679555
 11
1.083494042314731
 21
0.206675609679555
 72
     1
 10
1.083494042314732
 20
0.206675609679555
 11
1.092542593528105
 21
0.206675609679555
 72
     1
 10
1.092542593528106
 20
0.206675609679555
 11
1.10187099684086
 21
0.206675609679555
 72
     1
 10
1.101870996840861
 20
0.206675609679555
 11
1.111106116120489
 21
0.206675609679555
 72
     1
 10
1.111106116120488
 20
0.206675609679555
 11
1.119968099267605
 21
0.206675609679555
 72
     1
 10
1.119968099267605
 20
0.206675609679555
 11
1.128270378215957
 21
0.206675609679555
 72
     1
 10
1.128270378215957
 20
0.206675609679555
 11
1.135639816833034
 21
0.206675609679555
 72
     1
 10
1.135639816833034
 20
0.206675609679555
 11
1.14188984705258
 21
0.206675609679555
 72
     1
 10
1.141889847052581
 20
0.206675609679555
 11
1.146647332742086
 21
0.206675609679555
 72
     1
 10
1.146647332742086
 20
0.206675609679555
 11
1.149725705835295
 21
0.206675609679555
 72
     1
 10
1.149725705835296
 20
0.206675609679555
 11
1.150845114232827
 21
0.206675609679555
 72
     1
 10
1.150845114232826
 20
0.206675609679555
 11
1.150845114232826
 21
0.2277578011663822
 72
     1
 10
1.150845114232826
 20
0.2277578011663825
 11
1.148326445338383
 21
0.2277578011663825
 72
     1
 10
1.148326445338383
 20
0.2277578011663825
 11
1.025937793875031
 21
0.2277578011663825
 72
     1
 10
1.025937793875032
 20
0.2277578011663825
 11
1.025937793875032
 21
0.0926825211976832
 72
     1
 10
1.025937793875032
 20
0.0926825211976832
 11
1.155602599922332
 21
0.0926825211976832
 72
     1
 10
1.155602599922332
 20
0.0926825211976832
 11
1.155602599922332
 21
0.113671428651383
 72
     1
 10
1.155602599922332
 20
0.1136714286513832
 11
1.154483191524801
 21
0.1136714286513832
 72
     1
 10
1.154483191524799
 20
0.1136714286513832
 11
1.151218250365336
 21
0.1136714286513832
 72
     1
 10
1.151218250365338
 20
0.1136714286513832
 11
1.146180912576449
 21
0.1136714286513832
 72
     1
 10
1.146180912576449
 20
0.1136714286513832
 11
1.13965103025752
 21
0.1136714286513832
 72
     1
 10
1.13965103025752
 20
0.1136714286513832
 11
1.131908455507932
 21
0.1136714286513832
 72
     1
 10
1.131908455507931
 20
0.1136714286513832
 11
1.12323304042707
 21
0.1136714286513832
 72
     1
 10
1.123233040427071
 20
0.1136714286513832
 11
1.113904637114314
 21
0.1136714286513832
 72
     1
 10
1.113904637114314
 20
0.1136714286513832
 11
1.104296381702177
 21
0.1136714286513832
 72
     1
 10
1.104296381702177
 20
0.1136714286513832
 11
1.094501558223783
 21
0.1136714286513832
 72
     1
 10
1.094501558223784
 20
0.1136714286513832
 11
1.085079870877901
 21
0.1136714286513832
 72
     1
 10
1.085079870877899
 20
0.1136714286513832
 11
1.076124603697654
 21
0.1136714286513832
 72
     1
 10
1.076124603697655
 20
0.1136714286513832
 11
1.067915608782429
 21
0.1136714286513832
 72
     1
 10
1.067915608782429
 20
0.1136714286513832
 11
1.060919306297863
 21
0.1136714286513832
 72
     1
 10
1.060919306297863
 20
0.1136714286513832
 11
1.055228980277083
 21
0.1136714286513832
 72
     1
 10
1.055228980277082
 20
0.1136714286513832
 11
1.051311050885725
 21
0.1136714286513832
 72
     1
 10
1.051311050885726
 20
0.1136714286513832
 11
1.049352086190046
 21
0.1136714286513832
 72
     1
 10
1.049352086190046
 20
0.1136714286513832
 11
1.049352086190046
 21
0.1163766656120825
 72
     1
 10
1.049352086190046
 20
0.1163766656120823
 11
1.049352086190046
 21
0.1209475832353323
 72
     1
 10
1.049352086190046
 20
0.1209475832353325
 11
1.049352086190046
 21
0.1267311932892411
 72
     1
 10
1.049352086190046
 20
0.1267311932892408
 11
1.049352086190046
 21
0.1330745075419143
 72
     1
 10
1.049352086190046
 20
0.1330745075419144
 11
1.049352086190046
 21
0.1395111058277156
 72
     1
 10
1.049352086190046
 20
0.1395111058277158
 11
1.049352086190046
 21
0.1452947158816239
 72
     1
 10
1.049352086190046
 20
0.145294715881624
 11
1.049352086190046
 21
0.1498656335048746
 72
     1
 10
1.049352086190046
 20
0.1498656335048745
 11
1.049352086190046
 21
0.1525708704655738
 97
        0
 75
     0
 76
     1
 98
        1
 10
-0.3743130907707726
 20
-0.2500502867693841
1001
ACAD
1010
0.0
1020
0.0
1030
0.0
  0
HATCH
  5
7E85
330
7E7E
100
AcDbEntity
  8
Kawneer Logo-English
100
AcDbHatch
 10
0.0
 20
0.0
 30
0.0
210
0.0
220
0.0
230
1.0
  2
SOLID
 70
     1
 71
     0
 91
        1
 92
        1
 93
       42
 72
     1
 10
0.9725793269260698
 20
0.2277578011663825
 11
0.9725793269260698
 21
0.1354998924032311
 72
     1
 10
0.9725793269260698
 20
0.1354998924032311
 11
0.9729524630585808
 21
0.1264513411898582
 72
     1
 10
0.9729524630585796
 20
0.1264513411898583
 11
0.9729524630585796
 21
0.1255185008585825
 72
     1
 10
0.9729524630585796
 20
0.1255185008585824
 11
0.9731390311248343
 21
0.1238393882622866
 72
     1
 10
0.9731390311248349
 20
0.1238393882622866
 11
0.9717397706279211
 21
0.1254252168254551
 72
     1
 10
0.97173977062792
 20
0.1254252168254551
 11
0.9710867823960281
 21
0.1262647731236031
 72
     1
 10
0.9710867823960294
 20
0.1262647731236031
 11
0.9641837639445897
 21
0.1339140638400625
 72
     1
 10
0.9641837639445899
 20
0.1339140638400624
 11
0.8755639324734129
 21
0.2277578011663823
 72
     1
 10
0.8755639324734115
 20
0.2277578011663825
 11
0.8529891964565429
 21
0.2277578011663825
 72
     1
 10
0.8529891964565434
 20
0.2277578011663825
 11
0.8529891964565434
 21
0.0926825211976832
 72
     1
 10
0.8529891964565434
 20
0.0926825211976832
 11
0.8756572165065401
 21
0.0926825211976832
 72
     1
 10
0.875657216506541
 20
0.0926825211976832
 11
0.875657216506541
 21
0.1927762887435495
 72
     1
 10
0.875657216506541
 20
0.1927762887435495
 11
0.875657216506541
 21
0.1931494248760597
 72
     1
 10
0.875657216506541
 20
0.1931494248760596
 11
0.8755639324734129
 21
0.193988981174208
 72
     1
 10
0.8755639324734115
 20
0.1939889811742079
 11
0.8754706484402849
 21
0.1952949576379935
 72
     1
 10
0.8754706484402859
 20
0.1952949576379937
 11
0.8753773644071577
 21
0.1967875021680344
 72
     1
 10
0.875377364407158
 20
0.1967875021680343
 11
0.8755639324734126
 21
0.1965076500686515
 72
     1
 10
0.8755639324734115
 20
0.1965076500686517
 11
0.8756572165065396
 21
0.1963210820023967
 72
     1
 10
0.875657216506541
 20
0.1963210820023967
 11
0.8764967728046894
 21
0.1954815257042487
 72
     1
 10
0.8764967728046887
 20
0.1954815257042488
 11
0.8781758854009835
 21
0.1936158450416976
 72
     1
 10
0.8781758854009842
 20
0.1936158450416973
 11
0.8797617139641527
 21
0.1917501643791464
 72
     1
 10
0.879761713964152
 20
0.1917501643791466
 11
0.8805079862291723
 21
0.1909106080809982
 72
     1
 10
0.8805079862291727
 20
0.190910608080998
 11
0.8816273946267036
 21
0.1897911996834678
 72
     1
 10
0.8816273946267028
 20
0.1897911996834681
 11
0.884519199653657
 21
0.1867128265902584
 72
     1
 10
0.8845191996536581
 20
0.1867128265902582
 11
0.8891834013100353
 21
0.1818620568676254
 72
     1
 10
0.889183401310035
 20
0.1818620568676252
 11
0.8951535794301982
 21
0.1756120266480794
 72
     1
 10
0.8951535794301985
 20
0.1756120266480794
 11
0.9021498819147662
 21
0.1681493039978751
 72
     1
 10
0.9021498819147669
 20
0.1681493039978752
 11
0.9099857406974814
 21
0.1598470250495227
 72
     1
 10
0.9099857406974813
 20
0.1598470250495225
 11
0.9183813036789613
 21
0.1509850419024051
 72
     1
 10
0.9183813036789612
 20
0.1509850419024052
 11
0.9271500027929521
 21
0.1418432066559046
 72
     1
 10
0.9271500027929509
 20
0.1418432066559046
 11
0.9358254178738118
 21
0.1326080873762767
 72
     1
 10
0.9358254178738132
 20
0.1326080873762767
 11
0.9442209808552931
 21
0.1237461042291589
 72
     1
 10
0.9442209808552931
 20
0.1237461042291589
 11
0.9520568396380092
 21
0.1154438252808068
 72
     1
 10
0.9520568396380092
 20
0.1154438252808068
 11
0.9590531421225751
 21
0.1079811026306025
 72
     1
 10
0.959053142122574
 20
0.1079811026306024
 11
0.9650233202427372
 21
0.101731072411056
 72
     1
 10
0.9650233202427376
 20
0.101731072411056
 11
0.9695942378659868
 21
0.0968803026884232
 72
     1
 10
0.9695942378659871
 20
0.096880302688423
 11
0.9725793269260696
 21
0.0938019295952138
 72
     1
 10
0.9725793269260698
 20
0.093801929595214
 11
0.9736054512904727
 21
0.0926825211976834
 72
     1
 10
0.9736054512904726
 20
0.0926825211976832
 11
0.9952473469760661
 21
0.0926825211976832
 72
     1
 10
0.9952473469760651
 20
0.0926825211976832
 11
0.9952473469760651
 21
0.2277578011663825
 72
     1
 10
0.9952473469760651
 20
0.2277578011663825
 11
0.9927286780816201
 21
0.2277578011663825
 72
     1
 10
0.9927286780816203
 20
0.2277578011663825
 11
0.9725793269260686
 21
0.2277578011663825
 97
        0
 75
     0
 76
     1
 98
        1
 10
-0.3743130907707726
 20
-0.2500502867693841
1001
ACAD
1010
0.0
1020
0.0
1030
0.0
  0
HATCH
  5
7E86
330
7E7E
100
AcDbEntity
  8
Kawneer Logo-English
100
AcDbHatch
 10
0.0
 20
0.0
 30
0.0
210
0.0
220
0.0
230
1.0
  2
SOLID
 70
     1
 71
     0
 91
        2
 92
       16
 93
       32
 72
     1
 10
0.5269615006757409
 20
0.144641727649731
 11
0.5290137494045469
 21
0.148652941074216
 72
     1
 10
0.5290137494045464
 20
0.1486529410742159
 11
0.5322786905640116
 21
0.1551828233931449
 72
     1
 10
0.532278690564012
 20
0.1551828233931452
 11
0.5364764720547521
 21
0.1633918183083696
 72
     1
 10
0.5364764720547526
 20
0.1633918183083696
 11
0.5409541056448736
 21
0.1722538014554874
 72
     1
 10
0.5409541056448726
 20
0.1722538014554873
 11
0.545338455201869
 21
0.1808359325032223
 72
     1
 10
0.5453384552018701
 20
0.1808359325032223
 11
0.5490698165269726
 21
0.1882053711202994
 72
     1
 10
0.549069816526973
 20
0.1882053711202996
 11
0.5515884854214162
 21
0.1932427089091875
 72
     1
 10
0.5515884854214148
 20
0.1932427089091872
 11
0.5526146097858177
 21
0.1952016736048658
 72
     1
 10
0.5526146097858194
 20
0.1952016736048658
 11
0.552801177852074
 21
0.195761377803631
 72
     1
 10
0.5528011778520723
 20
0.1957613778036309
 11
0.5533608820508379
 21
0.1970673542674166
 72
     1
 10
0.5533608820508378
 20
0.1970673542674169
 11
0.5542004383489863
 21
0.1990263189630955
 72
     1
 10
0.5542004383489872
 20
0.1990263189630952
 11
0.5550399946471356
 21
0.2012651357581567
 72
     1
 10
0.5550399946471352
 20
0.2012651357581567
 11
0.5555064148127727
 21
0.2001457273606265
 72
     1
 10
0.5555064148127729
 20
0.2001457273606264
 11
0.5560661190115385
 21
0.198933034929968
 72
     1
 10
0.5560661190115379
 20
0.198933034929968
 11
0.5567191072434298
 21
0.197533774433055
 72
     1
 10
0.5567191072434304
 20
0.197533774433055
 11
0.5574653795084506
 21
0.1959479458698865
 72
     1
 10
0.557465379508451
 20
0.1959479458698865
 11
0.5583049358065995
 21
0.1942688332735902
 72
     1
 10
0.5583049358065986
 20
0.1942688332735903
 11
0.5606370366347874
 21
0.1896046316172126
 72
     1
 10
0.5606370366347871
 20
0.1896046316172126
 11
0.5639952618273804
 21
0.1828881812320289
 72
     1
 10
0.5639952618273814
 20
0.1828881812320287
 11
0.5680064752518651
 21
0.1748657543830587
 72
     1
 10
0.5680064752518637
 20
0.1748657543830589
 11
0.57239082480886
 21
0.1661903393021966
 72
     1
 10
0.5723908248088612
 20
0.1661903393021967
 11
0.5765886062996012
 21
0.1577947763207168
 72
     1
 10
0.5765886062996
 20
0.1577947763207165
 11
0.5803199676247008
 21
0.1503320536705122
 72
     1
 10
0.5803199676247015
 20
0.1503320536705122
 11
0.5831184886185295
 21
0.144641727649731
 72
     1
 10
0.5831184886185295
 20
0.144641727649731
 11
0.5791072751940441
 21
0.144641727649731
 72
     1
 10
0.5791072751940436
 20
0.144641727649731
 11
0.5724841088419869
 21
0.144641727649731
 72
     1
 10
0.5724841088419872
 20
0.144641727649731
 11
0.5641818298936356
 21
0.144641727649731
 72
     1
 10
0.5641818298936352
 20
0.144641727649731
 11
0.5550399946471351
 21
0.144641727649731
 72
     1
 10
0.5550399946471352
 20
0.144641727649731
 11
0.5458981594006351
 21
0.144641727649731
 72
     1
 10
0.5458981594006352
 20
0.144641727649731
 11
0.5375958804522815
 21
0.144641727649731
 72
     1
 10
0.5375958804522814
 20
0.144641727649731
 11
0.5310659981333528
 21
0.144641727649731
 72
     1
 10
0.5310659981333524
 20
0.144641727649731
 11
0.5269615006757405
 21
0.144641727649731
 97
        0
 92
        1
 93
      141
 72
     1
 10
0.5656743744236757
 20
0.2277578011663825
 11
0.544405614870593
 21
0.2277578011663825
 72
     1
 10
0.544405614870593
 20
0.2277578011663825
 11
0.4748157261574382
 21
0.0934287934627039
 72
     1
 10
0.4748157261574378
 20
0.0934287934627039
 11
0.4729500454948865
 21
0.0955743262246376
 72
     1
 10
0.4729500454948874
 20
0.0955743262246376
 11
0.4699649564348049
 21
0.0991191194834847
 72
     1
 10
0.4699649564348043
 20
0.0991191194834847
 11
0.4661403110765752
 21
0.1036900371067346
 72
     1
 10
0.4661403110765754
 20
0.1036900371067347
 11
0.4615693934533244
 21
0.1091005110281331
 72
     1
 10
0.461569393453325
 20
0.109100511028133
 11
0.456345487598182
 21
0.1152572572145517
 72
     1
 10
0.4563454875981812
 20
0.1152572572145516
 11
0.4506551615774008
 21
0.1219737075997353
 72
     1
 10
0.4506551615774015
 20
0.1219737075997354
 11
0.4447782674903648
 21
0.1290632941174296
 72
     1
 10
0.4447782674903636
 20
0.1290632941174296
 11
0.4387148053370722
 21
0.1362461646682511
 72
     1
 10
0.4387148053370727
 20
0.1362461646682512
 11
0.4326513431837832
 21
0.1433357511859454
 72
     1
 10
0.4326513431837844
 20
0.1433357511859453
 11
0.4268677331298759
 21
0.1502387696373844
 72
     1
 10
0.4268677331298756
 20
0.1502387696373844
 11
0.4214572592084763
 21
0.1566753679231857
 72
     1
 10
0.4214572592084754
 20
0.1566753679231858
 11
0.4165132054527153
 21
0.1625522620102216
 72
     1
 10
0.4165132054527163
 20
0.1625522620102216
 11
0.4123154239619763
 21
0.1674963157659821
 72
     1
 10
0.4123154239619753
 20
0.1674963157659822
 11
0.4088639147362555
 21
0.1715075291904667
 72
     1
 10
0.4088639147362568
 20
0.1715075291904669
 11
0.4065318139080681
 21
0.1743993342174211
 72
     1
 10
0.4065318139080665
 20
0.1743993342174211
 11
0.405319121477409
 21
0.1757985947143345
 72
     1
 10
0.4053191214774104
 20
0.1757985947143345
 11
0.4067183819743243
 21
0.1769180031118651
 72
     1
 10
0.4067183819743235
 20
0.1769180031118651
 11
0.4094236189350213
 21
0.1788769678075437
 72
     1
 10
0.4094236189350218
 20
0.1788769678075437
 11
0.4132482642932526
 21
0.1816754888013702
 72
     1
 10
0.4132482642932525
 20
0.1816754888013703
 11
0.4179124659496298
 21
0.1852202820602174
 72
     1
 10
0.417912465949629
 20
0.1852202820602174
 11
0.4232296558379
 21
0.189138211451575
 72
     1
 10
0.4232296558379001
 20
0.1891382114515751
 11
0.4291065499249351
 21
0.1935225610085696
 72
     1
 10
0.4291065499249367
 20
0.1935225610085698
 11
0.4352632961113562
 21
0.1981867626649482
 72
     1
 10
0.4352632961113554
 20
0.1981867626649479
 11
0.4416066103640296
 21
0.2028509643213252
 72
     1
 10
0.4416066103640293
 20
0.2028509643213252
 11
0.4479499246167016
 21
0.2076084500108307
 72
     1
 10
0.4479499246167018
 20
0.2076084500108307
 11
0.4540133867699932
 21
0.2120860836009535
 72
     1
 10
0.4540133867699927
 20
0.2120860836009535
 11
0.4596104287576467
 21
0.2162838650916932
 72
     1
 10
0.4596104287576468
 20
0.216283865091693
 11
0.4646477665465351
 21
0.2200152264167952
 72
     1
 10
0.464647766546535
 20
0.2200152264167951
 11
0.4689388320704013
 21
0.223186883543132
 72
     1
 10
0.4689388320704016
 20
0.2231868835431323
 11
0.4721104891967386
 21
0.2256122684044488
 72
     1
 10
0.4721104891967376
 20
0.2256122684044488
 11
0.4742560219586717
 21
0.2271980969676172
 72
     1
 10
0.4742560219586727
 20
0.2271980969676173
 11
0.475002294223693
 21
0.2277578011663825
 72
     1
 10
0.4750022942236929
 20
0.2277578011663825
 11
0.4674462875403612
 21
0.2277578011663825
 72
     1
 10
0.4674462875403611
 20
0.2277578011663825
 11
0.4395543616352215
 21
0.2277578011663825
 72
     1
 10
0.439554361635222
 20
0.2277578011663825
 11
0.4386215213039473
 21
0.2270115289013622
 72
     1
 10
0.4386215213039466
 20
0.2270115289013622
 11
0.4359162843432469
 21
0.2250525642056836
 72
     1
 10
0.4359162843432465
 20
0.2250525642056836
 11
0.4318117868856346
 21
0.2220674751456017
 72
     1
 10
0.4318117868856351
 20
0.2220674751456017
 11
0.4264013129642376
 21
0.2180562617211167
 72
     1
 10
0.4264013129642379
 20
0.2180562617211168
 11
0.4200579987115638
 21
0.2132987760316117
 72
     1
 10
0.4200579987115641
 20
0.2132987760316114
 11
0.4128751281607416
 21
0.2079815861433408
 72
     1
 10
0.4128751281607408
 20
0.2079815861433408
 11
0.4051325534111546
 21
0.20229126012256
 72
     1
 10
0.4051325534111552
 20
0.20229126012256
 11
0.397016842529058
 21
0.1963210820023964
 72
     1
 10
0.3970168425290583
 20
0.1963210820023967
 11
0.3889011316469611
 21
0.1903509038822331
 72
     1
 10
0.3889011316469611
 20
0.190350903882233
 11
0.3808787047979902
 21
0.1844740097951972
 72
     1
 10
0.3808787047979898
 20
0.1844740097951974
 11
0.3733226981146581
 21
0.1787836837744166
 72
     1
 10
0.373322698114658
 20
0.1787836837744166
 11
0.3663263956300919
 21
0.173653061952401
 72
     1
 10
0.3663263956300931
 20
0.173653061952401
 11
0.3601696494436735
 21
0.169082144329151
 72
     1
 10
0.3601696494436726
 20
0.1690821443291508
 11
0.3550390276216579
 21
0.1653507830040483
 72
     1
 10
0.3550390276216584
 20
0.1653507830040482
 11
0.3513076662965558
 21
0.1625522620102218
 72
     1
 10
0.3513076662965551
 20
0.1625522620102216
 11
0.3490688495014928
 21
0.1609664334470531
 72
     1
 10
0.3490688495014926
 20
0.1609664334470531
 11
0.3490688495014926
 21
0.1631119662089868
 72
     1
 10
0.3490688495014926
 20
0.1631119662089868
 11
0.3490688495014926
 21
0.1662836233353237
 72
     1
 10
0.3490688495014926
 20
0.1662836233353238
 11
0.3490688495014926
 21
0.1702948367598088
 72
     1
 10
0.3490688495014926
 20
0.1702948367598088
 11
0.3490688495014926
 21
0.1749590384161865
 72
     1
 10
0.3490688495014926
 20
0.1749590384161865
 11
0.3490688495014926
 21
0.1801829442713294
 72
     1
 10
0.3490688495014926
 20
0.1801829442713296
 11
0.3490688495014926
 21
0.185779986258983
 72
     1
 10
0.3490688495014926
 20
0.1857799862589829
 11
0.3490688495014926
 21
0.1916568803460187
 72
     1
 10
0.3490688495014926
 20
0.1916568803460186
 11
0.3490688495014926
 21
0.1975337744330549
 72
     1
 10
0.3490688495014926
 20
0.197533774433055
 11
0.3490688495014926
 21
0.2033173844869632
 72
     1
 10
0.3490688495014926
 20
0.2033173844869631
 11
0.3490688495014926
 21
0.2088211424414888
 72
     1
 10
0.3490688495014926
 20
0.2088211424414888
 11
0.3490688495014926
 21
0.2139517642635044
 72
     1
 10
0.3490688495014926
 20
0.2139517642635044
 11
0.3490688495014926
 21
0.2185226818867544
 72
     1
 10
0.3490688495014926
 20
0.2185226818867545
 11
0.3490688495014926
 21
0.2222540432118567
 72
     1
 10
0.3490688495014926
 20
0.2222540432118567
 11
0.3490688495014926
 21
0.2252391322719387
 72
     1
 10
0.3490688495014926
 20
0.2252391322719387
 11
0.3490688495014926
 21
0.2271048129344895
 72
     1
 10
0.3490688495014926
 20
0.2271048129344895
 11
0.3490688495014926
 21
0.2277578011663825
 72
     1
 10
0.3490688495014926
 20
0.2277578011663825
 11
0.3258411252527322
 21
0.2277578011663825
 72
     1
 10
0.3258411252527336
 20
0.2277578011663825
 11
0.3258411252527336
 21
0.0926825211976832
 72
     1
 10
0.3258411252527336
 20
0.0926825211976832
 11
0.3486957133689848
 21
0.0926825211976832
 72
     1
 10
0.3486957133689845
 20
0.0926825211976832
 11
0.3486957133689845
 21
0.0943616337939795
 72
     1
 10
0.3486957133689845
 20
0.0943616337939795
 11
0.3486957133689845
 21
0.0988392673841017
 72
     1
 10
0.3486957133689845
 20
0.0988392673841017
 11
0.3486957133689845
 21
0.1051825816367752
 72
     1
 10
0.3486957133689845
 20
0.1051825816367753
 11
0.3486957133689845
 21
0.1125520202538523
 72
     1
 10
0.3486957133689845
 20
0.1125520202538524
 11
0.3486957133689845
 21
0.1200147429040567
 72
     1
 10
0.3486957133689845
 20
0.1200147429040567
 11
0.3486957133689845
 21
0.1267311932892408
 72
     1
 10
0.3486957133689845
 20
0.1267311932892408
 11
0.3486957133689845
 21
0.1317685310781287
 72
     1
 10
0.3486957133689845
 20
0.1317685310781289
 11
0.3486957133689845
 21
0.1342871999725727
 72
     1
 10
0.3486957133689845
 20
0.1342871999725725
 11
0.3507479620977905
 21
0.1356864604694859
 72
     1
 10
0.35074796209779
 20
0.1356864604694859
 11
0.3548524595554018
 21
0.1387648335626952
 72
     1
 10
0.3548524595554015
 20
0.1387648335626952
 11
0.3605427855761835
 21
0.1428693310203079
 72
     1
 10
0.3605427855761842
 20
0.1428693310203079
 11
0.3668860998288565
 21
0.1476268167098129
 72
     1
 10
0.3668860998288568
 20
0.1476268167098129
 11
0.373322698114659
 21
0.1522910183661906
 72
     1
 10
0.373322698114658
 20
0.1522910183661908
 11
0.3791995922016947
 21
0.1565820838900582
 72
     1
 10
0.3791995922016946
 20
0.1565820838900582
 11
0.3836772257918156
 21
0.1599403090826502
 72
     1
 10
0.3836772257918159
 20
0.1599403090826503
 11
0.386195894686261
 21
0.1618059897452011
 72
     1
 10
0.3861958946862609
 20
0.1618059897452011
 11
0.3873153030837921
 21
0.1604067292482882
 72
     1
 10
0.3873153030837915
 20
0.1604067292482878
 11
0.3894608358457238
 21
0.1577947763207163
 72
     1
 10
0.3894608358457248
 20
0.1577947763207165
 11
0.3925392089389353
 21
0.1541566990287417
 72
     1
 10
0.3925392089389348
 20
0.1541566990287417
 11
0.396457138330292
 21
0.149492497372364
 72
     1
 10
0.3964571383302933
 20
0.149492497372364
 11
0.4009347719204161
 21
0.1442685915172211
 72
     1
 10
0.4009347719204146
 20
0.1442685915172209
 11
0.4057855416430466
 21
0.138391697430185
 72
     1
 10
0.4057855416430463
 20
0.1383916974301853
 11
0.4109161634650628
 21
0.1322349512437666
 72
     1
 10
0.410916163465064
 20
0.1322349512437666
 11
0.4162333533533335
 21
0.1259849210242201
 72
     1
 10
0.4162333533533334
 20
0.1259849210242201
 11
0.4215505432416044
 21
0.1196416067715466
 72
     1
 10
0.4215505432416045
 20
0.1196416067715466
 11
0.4265878810304927
 21
0.113671428651383
 72
     1
 10
0.4265878810304931
 20
0.1136714286513832
 11
0.4312520826868704
 21
0.1079811026306024
 72
     1
 10
0.4312520826868696
 20
0.1079811026306024
 11
0.4355431482107378
 21
0.1029437648417141
 72
     1
 10
0.435543148210738
 20
0.1029437648417139
 11
0.4390879414695842
 21
0.0987459833509739
 72
     1
 10
0.4390879414695843
 20
0.0987459833509741
 11
0.4417931784302841
 21
0.0954810421915098
 72
     1
 10
0.4417931784302845
 20
0.0954810421915096
 11
0.4435655750597076
 21
0.0934287934627037
 72
     1
 10
0.4435655750597074
 20
0.0934287934627039
 11
0.4442185632915993
 21
0.0926825211976832
 72
     1
 10
0.4442185632915985
 20
0.0926825211976832
 11
0.4743493059918004
 21
0.0926825211976832
 72
     1
 10
0.4743493059918001
 20
0.0926825211976832
 11
0.4753754303562029
 21
0.0926825211976832
 72
     1
 10
0.4753754303562033
 20
0.0926825211976832
 11
0.5008419714000258
 21
0.0926825211976832
 72
     1
 10
0.5008419714000265
 20
0.0926825211976832
 11
0.5014949596319184
 21
0.0939884976614689
 72
     1
 10
0.501494959631919
 20
0.0939884976614688
 11
0.5031740722282155
 21
0.0973467228540609
 72
     1
 10
0.503174072228215
 20
0.0973467228540612
 11
0.5055061730564038
 21
0.1021042085435666
 72
     1
 10
0.505506173056403
 20
0.1021042085435665
 11
0.5083046940502291
 21
0.1077012505312196
 72
     1
 10
0.5083046940502292
 20
0.1077012505312194
 11
0.5111032150440553
 21
0.1134848605851279
 72
     1
 10
0.5111032150440549
 20
0.1134848605851281
 11
0.5137151679716264
 21
0.1186154824071433
 72
     1
 10
0.5137151679716277
 20
0.1186154824071433
 11
0.5156741326673071
 21
0.1226266958316283
 72
     1
 10
0.5156741326673076
 20
0.122626695831628
 11
0.5167002570317104
 21
0.1247722285935621
 72
     1
 10
0.5167002570317103
 20
0.1247722285935622
 11
0.5180062334954961
 21
0.1247722285935622
 72
     1
 10
0.5180062334954961
 20
0.1247722285935622
 11
0.5207114704561957
 21
0.1247722285935622
 72
     1
 10
0.5207114704561944
 20
0.1247722285935622
 11
0.5246293998475517
 21
0.1247722285935622
 72
     1
 10
0.5246293998475525
 20
0.1247722285935622
 11
0.5295734536033125
 21
0.1247722285935622
 72
     1
 10
0.5295734536033115
 20
0.1247722285935622
 11
0.5352637796240919
 21
0.1247722285935622
 72
     1
 10
0.5352637796240929
 20
0.1247722285935622
 11
0.5415138098436386
 21
0.1247722285935622
 72
     1
 10
0.5415138098436394
 20
0.1247722285935622
 11
0.5482302602288245
 21
0.1247722285935622
 72
     1
 10
0.5482302602288236
 20
0.1247722285935622
 11
0.5551332786802616
 21
0.1247722285935622
 72
     1
 10
0.5551332786802608
 20
0.1247722285935622
 11
0.5620362971317004
 21
0.1247722285935622
 72
     1
 10
0.5620362971317015
 20
0.1247722285935622
 11
0.5687527475168847
 21
0.1247722285935622
 72
     1
 10
0.5687527475168839
 20
0.1247722285935622
 11
0.5750027777364317
 21
0.1247722285935622
 72
     1
 10
0.5750027777364322
 20
0.1247722285935622
 11
0.5806931037572126
 21
0.1247722285935622
 72
     1
 10
0.5806931037572119
 20
0.1247722285935622
 11
0.585637157512972
 21
0.1247722285935622
 72
     1
 10
0.5856371575129727
 20
0.1247722285935622
 11
0.5895550869043299
 21
0.1247722285935622
 72
     1
 10
0.5895550869043289
 20
0.1247722285935622
 11
0.5922603238650286
 21
0.1247722285935622
 72
     1
 10
0.5922603238650291
 20
0.1247722285935622
 11
0.5935663003288148
 21
0.1247722285935622
 72
     1
 10
0.5935663003288148
 20
0.1247722285935622
 11
0.5945924246932176
 21
0.1226266958316281
 72
     1
 10
0.5945924246932175
 20
0.122626695831628
 11
0.5965513893888953
 21
0.1186154824071431
 72
     1
 10
0.5965513893888957
 20
0.1186154824071433
 11
0.5991633423164672
 21
0.1134848605851281
 72
     1
 10
0.5991633423164667
 20
0.1134848605851281
 11
0.6019618633102946
 21
0.1077012505312196
 72
     1
 10
0.6019618633102959
 20
0.1077012505312194
 11
0.604760384304122
 21
0.1021042085435664
 72
     1
 10
0.6047603843041221
 20
0.1021042085435665
 11
0.6070924851323109
 21
0.0973467228540611
 72
     1
 10
0.6070924851323101
 20
0.0973467228540612
 11
0.6087715977286067
 21
0.0939884976614691
 72
     1
 10
0.6087715977286062
 20
0.0939884976614688
 11
0.609424585960498
 21
0.0926825211976832
 72
     1
 10
0.6094245859604986
 20
0.0926825211976832
 11
0.6363836715343633
 21
0.0926825211976832
 72
     1
 10
0.6363836715343641
 20
0.0926825211976832
 11
0.5671669189537184
 21
0.2277578011663825
 72
     1
 10
0.5671669189537179
 20
0.2277578011663825
 11
0.5656743744236758
 21
0.2277578011663825
 97
        0
 75
     0
 76
     1
 98
        1
 10
-0.3743130907707726
 20
-0.2500502867693841
1001
ACAD
1010
0.0
1020
0.0
1030
0.0
  0
HATCH
  5
7E87
330
7E7E
100
AcDbEntity
  8
Kawneer Logo-English
100
AcDbHatch
 10
0.0
 20
0.0
 30
0.0
210
0.0
220
0.0
230
1.0
  2
SOLID
 70
     1
 71
     0
 91
        1
 92
        1
 93
       69
 72
     1
 10
0.8092389849197205
 20
0.2277578011663825
 11
0.778921674153266
 21
0.1309289747799811
 72
     1
 10
0.778921674153267
 20
0.1309289747799809
 11
0.7781754018882468
 21
0.1287834420180468
 72
     1
 10
0.7781754018882468
 20
0.1287834420180467
 11
0.7776156976894812
 21
0.1270110453886236
 72
     1
 10
0.7776156976894813
 20
0.1270110453886237
 11
0.7771492775238438
 21
0.1253319327923275
 72
     1
 10
0.7771492775238436
 20
0.1253319327923274
 11
0.7766828573582045
 21
0.1238393882622867
 72
     1
 10
0.7766828573582046
 20
0.1238393882622866
 11
0.7764030052588217
 21
0.1248655126266895
 72
     1
 10
0.776403005258822
 20
0.1248655126266896
 11
0.7761231531594392
 21
0.1259849210242202
 72
     1
 10
0.7761231531594391
 20
0.1259849210242201
 11
0.7759365850931844
 21
0.1268244773223681
 72
     1
 10
0.7759365850931843
 20
0.1268244773223682
 11
0.7758433010600562
 21
0.1271976134548783
 72
     1
 10
0.7758433010600552
 20
0.1271976134548783
 11
0.7755634489606744
 21
0.1280371697530267
 72
     1
 10
0.775563448960674
 20
0.1280371697530267
 11
0.7750970287950349
 21
0.1291565781505569
 72
     1
 10
0.7750970287950363
 20
0.1291565781505568
 11
0.773977620397507
 21
0.1323282352768938
 72
     1
 10
0.7739776203975062
 20
0.1323282352768939
 11
0.7721119397349549
 21
0.1372722890326544
 72
     1
 10
0.7721119397349554
 20
0.1372722890326546
 11
0.7697798389067666
 21
0.1436156032853281
 72
     1
 10
0.769779838906767
 20
0.1436156032853281
 11
0.7670746019460673
 21
0.1511716099686602
 72
     1
 10
0.7670746019460668
 20
0.15117160996866
 11
0.7639962288528581
 21
0.1595671729501399
 72
     1
 10
0.7639962288528582
 20
0.15956717295014
 11
0.7606380036602665
 21
0.1686157241635125
 72
     1
 10
0.7606380036602652
 20
0.1686157241635125
 11
0.7572797784676718
 21
0.1778508434431408
 72
     1
 10
0.7572797784676726
 20
0.1778508434431408
 11
0.753921553275081
 21
0.187179246755896
 72
     1
 10
0.7539215532750814
 20
0.1871792467558961
 11
0.7505633280824898
 21
0.1962277979692689
 72
     1
 10
0.7505633280824902
 20
0.1962277979692689
 11
0.7474849549892814
 21
0.2046233609507488
 72
     1
 10
0.7474849549892797
 20
0.2046233609507488
 11
0.74477971802858
 21
0.2121793676340809
 72
     1
 10
0.7447797180285814
 20
0.2121793676340809
 11
0.7424476172003926
 21
0.2185226818867544
 72
     1
 10
0.7424476172003929
 20
0.2185226818867545
 11
0.7405819365378416
 21
0.2234667356425151
 72
     1
 10
0.7405819365378408
 20
0.2234667356425151
 11
0.7394625281403098
 21
0.2266383927688516
 72
     1
 10
0.7394625281403103
 20
0.2266383927688516
 11
0.7390893920078009
 21
0.2277578011663822
 72
     1
 10
0.7390893920078004
 20
0.2277578011663825
 11
0.7191266089185034
 21
0.2277578011663825
 72
     1
 10
0.7191266089185029
 20
0.2277578011663825
 11
0.6843316645619254
 21
0.1336342117406798
 72
     1
 10
0.6843316645619267
 20
0.1336342117406795
 11
0.6832122561643957
 21
0.130649122680598
 72
     1
 10
0.6832122561643961
 20
0.1306491226805981
 11
0.6823726998662476
 21
0.1282237378192816
 72
     1
 10
0.6823726998662468
 20
0.1282237378192818
 11
0.6817197116343549
 21
0.1260782050573481
 72
     1
 10
0.6817197116343552
 20
0.1260782050573481
 11
0.6811600074355896
 21
0.1241192403616695
 72
     1
 10
0.6811600074355884
 20
0.1241192403616695
 11
0.6808801553362055
 21
0.1250520806929446
 72
     1
 10
0.6808801553362059
 20
0.1250520806929445
 11
0.6805070192036949
 21
0.1261714890904751
 72
     1
 10
0.680507019203696
 20
0.1261714890904752
 11
0.6802271671043131
 21
0.1272908974880058
 72
     1
 10
0.680227167104313
 20
0.1272908974880061
 11
0.6798540309718037
 21
0.1286901579849195
 72
     1
 10
0.6798540309718031
 20
0.1286901579849194
 11
0.6794808948392922
 21
0.12980956638245
 72
     1
 10
0.6794808948392932
 20
0.1298095663824503
 11
0.6784547704748904
 21
0.1328879394756595
 72
     1
 10
0.67845477047489
 20
0.1328879394756595
 11
0.6769622259448497
 21
0.1378319932314196
 72
     1
 10
0.6769622259448496
 20
0.1378319932314196
 11
0.6750032612491701
 21
0.1441753074840938
 72
     1
 10
0.6750032612491697
 20
0.1441753074840937
 11
0.6725778763878547
 21
0.1516380301342981
 72
     1
 10
0.6725778763878556
 20
0.1516380301342981
 11
0.6699659234602841
 21
0.160033593115778
 72
     1
 10
0.6699659234602829
 20
0.160033593115778
 11
0.6671674024664549
 21
0.168988860296023
 72
     1
 10
0.6671674024664554
 20
0.168988860296023
 11
0.6642755974395012
 21
0.1782239795756509
 72
     1
 10
0.6642755974395019
 20
0.178223979575651
 11
0.6613837924125477
 21
0.1874590988552789
 72
     1
 10
0.6613837924125466
 20
0.1874590988552789
 11
0.6585852714187205
 21
0.1964143660355239
 72
     1
 10
0.6585852714187204
 20
0.1964143660355237
 11
0.6559733184911489
 21
0.2047166449838762
 72
     1
 10
0.6559733184911494
 20
0.2047166449838765
 11
0.6536412176629606
 21
0.2122726516672082
 72
     1
 10
0.6536412176629614
 20
0.2122726516672082
 11
0.6515889689341538
 21
0.2186159659198823
 72
     1
 10
0.6515889689341537
 20
0.2186159659198821
 11
0.6500964244041133
 21
0.2234667356425149
 72
     1
 10
0.6500964244041132
 20
0.2234667356425151
 11
0.6490703000397104
 21
0.2266383927688516
 72
     1
 10
0.6490703000397105
 20
0.2266383927688516
 11
0.6487904479403276
 21
0.2277578011663822
 72
     1
 10
0.648790447940328
 20
0.2277578011663825
 11
0.6237903270621445
 21
0.2277578011663825
 72
     1
 10
0.6237903270621437
 20
0.2277578011663825
 11
0.6676338226320932
 21
0.0926825211976832
 72
     1
 10
0.6676338226320926
 20
0.0926825211976832
 11
0.6922608073777669
 21
0.0926825211976832
 72
     1
 10
0.6922608073777666
 20
0.0926825211976832
 11
0.726029627369941
 21
0.1855001341596003
 72
     1
 10
0.7260296273699423
 20
0.1855001341596003
 11
0.7269624677012189
 21
0.1882986551534267
 72
     1
 10
0.7269624677012177
 20
0.1882986551534266
 11
0.7278020239993661
 21
0.1906307559816158
 72
     1
 10
0.727802023999367
 20
0.1906307559816159
 11
0.7284550122312589
 21
0.1927762887435496
 72
     1
 10
0.7284550122312581
 20
0.1927762887435495
 11
0.7290147164300237
 21
0.1947352534392281
 72
     1
 10
0.7290147164300232
 20
0.1947352534392282
 11
0.7298542727281716
 21
0.192216584544784
 72
     1
 10
0.729854272728173
 20
0.1922165845447839
 11
0.7306938290263214
 21
0.1894180635509575
 72
     1
 10
0.7306938290263206
 20
0.1894180635509575
 11
0.7318132374238499
 21
0.1863396904577483
 72
     1
 10
0.7318132374238511
 20
0.1863396904577481
 11
0.7331192138876387
 21
0.1827016131657736
 72
     1
 10
0.7331192138876382
 20
0.1827016131657737
 11
0.7654887733828987
 21
0.0926825211976834
 72
     1
 10
0.7654887733828986
 20
0.0926825211976832
 11
0.7895560539298075
 21
0.0926825211976832
 72
     1
 10
0.7895560539298075
 20
0.0926825211976832
 11
0.8341458217647785
 21
0.2277578011663825
 72
     1
 10
0.8341458217647783
 20
0.2277578011663825
 11
0.830601028505932
 21
0.2277578011663825
 72
     1
 10
0.8306010285059324
 20
0.2277578011663825
 11
0.8092389849197216
 21
0.2277578011663825
 97
        0
 75
     0
 76
     1
 98
        1
 10
-0.3743130907707726
 20
-0.2500502867693841
1001
ACAD
1010
0.0
1020
0.0
1030
0.0
  0
ENDBLK
  5
7E8B
330
7E7E
100
AcDbEntity
  8
0
100
AcDbBlockEnd
  0
ENDSEC
  0
SECTION
  2
ENTITIES
  0
ARC
  5
578A
330
17
100
AcDbEntity
  8
R-SWTS-DET2
100
AcDbCircle
 10
48.93916986821377
 20
32.09346799287857
 30
0.0
 40
0.005
100
AcDbArc
 50
202.5000000000001
 51
337.5
  0
LINE
  5
578B
330
17
100
AcDbEntity
  8
R-SWTS-DET2
100
AcDbLine
 10
48.94378926587632
 20
32.09155457571674
 30
0.0
 11
49.03416983821377
 21
32.30975257922884
 31
0.0
  0
LINE
  5
578C
330
17
100
AcDbEntity
  8
R-SWTS-DET2
100
AcDbLine
 10
48.93455047055121
 20
32.09155457571674
 30
0.0
 11
48.84416989821376
 21
32.30975257922884
 31
0.0
  0
LINE
  5
578D
330
17
100
AcDbEntity
  8
R-SWTS-DET2
100
AcDbLine
 10
48.75266986821377
 20
33.15496788287857
 30
0.0
 11
48.75266986821377
 21
33.08846799287856
 31
0.0
  0
LINE
  5
578E
330
17
100
AcDbEntity
  8
R-SWTS-DET2
100
AcDbLine
 10
49.12566986821377
 20
33.15496788287857
 30
0.0
 11
49.12566986821377
 21
33.08846799287856
 31
0.0
  0
LINE
  5
578F
330
17
100
AcDbEntity
  8
R-SWTS-DET2
100
AcDbLine
 10
48.84416989821376
 20
33.08846799287856
 30
0.0
 11
48.84416989821376
 21
32.30975257922884
 31
0.0
  0
LINE
  5
5790
330
17
100
AcDbEntity
  8
R-SWTS-DET2
100
AcDbLine
 10
49.03416983821377
 20
33.08846799287856
 30
0.0
 11
49.03416983821377
 21
32.30975257922884
 31
0.0
  0
ARC
  5
5791
330
17
100
AcDbEntity
  8
R-SWTS-DET2
100
AcDbCircle
 10
48.93916986821377
 20
32.92669749287856
 30
0.0
 40
0.2947704
100
AcDbArc
 50
50.75070000000007
 51
129.2492999999999
  0
LINE
  5
5795
330
17
100
AcDbEntity
  8
R-ANNO-DIMS
100
AcDbLine
 10
44.86603436313383
 20
32.58699208580926
 30
0.0
 11
43.93603436313383
 21
32.58699208580926
 31
0.0
  0
LINE
  5
579A
330
17
100
AcDbEntity
  8
R-ANNO-DIMS
100
AcDbLine
 10
46.39126713457155
 20
32.71145584407982
 30
0.0
 11
43.84511418565688
 21
32.71145584407982
 31
0.0
  0
LINE
  5
579B
330
17
100
AcDbEntity
  8
R-ANNO-DIMS
100
AcDbLine
 10
44.08627310642192
 20
32.96145584407983
 30
0.0
 11
44.08627310642192
 21
35.5997069136783
 31
0.0
  0
SOLID
  5
579C
330
17
100
AcDbEntity
  8
R-ANNO-DIMS
100
AcDbTrace
 10
44.04460643975525
 20
32.96145584407983
 30
0.0
 11
44.12793977308859
 21
32.96145584407983
 31
0.0
 12
44.08627310642192
 22
32.71145584407983
 32
0.0
 13
44.08627310642192
 23
32.71145584407983
 33
0.0
  0
SOLID
  5
579D
330
17
100
AcDbEntity
  8
R-ANNO-DIMS
100
AcDbTrace
 10
44.04460643975526
 20
35.56985011443422
 30
0.0
 11
44.12793977308859
 21
35.56985011443422
 31
0.0
 12
44.08627310642192
 22
35.81985011443422
 32
0.0
 13
44.08627310642192
 23
35.81985011443422
 33
0.0
  0
MTEXT
  5
579E
330
17
100
AcDbEntity
  8
R-ANNO-DIMS
100
AcDbMText
 10
43.86127310642193
 20
34.19834358115159
 30
0.0
 40
0.25
 41
0.0
 71
     5
 72
     1
  1
VENT SIZE
 11
0.0000000000000001
 21
1.0
 31
0.0
 73
     1
 44
1.0
1001
ACAD
1000
MTEXTBEGIN
1070
    73
1070
     1
1070
    44
1040
1.0
1070
    74
1070
     0
1000
MTEXTEND
  0
LINE
  5
579F
330
17
100
AcDbEntity
  8
R-ANNO-DIMS
100
AcDbLine
 10
48.21786730322509
 20
32.71149208581065
 30
0.0
 11
44.56103436313383
 21
32.71149208581065
 31
0.0
  0
LINE
  5
57A0
330
17
100
AcDbEntity
  8
R-ANNO-DIMS
100
AcDbLine
 10
44.86603436313383
 20
32.58699208580926
 30
0.0
 11
44.56103436313383
 21
32.58699208580926
 31
0.0
  0
LINE
  5
57A1
330
17
100
AcDbEntity
  8
R-ANNO-DIMS
100
AcDbLine
 10
44.08627310642192
 20
32.96149208581065
 30
0.0
 11
44.08627310642192
 21
33.21149208581065
 31
0.0
  0
SOLID
  5
57A3
330
17
100
AcDbEntity
  8
R-ANNO-DIMS
100
AcDbTrace
 10
44.04460643975525
 20
32.96149208581065
 30
0.0
 11
44.12793977308859
 21
32.96149208581065
 31
0.0
 12
44.08627310642192
 22
32.71149208581066
 32
0.0
 13
44.08627310642192
 23
32.71149208581066
 33
0.0
  0
LINE
  5
57AB
330
17
100
AcDbEntity
  8
R-SWTS-DET3
100
AcDbLine
 10
49.22078354767318
 20
33.08745584459375
 30
0.0
 11
49.16900370375455
 21
33.14274659835189
 31
0.0
  0
LINE
  5
57AC
330
17
100
AcDbEntity
  8
R-SWTS-DET3
100
AcDbLine
 10
49.16900370375455
 20
33.14274659835189
 30
0.0
 11
49.15754882328039
 21
33.19997854355837
 31
0.0
  0
LINE
  5
57AD
330
17
100
AcDbEntity
  8
R-SWTS-DET3
100
AcDbLine
 10
49.15754882328039
 20
33.19997854355837
 30
0.0
 11
49.11745655991184
 21
33.2057017501517
 31
0.0
  0
LINE
  5
57AE
330
17
100
AcDbEntity
  8
R-SWTS-DET3
100
AcDbLine
 10
49.11745655991184
 20
33.2057017501517
 30
0.0
 11
49.08309181465566
 21
33.25721048876483
 31
0.0
  0
LINE
  5
57AF
330
17
100
AcDbEntity
  8
R-SWTS-DET3
100
AcDbLine
 10
49.08309181465566
 20
33.25721048876483
 30
0.0
 11
49.0315446188961
 21
33.24004089916655
 31
0.0
  0
LINE
  5
57B0
330
17
100
AcDbEntity
  8
R-SWTS-DET3
100
AcDbLine
 10
49.0315446188961
 20
33.24004089916655
 30
0.0
 11
48.99717987363992
 21
33.25721048876483
 31
0.0
  0
LINE
  5
57B1
330
17
100
AcDbEntity
  8
R-SWTS-DET3
100
AcDbLine
 10
48.99717987363992
 20
33.25721048876483
 30
0.0
 11
48.96281507646688
 21
33.24576410575988
 31
0.0
  0
LINE
  5
57B2
330
17
100
AcDbEntity
  8
R-SWTS-DET3
100
AcDbLine
 10
48.96281507646688
 20
33.24576410575988
 30
0.0
 11
48.91126793262417
 21
33.26293369535817
 31
0.0
  0
LINE
  5
57B3
330
17
100
AcDbEntity
  8
R-SWTS-DET3
100
AcDbLine
 10
48.91126793262417
 20
33.26293369535817
 30
0.0
 11
48.88835806784214
 21
33.25148731235322
 31
0.0
  0
LINE
  5
57B4
330
17
100
AcDbEntity
  8
R-SWTS-DET3
100
AcDbLine
 10
48.88835806784214
 20
33.25148731235322
 30
0.0
 11
48.84826585639046
 21
33.25721048876483
 31
0.0
  0
LINE
  5
57B5
330
17
100
AcDbEntity
  8
R-SWTS-DET3
100
AcDbLine
 10
48.84826585639046
 20
33.25721048876483
 30
0.0
 11
48.81390111113425
 21
33.24004089916655
 31
0.0
  0
LINE
  5
57B6
330
17
100
AcDbEntity
  8
R-SWTS-DET3
100
AcDbLine
 10
48.81390111113425
 20
33.24004089916655
 30
0.0
 11
48.77953631396123
 21
33.24004089916655
 31
0.0
  0
LINE
  5
57B7
330
17
100
AcDbEntity
  8
R-SWTS-DET3
100
AcDbLine
 10
48.77953631396123
 20
33.24004089916655
 30
0.0
 11
48.75662644917921
 21
33.21142492656332
 31
0.0
  0
LINE
  5
57B8
330
17
100
AcDbEntity
  8
R-SWTS-DET3
100
AcDbLine
 10
48.75662644917921
 20
33.21142492656332
 30
0.0
 11
48.73371663631402
 21
33.2057017501517
 31
0.0
  0
LINE
  5
57B9
330
17
100
AcDbEntity
  8
R-SWTS-DET3
100
AcDbLine
 10
48.73371663631402
 20
33.2057017501517
 30
0.0
 11
48.7165342377275
 21
33.1656393643618
 31
0.0
  0
LINE
  5
57BA
330
17
100
AcDbEntity
  8
R-SWTS-DET3
100
AcDbLine
 10
48.7165342377275
 20
33.1656393643618
 30
0.0
 11
48.68789690674998
 21
33.1656393643618
 31
0.0
  0
LINE
  5
57BB
330
17
100
AcDbEntity
  8
R-SWTS-DET3
100
AcDbLine
 10
48.68789690674998
 20
33.1656393643618
 30
0.0
 11
48.68789690674998
 21
33.11985380216028
 31
0.0
  0
LINE
  5
57BC
330
17
100
AcDbEntity
  8
R-SWTS-DET3
100
AcDbLine
 10
48.68789690674998
 20
33.11985380216028
 30
0.0
 11
48.6592596276893
 21
33.09123782955705
 31
0.0
  0
LINE
  5
582F
330
17
100
AcDbEntity
  8
R-ANNO-DIMS
100
AcDbLine
 10
44.88974771007955
 20
23.81542477636808
 30
0.0
 11
43.95974771007954
 21
23.81542477636808
 31
0.0
  0
LINE
  5
5834
330
17
100
AcDbEntity
  8
R-ANNO-DIMS
100
AcDbLine
 10
46.57030084429469
 20
23.69096101809752
 30
0.0
 11
44.58474771007954
 21
23.69096101809752
 31
0.0
  0
LINE
  5
5835
330
17
100
AcDbEntity
  8
R-ANNO-DIMS
100
AcDbLine
 10
44.08627310642192
 20
23.44096101809753
 30
0.0
 11
44.08627310642192
 21
20.85409462214797
 31
0.0
  0
SOLID
  5
5836
330
17
100
AcDbEntity
  8
R-ANNO-DIMS
100
AcDbTrace
 10
44.04460643975525
 20
23.44096101809753
 30
0.0
 11
44.1279397730886
 21
23.44096101809753
 31
0.0
 12
44.08627310642192
 22
23.69096101809753
 32
0.0
 13
44.08627310642192
 23
23.69096101809753
 33
0.0
  0
SOLID
  5
5837
330
17
100
AcDbEntity
  8
R-ANNO-DIMS
100
AcDbTrace
 10
44.04460643975525
 20
20.93776824642831
 30
0.0
 11
44.1279397730886
 21
20.93776824642831
 31
0.0
 12
44.08627310642192
 22
20.68776824642831
 32
0.0
 13
44.08627310642192
 23
20.68776824642831
 33
0.0
  0
MTEXT
  5
5838
330
17
100
AcDbEntity
  8
R-ANNO-DIMS
100
AcDbMText
 10
43.86127310642192
 20
22.52536258721473
 30
0.0
 40
0.25
 41
0.0
 71
     5
 72
     1
  1
VENT SIZE
 11
0.0000000000000001
 21
1.0
 31
0.0
 73
     1
 44
1.0
1001
ACAD
1000
MTEXTBEGIN
1070
    73
1070
     1
1070
    44
1040
1.0
1070
    74
1070
     0
1000
MTEXTEND
  0
LINE
  5
5839
330
17
100
AcDbEntity
  8
R-ANNO-DIMS
100
AcDbLine
 10
48.24187970589516
 20
23.69096101809752
 30
0.0
 11
44.58474771007954
 21
23.69096101809752
 31
0.0
  0
LINE
  5
583A
330
17
100
AcDbEntity
  8
R-ANNO-DIMS
100
AcDbLine
 10
44.88974771007955
 20
23.81542477636808
 30
0.0
 11
44.58474771007954
 21
23.81542477636808
 31
0.0
  0
LINE
  5
583B
330
17
100
AcDbEntity
  8
R-ANNO-DIMS
100
AcDbLine
 10
44.08627310642192
 20
23.44096101809753
 30
0.0
 11
44.08627310642192
 21
23.19096101809753
 31
0.0
  0
SOLID
  5
583D
330
17
100
AcDbEntity
  8
R-ANNO-DIMS
100
AcDbTrace
 10
44.04460643975525
 20
23.44096101809753
 30
0.0
 11
44.1279397730886
 21
23.44096101809753
 31
0.0
 12
44.08627310642192
 22
23.69096101809753
 32
0.0
 13
44.08627310642192
 23
23.69096101809753
 33
0.0
  0
LINE
  5
5BA1
330
17
100
AcDbEntity
  8
0
100
AcDbLine
 10
-0.0000000410553014
 20
-0.0000000154741571
 30
0.0
 11
89.42969637211538
 21
-0.0000000154741571
 31
0.0
  0
LINE
  5
5BA2
330
17
100
AcDbEntity
  8
0
100
AcDbLine
 10
-0.0000000410553014
 20
-0.0000000154741571
 30
0.0
 11
-0.0000000410553014
 21
49.18876710478312
 31
0.0
  0
MTEXT
  5
5BA3
330
17
100
AcDbEntity
  8
0
 62
     2
100
AcDbMText
 10
43.85176797016206
 20
5.697622274780073
 30
0.0
 40
0.5
 41
23.1875
 71
     2
 72
     5
  1
GLASSvent™ WINDOWS FOR STOREFRONT FRAMING DETAILS\P(1/4" INFILL)
 73
     1
 44
1.0
1001
ACAD
1000
MTEXTBEGIN
1070
    73
1070
     1
1070
    44
1040
1.0
1070
    74
1070
     0
1000
MTEXTEND
  0
MTEXT
  5
5BA5
330
17
100
AcDbEntity
  8
0
 62
     2
100
AcDbMText
 10
43.86479712711874
 20
3.62599413963251
 30
0.0
 40
0.375
 41
9.6875
 71
     2
 72
     5
  1
DETAIL SCALE: 1" = 1"
 73
     1
 44
1.0
1001
ACAD
1000
MTEXTBEGIN
1070
    73
1070
     1
1070
    44
1040
1.0
1070
    74
1070
     0
1000
MTEXTEND
  0
LINE
  5
5BD4
330
17
100
AcDbEntity
  8
R-ANNO-DIMS
100
AcDbLine
 10
72.76252311060509
 20
27.17467934285364
 30
0.0
 11
72.76252311060509
 21
25.28724954563557
 31
0.0
  0
LINE
  5
5BD5
330
17
100
AcDbEntity
  8
R-ANNO-DIMS
100
AcDbLine
 10
72.76252311060509
 20
28.94438154145119
 30
0.0
 11
72.76252311060509
 21
24.7013675716337
 31
0.0
  0
MTEXT
  5
5BDA
330
17
100
AcDbEntity
  8
R-ANNO-DIMS
100
AcDbMText
 10
71.29067082006864
 20
25.11211533774645
 30
0.0
 40
0.25
 41
0.0
 71
     5
 72
     1
  1
VENT SIZE
 73
     1
 44
1.0
1001
ACAD
1000
MTEXTBEGIN
1070
    73
1070
     1
1070
    44
1040
1.0
1070
    74
1070
     0
1000
MTEXTEND
  0
LINE
  5
5BDF
330
17
100
AcDbEntity
  8
R-ANNO-DIMS
100
AcDbLine
 10
72.51252311060508
 20
24.88711533774646
 30
0.0
 11
69.93093830527858
 21
24.88711533774646
 31
0.0
  0
LINE
  5
5BE0
330
17
100
AcDbEntity
  8
R-SWTS-DET1
100
AcDbLine
 10
72.89140541596205
 20
25.96488549625759
 30
0.0
 11
69.76247686887359
 21
25.96488549625759
 31
0.0
  0
TEXT
  5
5BE1
330
17
100
AcDbEntity
  8
0
  6
Continuous
 62
     2
100
AcDbText
 10
70.47308546293129
 20
21.50768805230016
 30
0.0
 40
0.375
  1
@ VERTICAL MULLION
 72
     1
 11
73.32983853250837
 21
21.50768805230016
 31
0.0
100
AcDbText
  0
SOLID
  5
5BE4
330
17
100
AcDbEntity
  8
R-ANNO-DIMS
100
AcDbTrace
 10
70.01247686887359
 20
24.92878200441313
 30
0.0
 11
70.01247686887359
 21
24.84544867107979
 31
0.0
 12
69.76247686887359
 22
24.88711533774646
 32
0.0
 13
69.76247686887359
 23
24.88711533774646
 33
0.0
  0
TEXT
  5
5BE5
330
17
100
AcDbEntity
  8
0
  6
Continuous
 62
     2
100
AcDbText
 10
70.73945067733131
 20
20.75578612482048
 30
0.0
 40
0.375
  1
(DEEP POCKET SIDE)
 72
     1
 11
73.46114235536678
 21
20.75578612482048
 31
0.0
100
AcDbText
  0
TEXT
  5
5BE6
330
17
100
AcDbEntity
  8
0
  6
Continuous
 62
     2
100
AcDbText
 10
70.98634433059841
 20
22.20214353828156
 30
0.0
 40
0.375
  1
GLASSVENT JAMB
 72
     1
 11
73.32983853250837
 21
22.20214353828156
 31
0.0
100
AcDbText
  0
LINE
  5
5BEF
330
17
100
AcDbEntity
  8
R-ANNO-DIMS
100
AcDbLine
 10
73.13748686887359
 20
24.88711533774646
 30
0.0
 11
74.42082020220692
 21
24.88711533774646
 31
0.0
  0
SOLID
  5
5BF0
330
17
100
AcDbEntity
  8
R-ANNO-DIMS
100
AcDbTrace
 10
72.51252311060508
 20
24.92878200441313
 30
0.0
 11
72.51252311060508
 21
24.84544867107979
 31
0.0
 12
72.76252311060509
 22
24.88711533774646
 32
0.0
 13
72.76252311060509
 23
24.88711533774646
 33
0.0
  0
SOLID
  5
5BF1
330
17
100
AcDbEntity
  8
R-ANNO-DIMS
100
AcDbTrace
 10
72.51252311060508
 20
24.92878200441313
 30
0.0
 11
72.51252311060508
 21
24.84544867107979
 31
0.0
 12
72.76252311060509
 22
24.88711533774646
 32
0.0
 13
72.76252311060509
 23
24.88711533774646
 33
0.0
  0
LINE
  5
5BF2
330
17
100
AcDbEntity
  8
R-ANNO-DIMS
100
AcDbLine
 10
72.51252311060508
 20
24.88711533774646
 30
0.0
 11
72.26252311060509
 21
24.88711533774646
 31
0.0
  0
SOLID
  5
5BF4
330
17
100
AcDbEntity
  8
R-ANNO-DIMS
100
AcDbTrace
 10
73.13748686887359
 20
24.92878200441313
 30
0.0
 11
73.13748686887359
 21
24.84544867107979
 31
0.0
 12
72.88748686887359
 22
24.88711533774646
 32
0.0
 13
72.88748686887359
 23
24.88711533774646
 33
0.0
  0
MTEXT
  5
5BF5
330
17
100
AcDbEntity
  8
R-ANNO-DIMS
100
AcDbMText
 10
73.69501826429136
 20
25.11211533774645
 30
0.0
 40
0.25
 41
0.0
 71
     5
 72
     1
  1
\A1;1/8"
 73
     1
 44
1.0
1001
ACAD
1000
MTEXTBEGIN
1070
    73
1070
     1
1070
    44
1040
1.0
1070
    74
1070
     0
1000
MTEXTEND
  0
LINE
  5
5BFE
330
17
100
AcDbEntity
  8
R-SWTS-DET1
100
AcDbLine
 10
72.89140541596205
 20
30.4648854962576
 30
0.0
 11
69.76247686887359
 21
30.4648854962576
 31
0.0
  0
LINE
  5
5D0F
330
17
100
AcDbEntity
  8
R-ANNO-DIMS
100
AcDbLine
 10
63.79039075981572
 20
28.94438154145119
 30
0.0
 11
63.79039075981572
 21
25.28724954563557
 31
0.0
  0
LINE
  5
5D10
330
17
100
AcDbEntity
  8
R-ANNO-DIMS
100
AcDbLine
 10
63.79039075981572
 20
27.17467934285364
 30
0.0
 11
63.79039075981572
 21
24.68363464593096
 31
0.0
  0
LINE
  5
5D11
330
17
100
AcDbEntity
  8
R-ANNO-DIMS
100
AcDbLine
 10
63.41542700154722
 20
24.84224954563557
 30
0.0
 11
62.53087460762626
 21
24.84224954563557
 31
0.0
  0
TEXT
  5
5D13
330
17
100
AcDbEntity
  8
0
  6
Continuous
 62
     2
100
AcDbText
 10
61.15981959479295
 20
22.20214353828156
 30
0.0
 40
0.375
  1
GLASSVENT JAMB
 72
     1
 11
63.50331379670291
 21
22.20214353828156
 31
0.0
100
AcDbText
  0
TEXT
  5
5D14
330
17
100
AcDbEntity
  8
0
  6
Continuous
 62
     2
100
AcDbText
 10
60.34530997972503
 20
20.75578612482048
 30
0.0
 40
0.375
  1
(SHALLOW POCKET SIDE)
 72
     1
 11
63.63461761956131
 21
20.75578612482048
 31
0.0
100
AcDbText
  0
TEXT
  5
5D15
330
17
100
AcDbEntity
  8
0
  6
Continuous
 62
     2
100
AcDbText
 10
60.64656072712583
 20
21.50768805230016
 30
0.0
 40
0.375
  1
@ VERTICAL MULLION
 72
     1
 11
63.50331379670291
 21
21.50768805230016
 31
0.0
100
AcDbText
  0
LINE
  5
5D16
330
17
100
AcDbEntity
  8
R-SWTS-DET1
100
AcDbLine
 10
63.66150845445876
 20
25.96488549625759
 30
0.0
 11
66.78651845445876
 21
25.96488549625759
 31
0.0
  0
LINE
  5
5D18
330
17
100
AcDbEntity
  8
R-ANNO-DIMS
100
AcDbLine
 10
63.91592700154515
 20
24.84224954563557
 30
0.0
 11
66.5944996367464
 21
24.84224954563557
 31
0.0
  0
MTEXT
  5
5D19
330
17
100
AcDbEntity
  8
R-ANNO-DIMS
100
AcDbMText
 10
65.26083738494688
 20
25.06724954563557
 30
0.0
 40
0.25
 41
0.0
 71
     5
 72
     1
  1
VENT SIZE
 73
     1
 44
1.0
1001
ACAD
1000
MTEXTBEGIN
1070
    73
1070
     1
1070
    44
1040
1.0
1070
    74
1070
     0
1000
MTEXTEND
  0
SOLID
  5
5D1B
330
17
100
AcDbEntity
  8
R-ANNO-DIMS
100
AcDbTrace
 10
66.53651845445875
 20
24.88391621230224
 30
0.0
 11
66.53651845445875
 21
24.8005828789689
 31
0.0
 12
66.78651845445876
 22
24.84224954563557
 32
0.0
 13
66.78651845445876
 23
24.84224954563557
 33
0.0
  0
SOLID
  5
5D24
330
17
100
AcDbEntity
  8
R-ANNO-DIMS
100
AcDbTrace
 10
64.04039075981572
 20
24.88391621230224
 30
0.0
 11
64.04039075981572
 21
24.8005828789689
 31
0.0
 12
63.79039075981572
 22
24.84224954563557
 32
0.0
 13
63.79039075981572
 23
24.84224954563557
 33
0.0
  0
SOLID
  5
5D29
330
17
100
AcDbEntity
  8
R-ANNO-DIMS
100
AcDbTrace
 10
63.41542700154722
 20
24.88391621230224
 30
0.0
 11
63.41542700154722
 21
24.8005828789689
 31
0.0
 12
63.66542700154721
 22
24.84224954563557
 32
0.0
 13
63.66542700154721
 23
24.84224954563557
 33
0.0
  0
LINE
  5
5D2A
330
17
100
AcDbEntity
  8
R-ANNO-DIMS
100
AcDbLine
 10
63.66542700154721
 20
25.59224954563557
 30
0.0
 11
63.66542700154721
 21
24.03898516786828
 31
0.0
  0
LINE
  5
5D2C
330
17
100
AcDbEntity
  8
R-ANNO-DIMS
100
AcDbLine
 10
63.91150845445871
 20
24.2388854962576
 30
0.0
 11
66.5731280559655
 21
24.2388854962576
 31
0.0
  0
SOLID
  5
5D32
330
17
100
AcDbEntity
  8
R-ANNO-DIMS
100
AcDbTrace
 10
63.91150845445871
 20
24.28055216292426
 30
0.0
 11
63.91150845445871
 21
24.19721882959093
 31
0.0
 12
63.66150845445871
 22
24.2388854962576
 32
0.0
 13
63.66150845445871
 23
24.2388854962576
 33
0.0
  0
MTEXT
  5
5D33
330
17
100
AcDbEntity
  8
R-ANNO-DIMS
100
AcDbMText
 10
63.03395405303487
 20
25.06724954563557
 30
0.0
 40
0.25
 41
0.0
 71
     5
 72
     1
  1
\A1;1/8"
 73
     1
 44
1.0
1001
ACAD
1000
MTEXTBEGIN
1070
    73
1070
     1
1070
    44
1040
1.0
1070
    74
1070
     0
1000
MTEXTEND
  0
SOLID
  5
5D34
330
17
100
AcDbEntity
  8
R-ANNO-DIMS
100
AcDbTrace
 10
66.52240414394326
 20
24.28055216292426
 30
0.0
 11
66.52240414394326
 21
24.19721882959093
 31
0.0
 12
66.77240414394326
 22
24.2388854962576
 32
0.0
 13
66.77240414394326
 23
24.2388854962576
 33
0.0
  0
LINE
  5
5DAC
330
17
100
AcDbEntity
  8
R-SWTS-DET1
100
AcDbLine
 10
63.66150845445876
 20
30.4648854962576
 30
0.0
 11
66.78651845445876
 21
30.4648854962576
 31
0.0
  0
MTEXT
  5
60AF
330
17
100
AcDbEntity
  8
0
 62
     2
100
AcDbMText
 10
39.35248223991834
 20
25.12971036744172
 30
0.0
 40
0.375
 41
7.34375
 71
     2
 72
     5
  1
GLASSVENT HEAD\P@ HORIZONTAL
 73
     1
 44
1.0
1001
ACAD
1000
MTEXTBEGIN
1070
    73
1070
     1
1070
    44
1040
1.0
1070
    74
1070
     0
1000
MTEXTEND
  0
MTEXT
  5
60B1
330
17
100
AcDbEntity
  8
0
 62
     2
100
AcDbMText
 10
39.35248223991834
 20
32.32266685560043
 30
0.0
 40
0.375
 41
7.34375
 71
     2
 72
     5
  1
GLASSVENT SILL\P@ HORIZONTAL
 73
     1
 44
1.0
1001
ACAD
1000
MTEXTBEGIN
1070
    73
1070
     1
1070
    44
1040
1.0
1070
    74
1070
     0
1000
MTEXTEND
  0
LWPOLYLINE
  5
6368
330
17
100
AcDbEntity
  8
R-SWTS-DET1
  6
HIDDEN
100
AcDbPolyline
 90
       31
 70
     1
 43
0.0
 10
45.88940271007955
 20
23.98142477636808
 10
45.82740271007955
 20
23.98142477636808
 10
45.90640271007955
 20
24.19842477636808
 42
-0.9999999999999994
 10
45.97219059046077
 20
24.17447994613385
 10
45.93129059046076
 20
24.06247994613385
 42
0.4142135623730951
 10
45.94324404000997
 20
24.03684569085162
 10
45.94628982304677
 20
24.03522332724691
 42
-0.3152987888789836
 10
45.95945271007955
 20
24.01642477636808
 10
45.95945271007955
 20
23.89542477636808
 10
46.28570271007954
 20
23.89542477636808
 10
46.29570271007954
 20
23.88542477636808
 10
46.30570271007955
 20
23.89542477636808
 10
48.72340271007955
 20
23.89542477636808
 10
48.73340271007954
 20
23.88542477636808
 10
48.74340271007955
 20
23.89542477636808
 10
49.06940271007955
 20
23.89542477636808
 10
49.06940271007955
 20
24.01642477636808
 42
-0.3152987888789836
 10
49.08256559711232
 20
24.03522332724691
 10
49.08516138014912
 20
24.03684569085162
 42
0.4142135623730948
 10
49.09711482969832
 20
24.06247994613385
 10
49.05661482969833
 20
24.17447994613385
 42
-0.9999999999999998
 10
49.12240271007955
 20
24.19842477636808
 10
49.20140271007955
 20
23.98142477636808
 10
49.13940271007955
 20
23.98142477636808
 10
49.13940271007955
 20
23.89542477636808
 10
49.30940271007955
 20
23.89542477636808
 10
49.30940271007955
 20
23.81542477636808
 10
45.71945271007955
 20
23.81542477636808
 10
45.71945271007955
 20
23.89542477636808
 10
45.88945271007954
 20
23.89542477636808
 10
45.88945271007954
 20
23.98142477636808
  0
LWPOLYLINE
  5
663A
330
17
100
AcDbEntity
  8
R-SWTS-DET1
100
AcDbPolyline
 90
        6
 70
     0
 43
0.0
 10
50.01421851817645
 20
28.83649208581132
 10
47.61422851817645
 20
28.83649208581132
 10
47.56420851817645
 20
28.63651208581131
 10
47.46422851817644
 20
29.03649208581132
 10
47.41422851817644
 20
28.83649208581132
 10
45.01421851817645
 20
28.83649208581132
  0
LINE
  5
663B
330
17
100
AcDbEntity
  8
R-SWTS-DET1
100
AcDbLine
 10
45.26471851817645
 20
35.81984011443422
 30
0.0
 11
45.26471851817645
 21
28.83649208581129
 31
0.0
  0
LINE
  5
663C
330
17
100
AcDbEntity
  8
R-SWTS-DET1
100
AcDbLine
 10
49.76471851817645
 20
35.81984011443422
 30
0.0
 11
49.76471851817645
 21
28.83649208581129
 31
0.0
  0
LWPOLYLINE
  5
6640
330
17
100
AcDbEntity
  8
R-SWTS-DET1
  6
HIDDEN
100
AcDbPolyline
 90
       35
 70
     1
 43
0.0
 10
47.61039314008424
 20
32.41658305243074
 42
-0.4142135623730868
 10
47.48539314008424
 20
32.29158305243074
 10
47.20386051918857
 20
32.29158305243074
 42
0.1374618384367951
 10
47.17268246294775
 20
32.28284638054201
 10
47.11714811312091
 20
32.23105976152965
 42
0.5499676122638161
 10
47.13261276167648
 20
32.21099208581132
 10
47.19981408764329
 20
32.24072779910571
 42
-0.1045253338067332
 10
47.20386051918858
 20
32.24158305243074
 10
47.37039314008426
 20
32.24158305243074
 42
1.13463852788136
 10
47.41039314008426
 20
32.24158305243074
 10
47.48539314008424
 20
32.24158305243074
 42
0.414213562373098
 10
47.66039314008425
 20
32.41658305243074
 10
47.66039314008425
 20
32.50599208581132
 42
-0.4142135623730692
 10
47.67039314008425
 20
32.51599208581132
 10
47.91521551976247
 20
32.51599208581132
 42
-0.4142135623730431
 10
47.93521551976247
 20
32.49599208581132
 10
47.93521551976247
 20
32.4779744183718
 10
47.93521551976247
 20
32.39530275436205
 42
0.4142135623731211
 10
47.94521551976247
 20
32.38530275436205
 10
47.94834950213649
 20
32.38530275436205
 42
0.2679491924311405
 10
47.97519628965381
 20
32.40080275436206
 10
48.00687577380031
 20
32.45567323046136
 42
0.1316524975874295
 10
48.00821551976247
 20
32.46067323046136
 10
48.00821551976247
 20
32.46549208581131
 42
0.4142135623730518
 10
48.00221551976247
 20
32.47149208581131
 10
47.99511231446622
 20
32.47149208581131
 42
-0.5170635500107807
 10
47.98567819645617
 20
32.48480832123303
 10
48.01656496428091
 20
32.57267585038959
 42
0.5170635500107091
 10
48.00713084627084
 20
32.58599208581131
 10
47.02000619008205
 20
32.58599208581131
 42
0.517063550010784
 10
47.01057207207199
 20
32.5726758503896
 10
47.02814782964774
 20
32.5226758503896
 42
0.3183363346814688
 10
47.0375819476578
 20
32.51599208581132
 10
47.60039314008425
 20
32.51599208581132
 42
-0.414213562373069
 10
47.61039314008425
 20
32.50599208581132
  0
LWPOLYLINE
  5
6641
330
17
100
AcDbEntity
  8
R-SWTS-DET1
  6
HIDDEN
100
AcDbPolyline
 90
       44
 70
     1
 43
0.0
 10
47.11309196733831
 20
31.14549208581133
 10
47.15009196733831
 20
31.14549208581133
 10
47.15009196733831
 20
31.16749208581133
 42
-0.4142135623730951
 10
47.1880969673383
 20
31.12948708581133
 10
47.1880969673383
 20
30.92749208581132
 42
-0.4142135623730951
 10
47.16809696733831
 20
30.90749208581133
 10
47.13909696733831
 20
30.90749208581133
 42
-0.4142135623730951
 10
47.11909696733831
 20
30.92749208581132
 10
47.11909696733831
 20
30.93949208581133
 10
47.14809696733831
 20
30.93949208581133
 10
47.14809696733831
 20
30.97749208581133
 10
47.12565991935298
 20
31.07965031962768
 42
0.3541185725306792
 10
47.10609696733831
 20
31.09549208581132
 10
47.06414696733831
 20
31.09549208581132
 10
46.99746929780864
 20
31.02886975534099
 42
0.1989123673796526
 10
46.99014696733831
 20
31.01119208581132
 10
46.99014696733831
 20
30.93949208581133
 10
47.01914696733831
 20
30.93949208581133
 10
46.98294090673225
 20
30.83649208581133
 10
45.27509696733831
 20
30.83649208581133
 10
45.26009696733831
 20
31.78749208581133
 10
45.36839064759044
 20
31.78749208581133
 10
45.33143671330047
 20
31.85149817754113
 42
-0.5890450164206723
 10
45.34044596230534
 20
31.86649208581132
 10
45.39548099946793
 20
31.8645702199646
 10
45.42208422262508
 20
31.81849208581132
 42
-0.5773502691896184
 10
45.36839064759044
 20
31.72549208581133
 10
45.32308259712668
 20
31.72549208581133
 10
45.33612676116454
 20
30.89849208581133
 10
46.85014696733831
 20
30.89849208581133
 42
0.4142135623730951
 10
46.9201469673383
 20
30.96849208581132
 10
46.9201469673383
 20
31.00704751505991
 42
-0.1990202627215685
 10
46.95093158478137
 20
31.08132454375605
 10
47.01222823068249
 20
31.14257031657255
 42
0.1990202627215732
 10
47.01809196733831
 20
31.15671832203849
 10
47.01809196733831
 20
31.17623471151053
 10
46.61509696733831
 20
31.67358035202305
 10
46.61509696733831
 20
31.85349208581133
 10
46.7610969673383
 20
31.85349208581133
 42
-1.674739574574449
 10
46.72769038116133
 20
31.79149208581133
 10
46.6700969673383
 20
31.79149208581132
 10
46.6700969673383
 20
31.69306635906602
 10
47.08809196733831
 20
31.17720886454119
 10
47.08809196733831
 20
31.17049208581132
 42
0.4142135623730951
  0
LINE
  5
6642
330
17
100
AcDbEntity
  8
R-SWTS-DET2
100
AcDbLine
 10
48.15916175132086
 20
30.83649208581131
 30
0.0
 11
48.15916175132086
 21
28.8365122164479
 31
0.0
  0
LINE
  5
6643
330
17
100
AcDbEntity
  8
R-SWTS-DET3
100
AcDbLine
 10
47.64180803686602
 20
31.21149208581132
 30
0.0
 11
47.39180803686601
 21
31.21149208581132
 31
0.0
  0
LINE
  5
6644
330
17
100
AcDbEntity
  8
R-SWTS-DET3
100
AcDbLine
 10
47.64180803686602
 20
31.21149208581132
 30
0.0
 11
47.64180803686602
 21
28.83649208581132
 31
0.0
  0
LINE
  5
6645
330
17
100
AcDbEntity
  8
R-SWTS-DET3
100
AcDbLine
 10
47.39180803686601
 20
31.21149208581132
 30
0.0
 11
47.39180803686601
 21
28.83649208581132
 31
0.0
  0
LINE
  5
6646
330
17
100
AcDbEntity
  8
R-SWTS-DET2
100
AcDbLine
 10
46.87445432241117
 20
30.83649208581131
 30
0.0
 11
46.87445432241117
 21
28.8365122164479
 31
0.0
  0
LWPOLYLINE
  5
6647
330
17
100
AcDbEntity
  8
R-SWTS-DET1
  6
HIDDEN
100
AcDbPolyline
 90
       59
 70
     1
 43
0.0
 10
47.18336851817645
 20
32.00649208581132
 42
-0.4142135623730998
 10
47.02336851817645
 20
32.16649208581132
 10
47.02336851817645
 20
32.24468856988091
 42
0.19902026272188
 10
47.01603884735666
 20
32.26237357671334
 10
46.95328558040156
 20
32.32507476166261
 42
-0.1990756122146726
 10
46.92541851817646
 20
32.39229208581132
 10
46.92541851817646
 20
32.42649208581132
 42
0.4142135623730821
 10
46.84541851817646
 20
32.50649208581132
 10
45.42886851817645
 20
32.50649208581132
 42
0.4142135623730906
 10
45.36886851817645
 20
32.44649208581132
 10
45.36886851817645
 20
32.00749208581131
 42
0.4142135623730993
 10
45.42886851817645
 20
31.94749208581131
 10
46.13313868071573
 20
31.94749208581132
 42
0.5680984128595215
 10
46.15073109557633
 20
31.97700559932483
 42
-0.3397540095738063
 10
46.18262100164739
 20
32.17549208581131
 10
46.22658648587369
 20
32.17549208581132
 10
46.24360715577553
 20
32.14601142076249
 42
-0.3865446749096415
 10
46.24074896044613
 20
32.13286672219572
 42
3.127286275187387
 10
46.35098807590675
 20
32.1328667221957
 42
-0.3865446749097456
 10
46.34812988057738
 20
32.14601142076249
 10
46.36515055047921
 20
32.17549208581132
 10
46.40911603470551
 20
32.17549208581131
 42
-0.3397540095738037
 10
46.44100594077655
 20
31.97700559932484
 42
0.568098412859534
 10
46.45859835563718
 20
31.94749208581133
 10
46.81136851817645
 20
31.94749208581132
 42
-0.4434421795482069
 10
46.92779849241424
 20
31.81895687454372
 42
0.4434421795482123
 10
46.9526766920377
 20
31.79149208581132
 10
47.83686851817646
 20
31.79149208581132
 42
-0.4142135623730951
 10
48.00686851817646
 20
31.62149208581132
 10
48.00686851817646
 20
31.15829560174173
 42
0.1990202627215732
 10
48.01419818899623
 20
31.14061059490931
 10
48.07695145595134
 20
31.07790940996002
 42
-0.1990756122146726
 10
48.10481851817645
 20
31.01069208581132
 10
48.10481851817645
 20
30.99649208581132
 42
0.4142135623730821
 10
48.18481851817645
 20
30.91649208581132
 10
48.57148868071575
 20
30.91649208581132
 42
0.5680984128595215
 10
48.58908109557635
 20
30.94600559932483
 42
-0.3397540095738028
 10
48.6209710016474
 20
31.14449208581131
 10
48.66493648587372
 20
31.14449208581132
 10
48.68195715577555
 20
31.11501142076249
 42
-0.3865446749096415
 10
48.67909896044615
 20
31.10186672219572
 42
3.127286275187416
 10
48.78933807590678
 20
31.1018667221957
 42
-0.3865446749097161
 10
48.7864798805774
 20
31.11501142076249
 10
48.80350055047923
 20
31.14449208581132
 10
48.84746603470555
 20
31.14449208581131
 42
-0.3397540095738145
 10
48.87935594077657
 20
30.94600559932484
 42
0.5680984128595452
 10
48.89694835563719
 20
30.91649208581132
 10
49.60071851817645
 20
30.91649208581132
 42
0.4142135623730951
 10
49.66071851817645
 20
30.97649208581132
 10
49.66071851817645
 20
32.44649208581132
 42
0.4142135623730951
 10
49.60071851817645
 20
32.50649208581132
 10
48.18631851817645
 20
32.50649208581132
 42
0.4142135623731049
 10
48.10631851817646
 20
32.42649208581132
 10
48.10631851817645
 20
32.41229208581132
 42
-0.1990756122146726
 10
48.07845145595135
 20
32.34507476166261
 10
48.01569818899626
 20
32.28237357671334
 42
0.1990202627218746
 10
48.00836851817646
 20
32.2646885698809
 10
48.00836851817646
 20
32.16649208581131
 42
-0.4142135623730902
 10
47.84836851817645
 20
32.00649208581132
  0
LWPOLYLINE
  5
6648
330
17
100
AcDbEntity
  8
R-SWTS-DET1
  6
HIDDEN
100
AcDbPolyline
 90
       83
 70
     1
 43
0.0
 10
47.99731851817646
 20
32.48399208581131
 10
48.02631851817645
 20
32.48399208581131
 10
48.02631851817645
 20
32.41229208581131
 42
-0.1989123673796472
 10
48.01899618770612
 20
32.39461441628165
 10
47.95231851817645
 20
32.32799208581131
 10
47.91036851817645
 20
32.32799208581131
 42
-0.3541185725306839
 10
47.89080556616178
 20
32.34383385199496
 10
47.86836851817645
 20
32.44599208581131
 10
47.86836851817645
 20
32.48399208581131
 10
47.89736851817646
 20
32.48399208581131
 10
47.89736851817646
 20
32.49599208581131
 42
0.4142135623730951
 10
47.87736851817645
 20
32.51599208581132
 10
47.84836851817646
 20
32.51599208581132
 42
0.4142135623730951
 10
47.82836851817645
 20
32.49599208581131
 10
47.82836851817645
 20
32.29399708581131
 42
0.4142135623730951
 10
47.86637351817645
 20
32.25599208581131
 10
47.86637351817645
 20
32.27799208581132
 10
47.90336851817645
 20
32.27799208581132
 42
-0.4142135623731054
 10
47.92836851817646
 20
32.25299208581132
 10
47.92836851817646
 20
32.18649208581132
 42
-0.4142135623730951
 10
47.82836851817645
 20
32.08649208581132
 10
47.20336851817645
 20
32.08649208581132
 42
-0.4142135623730951
 10
47.10336851817645
 20
32.18649208581132
 10
47.10336851817645
 20
32.25299208581132
 42
-0.4142135623731107
 10
47.12836851817646
 20
32.27799208581132
 10
47.16536351817645
 20
32.27799208581132
 10
47.16536351817645
 20
32.25599208581131
 42
0.4142135623730951
 10
47.20336851817645
 20
32.29399708581131
 10
47.20336851817645
 20
32.49599208581131
 42
0.4142135623730951
 10
47.18336851817645
 20
32.51599208581132
 10
47.15436851817645
 20
32.51599208581132
 42
0.4142135623730951
 10
47.13436851817646
 20
32.49599208581131
 10
47.13436851817646
 20
32.48399208581131
 10
47.16336851817645
 20
32.48399208581131
 10
47.16336851817645
 20
32.44599208581131
 10
47.14093147019113
 20
32.34383385199496
 42
-0.3541185725306839
 10
47.12136851817645
 20
32.32799208581131
 10
47.07941851817645
 20
32.32799208581131
 10
47.01274084864679
 20
32.39461441628165
 42
-0.1989123673796471
 10
47.00541851817646
 20
32.41229208581131
 10
47.00541851817646
 20
32.48399208581131
 10
47.03441851817645
 20
32.48399208581131
 10
46.99838821514615
 20
32.58649208581132
 10
45.28886851817645
 20
32.58649208581132
 10
45.28886851817645
 20
31.78749208581132
 10
45.37955225087109
 20
31.78749208581174
 42
0.6445148111323518
 10
45.38759993426684
 20
31.80384230078766
 10
45.35136851817646
 20
31.86749208581132
 10
46.28586851817646
 20
31.86749208581132
 10
46.29586851817645
 20
31.87749208581131
 10
46.30586851817645
 20
31.86749208581132
 10
46.81136851817645
 20
31.86749208581132
 42
-0.9999999999999998
 10
46.81136851817645
 20
31.77349208581131
 10
46.73336851817645
 20
31.77349208581131
 42
0.9999999999999998
 10
46.73336851817645
 20
31.71149208581132
 10
47.82686851817645
 20
31.71149208581132
 42
-0.4142135623730951
 10
47.92686851817645
 20
31.61149208581132
 10
47.92686851817645
 20
31.47149208581132
 10
47.93686851817645
 20
31.46149208581132
 10
47.92686851817645
 20
31.45149208581132
 10
47.92686851817645
 20
31.16999208581132
 42
-0.4142135623731054
 10
47.90186851817646
 20
31.14499208581132
 10
47.86487351817645
 20
31.14499208581132
 10
47.86487351817645
 20
31.16699208581132
 42
0.4142135623730951
 10
47.82686851817645
 20
31.12898708581133
 10
47.82686851817645
 20
30.92699208581132
 42
0.4142135623730951
 10
47.84686851817645
 20
30.90699208581132
 10
47.87586851817645
 20
30.90699208581132
 42
0.4142135623730951
 10
47.89586851817645
 20
30.92699208581132
 10
47.89586851817645
 20
30.93899208581132
 10
47.86686851817645
 20
30.93899208581132
 10
47.86686851817645
 20
30.97699208581132
 10
47.88930556616178
 20
31.07915031962767
 42
-0.3541185725306839
 10
47.90886851817645
 20
31.09499208581132
 10
47.95081851817645
 20
31.09499208581132
 10
48.01749618770611
 20
31.02836975534098
 42
-0.1989123673796472
 10
48.02481851817645
 20
31.01069208581132
 10
48.02481851817645
 20
30.93899208581132
 10
47.99581851817645
 20
30.93899208581132
 10
48.03184882120675
 20
30.83649208581132
 10
49.74071851817646
 20
30.83649208581132
 10
49.74071851817646
 20
32.58649208581132
 10
48.03334882120676
 20
32.58649208581132
  0
LWPOLYLINE
  5
6649
330
17
100
AcDbEntity
  8
R-SWTS-DET2
100
AcDbPolyline
 90
       31
 70
     1
 43
0.0
 10
47.01826944101222
 20
30.95049411397576
 10
47.04508596755116
 20
30.94561981337779
 10
47.01095584343002
 20
30.83838521569604
 10
46.95000919276995
 20
30.83351091681735
 10
46.87445432241117
 20
30.83649208581131
 10
46.88454486396949
 20
30.80548254319007
 42
0.1257100272134179
 10
47.11653626599154
 20
30.75374021559642
 42
-0.2260837189018228
 10
47.27012182642314
 20
30.70402235695232
 10
47.36567713608284
 20
30.59308173879196
 42
0.6449762263124317
 10
47.39161142810103
 20
30.60482308126562
 10
47.39003169107298
 20
30.73406001689501
 42
0.1518691569180708
 10
47.37367891447664
 20
30.77849517124427
 10
47.33517572618139
 20
30.83842095051274
 42
-0.0293454671788447
 10
47.31778083697849
 20
30.89030359370536
 10
47.30055054739497
 20
31.01209760354241
 42
-0.6538117075652882
 10
47.32079135829783
 20
31.01908434050777
 10
47.36488310552015
 20
30.85383542301785
 42
0.8886355728344963
 10
47.39003169107298
 20
30.85589685391724
 10
47.39003169107298
 20
30.99014247430989
 42
0.0642046489364144
 10
47.34759922916355
 20
31.17875873101718
 42
0.6896355001773956
 10
47.24499049877544
 20
31.17875873101719
 42
0.0703560868358924
 10
47.20375803686602
 20
30.9901424743099
 10
47.20375803686602
 20
30.89443966397626
 10
47.13041127888942
 20
30.89443966397626
 10
47.10847048407195
 20
30.94805696367678
 10
47.14747634198544
 20
30.95293126255547
 10
47.11334621579342
 20
30.98948851188238
 10
47.1450384761247
 20
31.01142286113467
 10
47.08409182339376
 20
31.0650401591159
 10
47.02802090445515
 20
30.99923711135903
 10
47.05239956513335
 20
30.98948851188238
  0
LWPOLYLINE
  5
664A
330
17
100
AcDbEntity
  8
R-SWTS-DET2
100
AcDbPolyline
 90
       31
 70
     1
 43
0.0
 10
48.01534663271981
 20
30.95049411397576
 10
47.98853010618087
 20
30.94561981337779
 10
48.02266023030201
 20
30.83838521569604
 10
48.08360688096207
 20
30.83351091681735
 10
48.15916175132086
 20
30.83649208581131
 10
48.14907120976254
 20
30.80548254319007
 42
-0.1257100272134179
 10
47.91707980774048
 20
30.75374021559642
 42
0.2260837189018228
 10
47.76349424730887
 20
30.70402235695232
 10
47.66793893764918
 20
30.59308173879196
 42
-0.6449762263124317
 10
47.642004645631
 20
30.60482308126562
 10
47.64358438265905
 20
30.73406001689501
 42
-0.1518691569180708
 10
47.65993715925538
 20
30.77849517124427
 10
47.69844034755063
 20
30.83842095051274
 42
0.0293454671788447
 10
47.71583523675353
 20
30.89030359370536
 10
47.73306552633705
 20
31.01209760354241
 42
0.6538117075652882
 10
47.7128247154342
 20
31.01908434050777
 10
47.66873296821187
 20
30.85383542301785
 42
-0.8886355728344963
 10
47.64358438265905
 20
30.85589685391724
 10
47.64358438265905
 20
30.99014247430989
 42
-0.0642046489364144
 10
47.68601684456848
 20
31.17875873101718
 42
-0.6896355001773956
 10
47.78862557495659
 20
31.17875873101719
 42
-0.0703560868358924
 10
47.82985803686601
 20
30.9901424743099
 10
47.82985803686601
 20
30.89443966397626
 10
47.9032047948426
 20
30.89443966397626
 10
47.92514558966007
 20
30.94805696367678
 10
47.88613973174659
 20
30.95293126255547
 10
47.9202698579386
 20
30.98948851188238
 10
47.88857759760733
 20
31.01142286113467
 10
47.94952425033828
 20
31.0650401591159
 10
48.00559516927688
 20
30.99923711135903
 10
47.98121650859868
 20
30.98948851188238
  0
LINE
  5
664B
330
17
100
AcDbEntity
  8
R-ANNO-DIMS
100
AcDbLine
 10
44.91168993021044
 20
30.83650208581132
 30
0.0
 11
43.33471851817645
 21
30.83650208581132
 31
0.0
  0
LINE
  5
664C
330
17
100
AcDbEntity
  8
R-ANNO-DIMS
100
AcDbLine
 10
43.51471851817644
 20
30.58650208581132
 30
0.0
 11
43.51471851817644
 21
29.08649208581129
 31
0.0
  0
SOLID
  5
664D
330
17
100
AcDbEntity
  8
R-ANNO-DIMS
100
AcDbTrace
 10
43.47305185150978
 20
30.58650208581132
 30
0.0
 11
43.55638518484311
 21
30.58650208581132
 31
0.0
 12
43.51471851817644
 22
30.83650208581132
 32
0.0
 13
43.51471851817644
 23
30.83650208581132
 33
0.0
  0
SOLID
  5
664E
330
17
100
AcDbEntity
  8
R-ANNO-DIMS
100
AcDbTrace
 10
43.47305185150978
 20
29.08649208581129
 30
0.0
 11
43.55638518484311
 21
29.08649208581129
 31
0.0
 12
43.51471851817644
 22
28.83649208581129
 32
0.0
 13
43.51471851817644
 23
28.83649208581129
 33
0.0
  0
MTEXT
  5
664F
330
17
100
AcDbEntity
  8
R-ANNO-DIMS
100
AcDbMText
 10
43.28971851817644
 20
29.8364970858113
 30
0.0
 40
0.25
 41
0.0
 71
     5
 72
     1
  1
\A1;DLO
 11
0.0000000000000001
 21
1.0
 31
0.0
 73
     1
 44
1.0
1001
ACAD
1000
MTEXTBEGIN
1070
    73
1070
     1
1070
    44
1040
1.0
1070
    74
1070
     0
1000
MTEXTEND
  0
LINE
  5
6650
330
17
100
AcDbEntity
  8
R-ANNO-DIMS
100
AcDbLine
 10
44.91371851817644
 20
32.58649208581132
 30
0.0
 11
43.33471851817644
 21
32.58649208581132
 31
0.0
  0
LINE
  5
6651
330
17
100
AcDbEntity
  8
R-ANNO-DIMS
100
AcDbLine
 10
43.51471851817644
 20
32.83649208581131
 30
0.0
 11
43.51471851817644
 21
35.62302539757323
 31
0.0
  0
SOLID
  5
6652
330
17
100
AcDbEntity
  8
R-ANNO-DIMS
100
AcDbTrace
 10
43.47305185150978
 20
32.83649208581131
 30
0.0
 11
43.55638518484311
 21
32.83649208581131
 31
0.0
 12
43.51471851817644
 22
32.58649208581132
 32
0.0
 13
43.51471851817644
 23
32.58649208581132
 33
0.0
  0
SOLID
  5
6653
330
17
100
AcDbEntity
  8
R-ANNO-DIMS
100
AcDbTrace
 10
43.47305185150978
 20
35.56984011443422
 30
0.0
 11
43.55638518484311
 21
35.56984011443422
 31
0.0
 12
43.51471851817644
 22
35.81984011443422
 32
0.0
 13
43.51471851817644
 23
35.81984011443422
 33
0.0
  0
MTEXT
  5
6654
330
17
100
AcDbEntity
  8
R-ANNO-DIMS
100
AcDbMText
 10
43.28971851817644
 20
34.22392167018941
 30
0.0
 40
0.25
 41
0.0
 71
     5
 72
     1
  1
VENT OPENING
 11
0.0000000000000001
 21
1.0
 31
0.0
 73
     1
 44
1.0
1001
ACAD
1000
MTEXTBEGIN
1070
    73
1070
     1
1070
    44
1040
1.0
1070
    74
1070
     0
1000
MTEXTEND
  0
LINE
  5
6655
330
17
100
AcDbEntity
  8
R-ANNO-DIMS
100
AcDbLine
 10
44.91371851817644
 20
32.58649208581132
 30
0.0
 11
43.33471851817645
 21
32.58649208581132
 31
0.0
  0
LINE
  5
6656
330
17
100
AcDbEntity
  8
R-ANNO-DIMS
100
AcDbLine
 10
44.91168993021044
 20
30.83650208581132
 30
0.0
 11
43.33471851817645
 21
30.83650208581132
 31
0.0
  0
LINE
  5
6657
330
17
100
AcDbEntity
  8
R-ANNO-DIMS
100
AcDbLine
 10
43.51471851817644
 20
32.33649208581132
 30
0.0
 11
43.51471851817644
 21
31.08650208581132
 31
0.0
  0
SOLID
  5
6658
330
17
100
AcDbEntity
  8
R-ANNO-DIMS
100
AcDbTrace
 10
43.47305185150978
 20
32.33649208581132
 30
0.0
 11
43.55638518484311
 21
32.33649208581132
 31
0.0
 12
43.51471851817644
 22
32.58649208581132
 32
0.0
 13
43.51471851817644
 23
32.58649208581132
 33
0.0
  0
SOLID
  5
6659
330
17
100
AcDbEntity
  8
R-ANNO-DIMS
100
AcDbTrace
 10
43.47305185150978
 20
31.08650208581132
 30
0.0
 11
43.55638518484311
 21
31.08650208581132
 31
0.0
 12
43.51471851817644
 22
30.83650208581132
 32
0.0
 13
43.51471851817644
 23
30.83650208581132
 33
0.0
  0
MTEXT
  5
665A
330
17
100
AcDbEntity
  8
R-ANNO-DIMS
100
AcDbMText
 10
43.28971851817644
 20
31.71149708581132
 30
0.0
 40
0.25
 41
0.0
 71
     5
 72
     1
  1
\A1;1 3/4"
 11
0.0000000000000001
 21
1.0
 31
0.0
 73
     1
 44
1.0
1001
ACAD
1000
MTEXTBEGIN
1070
    73
1070
     1
1070
    44
1040
1.0
1070
    74
1070
     0
1000
MTEXTEND
  0
LINE
  5
6660
330
17
100
AcDbEntity
  8
R-SWTS-DET1
100
AcDbLine
 10
45.26451763083826
 20
27.56593477636603
 30
0.0
 11
45.26451763083826
 21
20.68776824642831
 31
0.0
  0
LINE
  5
6661
330
17
100
AcDbEntity
  8
R-SWTS-DET1
100
AcDbLine
 10
49.76451763083826
 20
27.56593477636603
 30
0.0
 11
49.76451763083826
 21
20.68776824642831
 31
0.0
  0
LWPOLYLINE
  5
6666
330
17
100
AcDbEntity
  8
R-SWTS-DET1
  6
HIDDEN
100
AcDbPolyline
 90
      112
 70
     1
 43
0.0
 10
45.34451763083826
 20
23.95592477636602
 42
0.414213562373093
 10
45.40451763083825
 20
23.89592477636602
 10
45.63851763083826
 20
23.89592477636602
 10
45.63851763083826
 20
23.91392477636602
 42
-0.4142135623731076
 10
45.70051763083826
 20
23.97592477636602
 10
45.88851763083826
 20
23.97592477636602
 10
45.88851763083826
 20
23.95792477636602
 42
-0.4142135623730867
 10
45.82651763083825
 20
23.89592477636602
 10
45.71851763083826
 20
23.89592477636602
 10
45.71851763083826
 20
23.81592477636602
 10
45.26451763083826
 20
23.81592477636602
 10
45.26451763083826
 20
25.56592477636602
 10
46.99703732780796
 20
25.56592477636602
 10
47.03306763083825
 20
25.46342477636601
 10
47.00406763083826
 20
25.46342477636601
 10
47.00406763083826
 20
25.39172477636601
 42
0.1989123673796471
 10
47.01138996130859
 20
25.37404710683635
 10
47.07806763083826
 20
25.30742477636601
 10
47.12001763083826
 20
25.30742477636601
 42
0.3541185725306839
 10
47.13958058285293
 20
25.32326654254966
 10
47.16201763083826
 20
25.42542477636601
 10
47.16201763083826
 20
25.46342477636601
 10
47.13301763083825
 20
25.46342477636601
 10
47.13301763083825
 20
25.47542477636601
 42
-0.4142135623730951
 10
47.15301763083826
 20
25.49542477636602
 10
47.18201763083825
 20
25.49542477636602
 42
-0.4142135623730951
 10
47.20201763083825
 20
25.47542477636601
 10
47.20201763083825
 20
25.27342977636601
 42
-0.4142135623730951
 10
47.16401263083826
 20
25.23542477636601
 10
47.16401263083826
 20
25.25742477636601
 10
47.12701763083826
 20
25.25742477636601
 42
0.4142135623730951
 10
47.10201763083825
 20
25.23242477636602
 10
47.10201763083825
 20
24.79092477636602
 42
0.4142135623730848
 10
47.20201763083825
 20
24.69092477636602
 10
47.82701763083825
 20
24.69092477636602
 42
0.4142135623730847
 10
47.92701763083825
 20
24.79092477636602
 10
47.92701763083825
 20
25.23242477636602
 42
0.4142135623730951
 10
47.90201763083826
 20
25.25742477636601
 10
47.86502263083825
 20
25.25742477636601
 10
47.86502263083825
 20
25.23542477636601
 42
-0.4142135623730951
 10
47.82701763083825
 20
25.27342977636601
 10
47.82701763083825
 20
25.47542477636601
 42
-0.4142135623730951
 10
47.84701763083826
 20
25.49542477636602
 10
47.87601763083826
 20
25.49542477636602
 42
-0.4142135623730951
 10
47.89601763083825
 20
25.47542477636601
 10
47.89601763083825
 20
25.46342477636601
 10
47.86701763083826
 20
25.46342477636601
 10
47.86701763083826
 20
25.42542477636601
 10
47.88945467882358
 20
25.32326654254966
 42
0.3541185725306901
 10
47.90901763083826
 20
25.30742477636601
 10
47.95096763083826
 20
25.30742477636601
 10
48.01764530036791
 20
25.37404710683635
 42
0.1989123673796472
 10
48.02496763083826
 20
25.39172477636601
 10
48.02496763083826
 20
25.46342477636601
 10
47.99596763083826
 20
25.46342477636601
 10
48.03199793386855
 20
25.56592477636602
 10
49.76451763083826
 20
25.56592477636602
 10
49.76451763083826
 20
23.81592477636602
 10
49.31051763083826
 20
23.81592477636602
 10
49.31051763083826
 20
23.89592477636602
 10
49.20251763083825
 20
23.89592477636602
 42
-0.4142135623730868
 10
49.14051763083826
 20
23.95792477636602
 10
49.14051763083826
 20
23.97592477636602
 10
49.32851763083826
 20
23.97592477636602
 42
-0.4142135623730887
 10
49.39051763083826
 20
23.91392477636602
 10
49.39051763083826
 20
23.89592477636602
 10
49.62451763083826
 20
23.89592477636602
 42
0.4142135623730951
 10
49.68451763083826
 20
23.95592477636602
 10
49.68451763083826
 20
25.42592477636602
 42
0.4142135623730951
 10
49.62451763083826
 20
25.48592477636602
 10
48.89624746829902
 20
25.48592477636602
 42
0.5680984128595087
 10
48.87865505343841
 20
25.4564112628525
 42
-0.3397540095737741
 10
48.84676514736733
 20
25.25792477636603
 10
48.80279966314102
 20
25.25792477636602
 10
48.78577899323918
 20
25.28740544141485
 42
-0.3865446749097419
 10
48.78863718856856
 20
25.30055013998164
 42
3.127286275187394
 10
48.67839807310794
 20
25.30055013998163
 42
-0.38654467490966
 10
48.68125626843734
 20
25.28740544141485
 10
48.66423559853551
 20
25.25792477636602
 10
48.62027011430919
 20
25.25792477636603
 42
-0.3397540095737763
 10
48.58838020823813
 20
25.4564112628525
 42
0.5680984128595011
 10
48.57078779337749
 20
25.48592477636602
 10
48.12496763083824
 20
25.48592477636602
 42
0.4142135623731302
 10
48.10496763083825
 20
25.46592477636602
 10
48.10496763083826
 20
25.39172477636602
 42
-0.1990756122146733
 10
48.07710056861314
 20
25.32450745221731
 10
48.01434730165803
 20
25.26180626726802
 42
0.1990202627215667
 10
48.00701763083826
 20
25.24412126043561
 10
48.00701763083826
 20
24.78092477636602
 42
-0.4142135623730996
 10
47.83701763083826
 20
24.61092477636602
 10
47.19201763083825
 20
24.61092477636602
 42
-0.4142135623731034
 10
47.02201763083825
 20
24.78092477636602
 10
47.02201763083825
 20
25.24412126043561
 42
0.1990202627215824
 10
47.01468796001847
 20
25.26180626726802
 10
46.95193469306336
 20
25.32450745221731
 42
-0.1990756122146731
 10
46.92406763083826
 20
25.39172477636602
 10
46.92406763083826
 20
25.46592477636602
 42
0.4142135623730953
 10
46.90406763083825
 20
25.48592477636602
 10
46.458247468299
 20
25.48592477636602
 42
0.5680984128595151
 10
46.44065505343838
 20
25.4564112628525
 42
-0.3397540095737933
 10
46.40876514736732
 20
25.25792477636603
 10
46.36479966314101
 20
25.25792477636602
 10
46.34777899323918
 20
25.28740544141485
 42
-0.3865446749097419
 10
46.35063718856856
 20
25.30055013998164
 42
3.127286275187394
 10
46.24039807310794
 20
25.30055013998163
 42
-0.38654467490966
 10
46.24325626843734
 20
25.28740544141485
 10
46.2262355985355
 20
25.25792477636602
 10
46.18227011430919
 20
25.25792477636603
 42
-0.3397540095737883
 10
46.15038020823813
 20
25.4564112628525
 42
0.5680984128595153
 10
46.1327877933775
 20
25.48592477636602
 10
45.40451763083825
 20
25.48592477636602
 42
0.4142135623731039
 10
45.34451763083825
 20
25.42592477636602
  0
LINE
  5
6672
330
17
100
AcDbEntity
  8
R-ANNO-DIMS
100
AcDbLine
 10
44.88951763083825
 20
25.56642477636603
 30
0.0
 11
43.31773763083826
 21
25.56642477636603
 31
0.0
  0
LINE
  5
6673
330
17
100
AcDbEntity
  8
R-ANNO-DIMS
100
AcDbLine
 10
44.81594760776243
 20
23.81642477636603
 30
0.0
 11
43.31773763083826
 21
23.81642477636603
 31
0.0
  0
LINE
  5
6674
330
17
100
AcDbEntity
  8
R-ANNO-DIMS
100
AcDbLine
 10
43.49773763083827
 20
25.31642477636603
 30
0.0
 11
43.49773763083827
 21
24.06642477636603
 31
0.0
  0
SOLID
  5
6675
330
17
100
AcDbEntity
  8
R-ANNO-DIMS
100
AcDbTrace
 10
43.4560709641716
 20
25.31642477636603
 30
0.0
 11
43.53940429750493
 21
25.31642477636603
 31
0.0
 12
43.49773763083827
 22
25.56642477636603
 32
0.0
 13
43.49773763083827
 23
25.56642477636603
 33
0.0
  0
SOLID
  5
6676
330
17
100
AcDbEntity
  8
R-ANNO-DIMS
100
AcDbTrace
 10
43.4560709641716
 20
24.06642477636603
 30
0.0
 11
43.53940429750493
 21
24.06642477636603
 31
0.0
 12
43.49773763083827
 22
23.81642477636603
 32
0.0
 13
43.49773763083827
 23
23.81642477636603
 33
0.0
  0
MTEXT
  5
6677
330
17
100
AcDbEntity
  8
R-ANNO-DIMS
100
AcDbMText
 10
43.27273763083827
 20
24.69142477636603
 30
0.0
 40
0.25
 41
0.0
 71
     5
 72
     1
  1
\A1;1 3/4"
 11
0.0000000000000001
 21
1.0
 31
0.0
 73
     1
 44
1.0
1001
ACAD
1000
MTEXTBEGIN
1070
    73
1070
     1
1070
    44
1040
1.0
1070
    74
1070
     0
1000
MTEXTEND
  0
LINE
  5
6678
330
17
100
AcDbEntity
  8
R-ANNO-DIMS
100
AcDbLine
 10
44.88951763083825
 20
25.56642477636603
 30
0.0
 11
43.31773763083826
 21
25.56642477636603
 31
0.0
  0
LINE
  5
6679
330
17
100
AcDbEntity
  8
R-ANNO-DIMS
100
AcDbLine
 10
43.49773763083827
 20
25.81642477636603
 30
0.0
 11
43.49773763083827
 21
27.56643477636604
 31
0.0
  0
SOLID
  5
667A
330
17
100
AcDbEntity
  8
R-ANNO-DIMS
100
AcDbTrace
 10
43.4560709641716
 20
25.81642477636603
 30
0.0
 11
43.53940429750493
 21
25.81642477636603
 31
0.0
 12
43.49773763083827
 22
25.56642477636603
 32
0.0
 13
43.49773763083827
 23
25.56642477636603
 33
0.0
  0
SOLID
  5
667B
330
17
100
AcDbEntity
  8
R-ANNO-DIMS
100
AcDbTrace
 10
43.4560709641716
 20
27.31593477636602
 30
0.0
 11
43.53940429750493
 21
27.31593477636602
 31
0.0
 12
43.49773763083827
 22
27.56593477636603
 32
0.0
 13
43.49773763083827
 23
27.56593477636603
 33
0.0
  0
MTEXT
  5
667C
330
17
100
AcDbEntity
  8
R-ANNO-DIMS
100
AcDbMText
 10
43.27273763083827
 20
26.69142977636604
 30
0.0
 40
0.25
 41
0.0
 71
     5
 72
     1
  1
\A1;DLO
 11
0.0000000000000001
 21
1.0
 31
0.0
 73
     1
 44
1.0
1001
ACAD
1000
MTEXTBEGIN
1070
    73
1070
     1
1070
    44
1040
1.0
1070
    74
1070
     0
1000
MTEXTEND
  0
MTEXT
  5
668E
330
17
100
AcDbEntity
  8
R-ANNO-DIMS
100
AcDbMText
 10
43.27273763083827
 20
22.21324435188387
 30
0.0
 40
0.25
 41
0.0
 71
     5
 72
     1
  1
VENT OPENING
 11
0.0000000000000001
 21
1.0
 31
0.0
 73
     1
 44
1.0
1001
ACAD
1000
MTEXTBEGIN
1070
    73
1070
     1
1070
    44
1040
1.0
1070
    74
1070
     0
1000
MTEXTEND
  0
LINE
  5
668F
330
17
100
AcDbEntity
  8
R-ANNO-DIMS
100
AcDbLine
 10
43.49773763083827
 20
20.8716962165929
 30
0.0
 11
43.49773763083827
 21
23.56642477636603
 31
0.0
  0
SOLID
  5
6690
330
17
100
AcDbEntity
  8
R-ANNO-DIMS
100
AcDbTrace
 10
43.4560709641716
 20
20.93776824642831
 30
0.0
 11
43.53940429750493
 21
20.93776824642831
 31
0.0
 12
43.49773763083827
 22
20.68776824642831
 32
0.0
 13
43.49773763083827
 23
20.68776824642831
 33
0.0
  0
SOLID
  5
6691
330
17
100
AcDbEntity
  8
R-ANNO-DIMS
100
AcDbTrace
 10
43.4560709641716
 20
23.56642477636603
 30
0.0
 11
43.53940429750493
 21
23.56642477636603
 31
0.0
 12
43.49773763083827
 22
23.81642477636603
 32
0.0
 13
43.49773763083827
 23
23.81642477636603
 33
0.0
  0
LINE
  5
66A0
330
17
100
AcDbEntity
  8
R-SWTS-DET2
100
AcDbLine
 10
46.87337708927993
 20
25.56592477636603
 30
0.0
 11
46.87337708927993
 21
27.56590464572945
 31
0.0
  0
LINE
  5
66A1
330
17
100
AcDbEntity
  8
R-SWTS-DET3
100
AcDbLine
 10
47.39073080373477
 20
25.19092477636603
 30
0.0
 11
47.39073080373477
 21
27.56592477636603
 31
0.0
  0
LINE
  5
66A2
330
17
100
AcDbEntity
  8
R-SWTS-DET3
100
AcDbLine
 10
47.64073080373477
 20
25.19092477636603
 30
0.0
 11
47.64073080373477
 21
27.56592477636603
 31
0.0
  0
LINE
  5
66A3
330
17
100
AcDbEntity
  8
R-SWTS-DET2
100
AcDbLine
 10
48.15808451818962
 20
25.56592477636603
 30
0.0
 11
48.15808451818962
 21
27.56590464572945
 31
0.0
  0
LWPOLYLINE
  5
66A4
330
17
100
AcDbEntity
  8
R-SWTS-DET2
100
AcDbPolyline
 90
       31
 70
     1
 43
0.0
 10
48.01426939958857
 20
25.45192274820158
 10
47.98745287304963
 20
25.45679704879955
 10
48.02158299717077
 20
25.5640316464813
 10
48.08252964783084
 20
25.56890594535998
 10
48.15808451818962
 20
25.56592477636603
 10
48.14799397663129
 20
25.59693431898727
 42
0.1257100272134179
 10
47.91600257460924
 20
25.64867664658093
 42
-0.2260837189018228
 10
47.76241701417764
 20
25.69839450522502
 10
47.66686170451794
 20
25.80933512338538
 42
0.6449762263124317
 10
47.64092741249976
 20
25.79759378091172
 10
47.64250714952781
 20
25.66835684528233
 42
0.1518691569180708
 10
47.65885992612415
 20
25.62392169093307
 10
47.69736311441939
 20
25.5639959116646
 42
-0.0293454671788447
 10
47.71475800362229
 20
25.51211326847198
 10
47.73198829320582
 20
25.39031925863493
 42
-0.6538117075652882
 10
47.71174748230296
 20
25.38333252166957
 10
47.66765573508063
 20
25.54858143915949
 42
0.8886355728344963
 10
47.64250714952781
 20
25.5465200082601
 10
47.64250714952781
 20
25.41227438786744
 42
0.0642046489364144
 10
47.68493961143724
 20
25.22365813116016
 42
0.6896355001773956
 10
47.78754834182534
 20
25.22365813116016
 42
0.0703560868358924
 10
47.82878080373477
 20
25.41227438786744
 10
47.82878080373477
 20
25.50797719820108
 10
47.90212756171136
 20
25.50797719820108
 10
47.92406835652883
 20
25.45435989850056
 10
47.88506249861535
 20
25.44948559962187
 10
47.91919262480737
 20
25.41292835029496
 10
47.88750036447608
 20
25.39099400104267
 10
47.94844701720704
 20
25.33737670306143
 10
48.00451793614564
 20
25.40317975081831
 10
47.98013927546743
 20
25.41292835029496
  0
LWPOLYLINE
  5
66A5
330
17
100
AcDbEntity
  8
R-SWTS-DET2
100
AcDbPolyline
 90
        4
 70
     1
 43
0.0
 10
47.29576763083826
 20
24.69092477636602
 10
47.29576763083826
 20
25.19092477636602
 10
47.73326763083825
 20
25.19092477636602
 10
47.73326763083825
 20
24.69092477636602
  0
LWPOLYLINE
  5
66A6
330
17
100
AcDbEntity
  8
R-SWTS-DET2
100
AcDbPolyline
 90
       31
 70
     1
 43
0.0
 10
47.01719220788098
 20
25.45192274820158
 10
47.04400873441992
 20
25.45679704879955
 10
47.00987861029878
 20
25.5640316464813
 10
46.94893195963871
 20
25.56890594535998
 10
46.87337708927993
 20
25.56592477636603
 10
46.88346763083825
 20
25.59693431898727
 42
-0.1257100272134179
 10
47.11545903286031
 20
25.64867664658093
 42
0.2260837189018228
 10
47.26904459329191
 20
25.69839450522502
 10
47.36459990295161
 20
25.80933512338538
 42
-0.6449762263124317
 10
47.39053419496979
 20
25.79759378091172
 10
47.38895445794173
 20
25.66835684528233
 42
-0.1518691569180708
 10
47.3726016813454
 20
25.62392169093307
 10
47.33409849305015
 20
25.5639959116646
 42
0.0293454671788447
 10
47.31670360384725
 20
25.51211326847198
 10
47.29947331426373
 20
25.39031925863493
 42
0.6538117075652882
 10
47.31971412516659
 20
25.38333252166957
 10
47.36380587238891
 20
25.54858143915949
 42
-0.8886355728344963
 10
47.38895445794173
 20
25.5465200082601
 10
47.38895445794173
 20
25.41227438786744
 42
-0.0642046489364144
 10
47.34652199603231
 20
25.22365813116016
 42
-0.6896355001773956
 10
47.24391326564421
 20
25.22365813116016
 42
-0.0703560868358924
 10
47.20268080373478
 20
25.41227438786744
 10
47.20268080373478
 20
25.50797719820108
 10
47.12933404575819
 20
25.50797719820108
 10
47.10739325094071
 20
25.45435989850056
 10
47.14639910885419
 20
25.44948559962187
 10
47.11226898266218
 20
25.41292835029496
 10
47.14396124299347
 20
25.39099400104267
 10
47.08301459026252
 20
25.33737670306143
 10
47.02694367132391
 20
25.40317975081831
 10
47.05132233200211
 20
25.41292835029496
  0
LINE
  5
66A7
330
17
100
AcDbEntity
  8
R-SWTS-DET3
100
AcDbLine
 10
47.64073080373477
 20
25.19092477636603
 30
0.0
 11
47.39073080373477
 21
25.19092477636603
 31
0.0
  0
LWPOLYLINE
  5
66A8
330
17
100
AcDbEntity
  8
R-SWTS-DET1
100
AcDbPolyline
 90
        6
 70
     0
 43
0.0
 10
50.0152489766313
 20
27.56593477636603
 10
47.6152589766313
 20
27.56593477636603
 10
47.5652389766313
 20
27.76591477636603
 10
47.46525897663129
 20
27.36593477636602
 10
47.41525897663129
 20
27.56593477636603
 10
45.0152489766313
 20
27.56593477636603
  0
MTEXT
  5
66AB
330
17
100
AcDbEntity
  8
R-ANNO-DIMS
100
AcDbMText
 10
43.86127310642193
 20
24.69142477636604
 30
0.0
 40
0.25
 41
0.0
 71
     5
 72
     1
  1
1/8"
 11
0.0000000000000001
 21
1.0
 31
0.0
 73
     1
 44
1.0
1001
ACAD
1000
MTEXTBEGIN
1070
    73
1070
     1
1070
    44
1040
1.0
1070
    74
1070
     0
1000
MTEXTEND
  0
LINE
  5
66AC
330
17
100
AcDbEntity
  8
R-ANNO-DIMS
100
AcDbLine
 10
44.08627310642193
 20
25.31642477636604
 30
0.0
 11
44.08627310642193
 21
24.06642477636604
 31
0.0
  0
SOLID
  5
66AD
330
17
100
AcDbEntity
  8
R-ANNO-DIMS
100
AcDbTrace
 10
44.04460643975527
 20
24.06642477636604
 30
0.0
 11
44.1279397730886
 21
24.06642477636604
 31
0.0
 12
44.08627310642193
 22
23.81642477636603
 32
0.0
 13
44.08627310642193
 23
23.81642477636603
 33
0.0
  0
SOLID
  5
66B4
330
17
100
AcDbEntity
  8
R-ANNO-DIMS
100
AcDbTrace
 10
44.04460643975527
 20
32.33649208581133
 30
0.0
 11
44.1279397730886
 21
32.33649208581133
 31
0.0
 12
44.08627310642193
 22
32.58649208581132
 32
0.0
 13
44.08627310642193
 23
32.58649208581132
 33
0.0
  0
MTEXT
  5
66B5
330
17
100
AcDbEntity
  8
R-ANNO-DIMS
100
AcDbMText
 10
43.86127310642193
 20
31.93871898179143
 30
0.0
 40
0.25
 41
0.0
 71
     5
 72
     1
  1
1/8"
 11
0.0000000000000001
 21
1.0
 31
0.0
 73
     1
 44
1.0
1001
ACAD
1000
MTEXTBEGIN
1070
    73
1070
     1
1070
    44
1040
1.0
1070
    74
1070
     0
1000
MTEXTEND
  0
LINE
  5
66B6
330
17
100
AcDbEntity
  8
R-ANNO-DIMS
100
AcDbLine
 10
44.08627310642193
 20
32.33649208581133
 30
0.0
 11
44.08627310642193
 21
31.42571432596998
 31
0.0
  0
LWPOLYLINE
  5
681A
330
17
100
AcDbEntity
  8
R-SWTS-DET1
  6
HIDDEN
100
AcDbPolyline
 90
       35
 70
     1
 43
0.0
 10
73.06131444934263
 20
28.3117101181654
 42
-0.4142135623730868
 10
73.18631444934263
 20
28.1867101181654
 10
73.18631444934263
 20
27.90517749726972
 42
0.1374618384367936
 10
73.19505112123136
 20
27.8739994410289
 10
73.24683774024373
 20
27.81846509120207
 42
0.5499676122638415
 10
73.26690541596207
 20
27.83392973975763
 10
73.23716970266767
 20
27.90113106572444
 42
-0.1045253338067333
 10
73.23631444934264
 20
27.90517749726972
 10
73.23631444934264
 20
28.07171011816541
 42
1.13463852788136
 10
73.23631444934264
 20
28.1117101181654
 10
73.23631444934264
 20
28.1867101181654
 42
0.4142135623730979
 10
73.06131444934263
 20
28.36171011816539
 10
72.97190541596205
 20
28.3617101181654
 42
-0.4142135623730951
 10
72.96190541596207
 20
28.3717101181654
 10
72.96190541596207
 20
28.61653249784362
 42
-0.4142135623730561
 10
72.98190541596207
 20
28.63653249784361
 10
72.99992308340157
 20
28.63653249784361
 10
73.08259474741132
 20
28.63653249784361
 42
0.4142135623730951
 10
73.09259474741134
 20
28.64653249784362
 10
73.09259474741134
 20
28.64966648021765
 42
0.2679491924311353
 10
73.07709474741134
 20
28.67651326773496
 10
73.02222427131201
 20
28.70819275188146
 42
0.1316524975874295
 10
73.01722427131202
 20
28.70953249784362
 10
73.01240541596206
 20
28.70953249784362
 42
0.4142135623730518
 10
73.00640541596206
 20
28.70353249784362
 10
73.00640541596206
 20
28.69642929254738
 42
-0.5170635500107807
 10
72.99308918054035
 20
28.68699517453732
 10
72.90522165138378
 20
28.71788194236204
 42
0.5170635500107573
 10
72.89190541596207
 20
28.70844782435199
 10
72.89190541596207
 20
27.7213231681632
 42
0.5170635500107731
 10
72.90522165138378
 20
27.71188905015314
 10
72.95522165138376
 20
27.72946480772889
 42
0.3183363346814593
 10
72.96190541596207
 20
27.73889892573895
 10
72.96190541596207
 20
28.3017101181654
 42
-0.4142135623730949
 10
72.97190541596205
 20
28.3117101181654
  0
LWPOLYLINE
  5
681D
330
17
100
AcDbEntity
  8
R-SWTS-DET1
100
AcDbPolyline
 90
        6
 70
     0
 43
0.0
 10
76.64141541596205
 20
25.73888549625759
 10
76.64141541596205
 20
28.13887549625759
 10
76.84139541596207
 20
28.18889549625759
 10
76.44141541596207
 20
28.28887549625759
 10
76.64141541596205
 20
28.33887549625759
 10
76.64141541596205
 20
30.7388854962576
  0
LINE
  5
681E
330
17
100
AcDbEntity
  8
R-SWTS-DET1
100
AcDbLine
 10
74.64140541596205
 20
25.96488549625759
 30
0.0
 11
76.64141541596205
 21
25.96488549625759
 31
0.0
  0
LINE
  5
681F
330
17
100
AcDbEntity
  8
R-SWTS-DET1
100
AcDbLine
 10
74.64140541596205
 20
30.4648854962576
 30
0.0
 11
76.64141541596205
 21
30.4648854962576
 31
0.0
  0
LINE
  5
6823
330
17
100
AcDbEntity
  8
R-SWTS-DET2
100
AcDbLine
 10
74.64140541596208
 20
27.57259495469927
 30
0.0
 11
76.64138528532546
 21
27.57259495469927
 31
0.0
  0
LINE
  5
6824
330
17
100
AcDbEntity
  8
R-SWTS-DET3
100
AcDbLine
 10
74.26640541596206
 20
28.08994866915411
 30
0.0
 11
74.26640541596206
 21
28.33994866915411
 31
0.0
  0
LINE
  5
6825
330
17
100
AcDbEntity
  8
R-SWTS-DET3
100
AcDbLine
 10
74.26640541596206
 20
28.08994866915411
 30
0.0
 11
76.64140541596205
 21
28.08994866915411
 31
0.0
  0
LINE
  5
6826
330
17
100
AcDbEntity
  8
R-SWTS-DET3
100
AcDbLine
 10
74.26640541596206
 20
28.33994866915411
 30
0.0
 11
76.64140541596205
 21
28.33994866915411
 31
0.0
  0
LINE
  5
6827
330
17
100
AcDbEntity
  8
R-SWTS-DET2
100
AcDbLine
 10
74.64140541596208
 20
28.85730238360895
 30
0.0
 11
76.64138528532546
 21
28.85730238360895
 31
0.0
  0
LWPOLYLINE
  5
6828
330
17
100
AcDbEntity
  8
R-SWTS-DET1
  6
HIDDEN
100
AcDbPolyline
 90
       98
 70
     1
 43
0.0
 10
72.89140541596205
 20
30.01088549625759
 10
72.97140541596206
 20
30.01088549625759
 10
72.97140541596206
 20
29.84088549625759
 10
73.05740541596205
 20
29.8408854962576
 10
73.05740541596205
 20
29.90288549625759
 10
73.27440541596207
 20
29.8238854962576
 42
-1.003724381894564
 10
73.25040541596206
 20
29.75838549625759
 10
73.14732381269493
 20
29.79595301389272
 42
0.4152632777059977
 10
73.11559743986643
 20
29.77871054466124
 42
-0.3398956733201357
 10
73.09240541596202
 20
29.7608854962576
 10
72.99140541596208
 20
29.76088549625759
 42
0.414213562373069
 10
72.97140541596206
 20
29.7408854962576
 10
72.97140541596206
 20
29.6168854962576
 42
0.4142135623731211
 10
72.98140541596206
 20
29.6068854962576
 10
72.98140541596206
 20
29.4448854962576
 10
72.97140541596206
 20
29.4348854962576
 10
72.98140541596206
 20
29.4248854962576
 10
72.98140541596206
 20
29.26288549625759
 42
0.4142135623730431
 10
72.97140541596206
 20
29.2528854962576
 10
72.97140541596206
 20
28.88638549625759
 42
0.4142135623730821
 10
73.05140541596205
 20
28.80638549625759
 10
73.06146084521066
 20
28.80638549625759
 42
-0.1990202627215654
 10
73.1357378739068
 20
28.77560087881453
 10
73.19703860107608
 20
28.71424923291343
 42
0.1990202627215551
 10
73.21118660654201
 20
28.7083854962576
 10
73.29140541596209
 20
28.7083854962576
 42
-0.4142135623730605
 10
73.47140541596207
 20
28.5283854962576
 10
73.47140541596207
 20
27.9033854962576
 42
-0.4142135623730749
 10
73.29140541596209
 20
27.72338549625759
 10
73.21118660654201
 20
27.72338549625759
 42
0.1990202627215551
 10
73.19703860107608
 20
27.71752175960177
 10
73.13573787390677
 20
27.65617011370066
 42
-0.1990202627215655
 10
73.06146084521066
 20
27.6253854962576
 10
73.05140541596205
 20
27.6253854962576
 42
0.4142135623730964
 10
72.97140541596206
 20
27.5453854962576
 10
72.97140541596206
 20
27.17888549625759
 42
0.4142135623730951
 10
72.98140541596206
 20
27.16888549625759
 10
72.98140541596206
 20
27.00688549625759
 10
72.97140541596206
 20
26.99688549625759
 10
72.98140541596206
 20
26.98688549625759
 10
72.98140541596206
 20
26.82488549625759
 42
0.4142135623731471
 10
72.97140541596206
 20
26.81488549625759
 10
72.97140541596206
 20
26.69088549625759
 42
0.4142135623730951
 10
72.99140541596205
 20
26.6708854962576
 10
73.09240541596202
 20
26.6708854962576
 42
-0.3398956733201879
 10
73.11559743986643
 20
26.65306044785396
 42
0.4152632777060245
 10
73.1473238126949
 20
26.63581797862246
 10
73.25040541596206
 20
26.67338549625759
 42
-1.00372438189457
 10
73.27440541596207
 20
26.6078854962576
 10
73.05740541596205
 20
26.52888549625759
 10
73.05740541596205
 20
26.59088549625759
 10
72.97140541596206
 20
26.59088549625759
 10
72.97140541596206
 20
26.42088549625759
 10
72.89140541596205
 20
26.42088549625759
 10
72.89140541596205
 20
27.69835519322729
 10
72.99390541596207
 20
27.7343854962576
 10
72.99390541596207
 20
27.7053854962576
 10
73.06560541596207
 20
27.7053854962576
 42
0.1989123673796549
 10
73.08328308549173
 20
27.71270782672794
 10
73.14990541596205
 20
27.7793854962576
 10
73.14990541596205
 20
27.8213354962576
 42
0.3541185725306985
 10
73.13406364977843
 20
27.84089844827227
 10
73.03190541596205
 20
27.8633354962576
 10
72.99390541596207
 20
27.8633354962576
 10
72.99390541596207
 20
27.8343354962576
 10
72.98190541596207
 20
27.8343354962576
 42
-0.4142135623730951
 10
72.96190541596207
 20
27.8543354962576
 10
72.96190541596207
 20
27.8833354962576
 42
-0.4142135623730951
 10
72.98190541596207
 20
27.9033354962576
 10
73.18390041596206
 20
27.9033354962576
 42
-0.4142135623730951
 10
73.22190541596206
 20
27.8653304962576
 10
73.19990541596206
 20
27.8653304962576
 10
73.19990541596206
 20
27.82338549625759
 42
0.4142135623730951
 10
73.21990541596207
 20
27.80338549625759
 10
73.29140541596209
 20
27.80338549625759
 42
0.4142135623730743
 10
73.39140541596208
 20
27.9033854962576
 10
73.39140541596205
 20
28.5283854962576
 42
0.4142135623730587
 10
73.29140541596206
 20
28.6283854962576
 10
73.21990541596207
 20
28.6283854962576
 42
0.4142135623730951
 10
73.19990541596206
 20
28.60838549625761
 10
73.19990541596206
 20
28.56644049625759
 10
73.22190541596206
 20
28.56644049625759
 42
-0.4142135623730951
 10
73.18390041596206
 20
28.5284354962576
 10
72.98190541596207
 20
28.5284354962576
 42
-0.4142135623730951
 10
72.96190541596207
 20
28.54843549625759
 10
72.96190541596207
 20
28.57743549625759
 42
-0.4142135623730951
 10
72.98190541596207
 20
28.59743549625759
 10
72.99390541596207
 20
28.59743549625759
 10
72.99390541596207
 20
28.56843549625759
 10
73.03190541596205
 20
28.56843549625759
 10
73.13406364977843
 20
28.59087254424292
 42
0.3541185725306761
 10
73.14990541596205
 20
28.6104354962576
 10
73.14990541596205
 20
28.6523854962576
 10
73.08328308549173
 20
28.71906316578725
 42
0.1989123673796627
 10
73.06560541596207
 20
28.72638549625759
 10
72.99390541596207
 20
28.72638549625759
 10
72.99390541596207
 20
28.6973854962576
 10
72.89140541596205
 20
28.73341579928789
  0
LWPOLYLINE
  5
6829
330
17
100
AcDbEntity
  8
R-SWTS-DET1
  6
HIDDEN
100
AcDbPolyline
 90
      112
 70
     1
 43
0.0
 10
73.03140541596206
 20
30.3848854962576
 42
0.414213562373093
 10
72.97140541596206
 20
30.32488549625759
 10
72.97140541596206
 20
30.09088549625759
 10
72.98940541596206
 20
30.09088549625759
 42
-0.4142135623731076
 10
73.05140541596205
 20
30.0288854962576
 10
73.05140541596205
 20
29.84088549625759
 10
73.03340541596205
 20
29.84088549625759
 42
-0.4142135623730867
 10
72.97140541596206
 20
29.90288549625759
 10
72.97140541596206
 20
30.01088549625759
 10
72.89140541596205
 20
30.01088549625759
 10
72.89140541596205
 20
30.4648854962576
 10
74.64140541596205
 20
30.4648854962576
 10
74.64140541596205
 20
28.73236579928789
 10
74.53890541596206
 20
28.69633549625759
 10
74.53890541596206
 20
28.72533549625759
 10
74.46720541596204
 20
28.72533549625759
 42
0.1989123673796471
 10
74.44952774643238
 20
28.71801316578725
 10
74.38290541596206
 20
28.65133549625759
 10
74.38290541596206
 20
28.60938549625759
 42
0.3541185725306839
 10
74.39874718214571
 20
28.58982254424292
 10
74.50090541596205
 20
28.56738549625759
 10
74.53890541596206
 20
28.56738549625759
 10
74.53890541596206
 20
28.59638549625759
 10
74.55090541596206
 20
28.59638549625759
 42
-0.4142135623730951
 10
74.57090541596205
 20
28.57638549625759
 10
74.57090541596205
 20
28.54738549625759
 42
-0.4142135623730951
 10
74.55090541596206
 20
28.52738549625759
 10
74.34891041596205
 20
28.52738549625759
 42
-0.4142135623730951
 10
74.31090541596205
 20
28.56539049625759
 10
74.33290541596204
 20
28.56539049625759
 10
74.33290541596204
 20
28.60238549625759
 42
0.4142135623730951
 10
74.30790541596206
 20
28.62738549625759
 10
73.86640541596205
 20
28.62738549625759
 42
0.4142135623730848
 10
73.76640541596206
 20
28.5273854962576
 10
73.76640541596206
 20
27.9023854962576
 42
0.4142135623730847
 10
73.86640541596205
 20
27.80238549625759
 10
74.30790541596206
 20
27.80238549625759
 42
0.4142135623730951
 10
74.33290541596204
 20
27.82738549625759
 10
74.33290541596204
 20
27.86438049625759
 10
74.31090541596205
 20
27.86438049625759
 42
-0.4142135623730951
 10
74.34891041596205
 20
27.90238549625759
 10
74.55090541596206
 20
27.90238549625759
 42
-0.4142135623730951
 10
74.57090541596205
 20
27.88238549625759
 10
74.57090541596205
 20
27.85338549625759
 42
-0.4142135623730951
 10
74.55090541596206
 20
27.83338549625759
 10
74.53890541596206
 20
27.83338549625759
 10
74.53890541596206
 20
27.86238549625759
 10
74.50090541596205
 20
27.86238549625759
 10
74.39874718214571
 20
27.83994844827227
 42
0.3541185725306901
 10
74.38290541596206
 20
27.82038549625759
 10
74.38290541596206
 20
27.77843549625759
 10
74.44952774643238
 20
27.71175782672793
 42
0.1989123673796472
 10
74.46720541596204
 20
27.70443549625759
 10
74.53890541596206
 20
27.70443549625759
 10
74.53890541596206
 20
27.73343549625759
 10
74.64140541596205
 20
27.69740519322729
 10
74.64140541596205
 20
25.96488549625759
 10
72.89140541596205
 20
25.96488549625759
 10
72.89140541596205
 20
26.4188854962576
 10
72.97140541596206
 20
26.4188854962576
 10
72.97140541596206
 20
26.52688549625759
 42
-0.4142135623730868
 10
73.03340541596205
 20
26.5888854962576
 10
73.05140541596205
 20
26.5888854962576
 10
73.05140541596205
 20
26.4008854962576
 42
-0.4142135623730887
 10
72.98940541596206
 20
26.3388854962576
 10
72.97140541596206
 20
26.3388854962576
 10
72.97140541596206
 20
26.1048854962576
 42
0.4142135623730951
 10
73.03140541596206
 20
26.04488549625759
 10
74.50140541596207
 20
26.04488549625759
 42
0.4142135623730951
 10
74.56140541596207
 20
26.10488549625759
 10
74.56140541596207
 20
26.83315565879683
 42
0.5680984128595087
 10
74.53189190244853
 20
26.85074807365745
 42
-0.3397540095737741
 10
74.33340541596206
 20
26.88263797972852
 10
74.33340541596206
 20
26.92660346395483
 10
74.36288608101088
 20
26.94362413385667
 42
-0.3865446749097419
 10
74.37603077957769
 20
26.94076593852729
 42
3.127286275187394
 10
74.37603077957766
 20
27.05100505398791
 42
-0.38654467490966
 10
74.36288608101088
 20
27.04814685865852
 10
74.33340541596206
 20
27.06516752856034
 10
74.33340541596206
 20
27.10913301278666
 42
-0.3397540095737763
 10
74.53189190244853
 20
27.14102291885772
 42
0.5680984128595011
 10
74.56140541596207
 20
27.15861533371836
 10
74.56140541596207
 20
27.6044354962576
 42
0.4142135623731302
 10
74.54140541596206
 20
27.62443549625761
 10
74.46720541596206
 20
27.62443549625759
 42
-0.1990756122146733
 10
74.39998809181336
 20
27.6523025584827
 10
74.33728690686405
 20
27.71505582543781
 42
0.1990202627215667
 10
74.31960190003164
 20
27.72238549625759
 10
73.85640541596206
 20
27.72238549625759
 42
-0.4142135623730996
 10
73.68640541596207
 20
27.89238549625759
 10
73.68640541596207
 20
28.53738549625761
 42
-0.4142135623731034
 10
73.85640541596206
 20
28.7073854962576
 10
74.31960190003164
 20
28.70738549625759
 42
0.1990202627215824
 10
74.33728690686405
 20
28.71471516707737
 10
74.39998809181336
 20
28.77746843403249
 42
-0.1990756122146731
 10
74.46720541596206
 20
28.80533549625759
 10
74.54140541596206
 20
28.80533549625759
 42
0.4142135623730953
 10
74.56140541596207
 20
28.82533549625759
 10
74.56140541596207
 20
29.27115565879685
 42
0.5680984128595151
 10
74.53189190244853
 20
29.28874807365748
 42
-0.3397540095737933
 10
74.33340541596206
 20
29.32063797972853
 10
74.33340541596206
 20
29.36460346395484
 10
74.36288608101088
 20
29.38162413385667
 42
-0.3865446749097419
 10
74.37603077957769
 20
29.37876593852729
 42
3.127286275187394
 10
74.37603077957766
 20
29.48900505398791
 42
-0.38654467490966
 10
74.36288608101088
 20
29.48614685865852
 10
74.33340541596206
 20
29.50316752856036
 10
74.33340541596206
 20
29.54713301278666
 42
-0.3397540095737883
 10
74.53189190244853
 20
29.57902291885772
 42
0.5680984128595153
 10
74.56140541596207
 20
29.59661533371834
 10
74.56140541596207
 20
30.32488549625759
 42
0.4142135623731039
 10
74.50140541596207
 20
30.3848854962576
  0
LWPOLYLINE
  5
682A
330
17
100
AcDbEntity
  8
R-SWTS-DET2
100
AcDbPolyline
 90
       31
 70
     1
 43
0.0
 10
74.52740338779761
 20
28.7134872650079
 10
74.5322776883956
 20
28.68667073846897
 10
74.63951228607735
 20
28.7208008625901
 10
74.64438658495604
 20
28.78174751325017
 10
74.64140541596208
 20
28.85730238360895
 10
74.67241495858331
 20
28.84721184205064
 42
-0.1257100272134179
 10
74.72415728617696
 20
28.61522044002858
 42
0.2260837189018228
 10
74.77387514482106
 20
28.46163487959697
 10
74.88481576298141
 20
28.36607956993728
 42
-0.6449762263124317
 10
74.87307442050775
 20
28.34014527791909
 10
74.74383748487838
 20
28.34172501494715
 42
-0.1518691569180708
 10
74.69940233052913
 20
28.35807779154348
 10
74.63947655126062
 20
28.39658097983873
 42
0.0293454671788447
 10
74.58759390806801
 20
28.41397586904163
 10
74.46579989823098
 20
28.43120615862515
 42
0.6538117075652882
 10
74.45881316126559
 20
28.4109653477223
 10
74.62406207875554
 20
28.36687360049997
 42
-0.8886355728344963
 10
74.62200064785614
 20
28.34172501494715
 10
74.48775502746349
 20
28.34172501494715
 42
-0.0642046489364144
 10
74.2991387707562
 20
28.38415747685657
 42
-0.6896355001773956
 10
74.2991387707562
 20
28.48676620724468
 42
-0.0703560868358924
 10
74.48775502746349
 20
28.52799866915411
 10
74.58345783779711
 20
28.52799866915411
 10
74.58345783779711
 20
28.60134542713069
 10
74.52984053809661
 20
28.62328622194817
 10
74.52496623921792
 20
28.58428036403469
 10
74.48840898989101
 20
28.6184104902267
 10
74.46647464063872
 20
28.58671822989542
 10
74.41285734265747
 20
28.64766488262637
 10
74.47866039041435
 20
28.70373580156498
 10
74.48840898989101
 20
28.67935714088677
  0
LWPOLYLINE
  5
682B
330
17
100
AcDbEntity
  8
R-SWTS-DET2
100
AcDbPolyline
 90
       31
 70
     1
 43
0.0
 10
74.52740338779761
 20
27.71641007330031
 10
74.5322776883956
 20
27.74322659983925
 10
74.63951228607735
 20
27.70909647571812
 10
74.64438658495604
 20
27.64814982505805
 10
74.64140541596208
 20
27.57259495469927
 10
74.67241495858331
 20
27.58268549625759
 42
0.1257100272134179
 10
74.72415728617696
 20
27.81467689827964
 42
-0.2260837189018228
 10
74.77387514482106
 20
27.96826245871125
 10
74.88481576298141
 20
28.06381776837094
 42
0.6449762263124317
 10
74.87307442050775
 20
28.08975206038912
 10
74.74383748487838
 20
28.08817232336107
 42
0.1518691569180708
 10
74.69940233052913
 20
28.07181954676474
 10
74.63947655126062
 20
28.03331635846949
 42
-0.0293454671788447
 10
74.58759390806801
 20
28.01592146926659
 10
74.46579989823098
 20
27.99869117968306
 42
-0.6538117075652882
 10
74.45881316126559
 20
28.01893199058592
 10
74.62406207875554
 20
28.06302373780825
 42
0.8886355728344963
 10
74.62200064785614
 20
28.08817232336107
 10
74.48775502746349
 20
28.08817232336107
 42
0.0642046489364144
 10
74.2991387707562
 20
28.04573986145165
 42
0.6896355001773956
 10
74.2991387707562
 20
27.94313113106354
 42
0.0703560868358924
 10
74.48775502746349
 20
27.90189866915411
 10
74.58345783779711
 20
27.90189866915411
 10
74.58345783779711
 20
27.82855191117752
 10
74.52984053809661
 20
27.80661111636006
 10
74.52496623921792
 20
27.84561697427353
 10
74.48840898989101
 20
27.81148684808152
 10
74.46647464063872
 20
27.8431791084128
 10
74.41285734265747
 20
27.78223245568185
 10
74.47866039041435
 20
27.72616153674325
 10
74.48840898989101
 20
27.75054019742145
  0
LINE
  5
682C
330
17
100
AcDbEntity
  8
R-ANNO-DIMS
100
AcDbLine
 10
74.64140541596205
 20
25.58988549625759
 30
0.0
 11
74.64140541596205
 21
24.0588854962576
 31
0.0
  0
LINE
  5
682D
330
17
100
AcDbEntity
  8
R-ANNO-DIMS
100
AcDbLine
 10
74.89140541596206
 20
24.2388854962576
 30
0.0
 11
76.39141541596206
 21
24.2388854962576
 31
0.0
  0
SOLID
  5
682E
330
17
100
AcDbEntity
  8
R-ANNO-DIMS
100
AcDbTrace
 10
74.89140541596206
 20
24.28055216292426
 30
0.0
 11
74.89140541596206
 21
24.19721882959093
 31
0.0
 12
74.64140541596205
 22
24.2388854962576
 32
0.0
 13
74.64140541596205
 23
24.2388854962576
 33
0.0
  0
SOLID
  5
682F
330
17
100
AcDbEntity
  8
R-ANNO-DIMS
100
AcDbTrace
 10
76.39141541596206
 20
24.28055216292426
 30
0.0
 11
76.39141541596206
 21
24.19721882959093
 31
0.0
 12
76.64141541596205
 22
24.2388854962576
 32
0.0
 13
76.64141541596205
 23
24.2388854962576
 33
0.0
  0
MTEXT
  5
6830
330
17
100
AcDbEntity
  8
R-ANNO-DIMS
100
AcDbMText
 10
75.64141041596207
 20
24.4638854962576
 30
0.0
 40
0.25
 41
0.0
 71
     5
 72
     1
  1
\A1;DLO
 73
     1
 44
1.0
1001
ACAD
1000
MTEXTBEGIN
1070
    73
1070
     1
1070
    44
1040
1.0
1070
    74
1070
     0
1000
MTEXTEND
  0
LINE
  5
6831
330
17
100
AcDbEntity
  8
R-ANNO-DIMS
100
AcDbLine
 10
72.89140541596205
 20
25.58988549625759
 30
0.0
 11
72.89140541596205
 21
24.0588854962576
 31
0.0
  0
LINE
  5
6832
330
17
100
AcDbEntity
  8
R-ANNO-DIMS
100
AcDbLine
 10
72.64140541596205
 20
24.2388854962576
 30
0.0
 11
69.93093830527858
 21
24.2388854962576
 31
0.0
  0
SOLID
  5
6833
330
17
100
AcDbEntity
  8
R-ANNO-DIMS
100
AcDbTrace
 10
72.64140541596205
 20
24.28055216292426
 30
0.0
 11
72.64140541596205
 21
24.19721882959093
 31
0.0
 12
72.89140541596205
 22
24.2388854962576
 32
0.0
 13
72.89140541596205
 23
24.2388854962576
 33
0.0
  0
SOLID
  5
6834
330
17
100
AcDbEntity
  8
R-ANNO-DIMS
100
AcDbTrace
 10
70.01248686887358
 20
24.28055216292426
 30
0.0
 11
70.01248686887358
 21
24.19721882959093
 31
0.0
 12
69.76248686887358
 22
24.2388854962576
 32
0.0
 13
69.76248686887358
 23
24.2388854962576
 33
0.0
  0
MTEXT
  5
6835
330
17
100
AcDbEntity
  8
R-ANNO-DIMS
100
AcDbMText
 10
71.28753109246545
 20
24.4638854962576
 30
0.0
 40
0.25
 41
0.0
 71
     5
 72
     1
  1
VENT OPENING
 73
     1
 44
1.0
1001
ACAD
1000
MTEXTBEGIN
1070
    73
1070
     1
1070
    44
1040
1.0
1070
    74
1070
     0
1000
MTEXTEND
  0
LINE
  5
6836
330
17
100
AcDbEntity
  8
R-ANNO-DIMS
100
AcDbLine
 10
72.89140541596205
 20
25.58988549625759
 30
0.0
 11
72.89140541596205
 21
24.0588854962576
 31
0.0
  0
LINE
  5
6837
330
17
100
AcDbEntity
  8
R-ANNO-DIMS
100
AcDbLine
 10
74.64140541596205
 20
25.58988549625759
 30
0.0
 11
74.64140541596205
 21
24.0588854962576
 31
0.0
  0
LINE
  5
6838
330
17
100
AcDbEntity
  8
R-ANNO-DIMS
100
AcDbLine
 10
73.14140541596206
 20
24.2388854962576
 30
0.0
 11
74.39140541596206
 21
24.2388854962576
 31
0.0
  0
SOLID
  5
6839
330
17
100
AcDbEntity
  8
R-ANNO-DIMS
100
AcDbTrace
 10
73.14140541596206
 20
24.28055216292426
 30
0.0
 11
73.14140541596206
 21
24.19721882959093
 31
0.0
 12
72.89140541596205
 22
24.2388854962576
 32
0.0
 13
72.89140541596205
 23
24.2388854962576
 33
0.0
  0
SOLID
  5
683A
330
17
100
AcDbEntity
  8
R-ANNO-DIMS
100
AcDbTrace
 10
74.39140541596206
 20
24.28055216292426
 30
0.0
 11
74.39140541596206
 21
24.19721882959093
 31
0.0
 12
74.64140541596205
 22
24.2388854962576
 32
0.0
 13
74.64140541596205
 23
24.2388854962576
 33
0.0
  0
MTEXT
  5
683B
330
17
100
AcDbEntity
  8
R-ANNO-DIMS
100
AcDbMText
 10
73.76640541596206
 20
24.4638854962576
 30
0.0
 40
0.25
 41
0.0
 71
     5
 72
     1
  1
\A1;1 3/4"
 73
     1
 44
1.0
1001
ACAD
1000
MTEXTBEGIN
1070
    73
1070
     1
1070
    44
1040
1.0
1070
    74
1070
     0
1000
MTEXTEND
  0
LWPOLYLINE
  5
683E
330
17
100
AcDbEntity
  8
R-SWTS-DET1
  6
HIDDEN
100
AcDbPolyline
 90
       35
 70
     1
 43
0.0
 10
63.49159942107817
 20
28.3117101181654
 42
0.4142135623730868
 10
63.36659942107818
 20
28.1867101181654
 10
63.36659942107818
 20
27.90517749726972
 42
-0.1374618384367936
 10
63.35786274918945
 20
27.8739994410289
 10
63.30607613017708
 20
27.81846509120207
 42
-0.5499676122638415
 10
63.28600845445875
 20
27.83392973975763
 10
63.31574416775315
 20
27.90113106572444
 42
0.1045253338067333
 10
63.31659942107818
 20
27.90517749726972
 10
63.31659942107818
 20
28.07171011816541
 42
-1.13463852788136
 10
63.31659942107818
 20
28.1117101181654
 10
63.31659942107818
 20
28.1867101181654
 42
-0.4142135623730979
 10
63.49159942107817
 20
28.36171011816539
 10
63.58100845445875
 20
28.3617101181654
 42
0.4142135623730951
 10
63.59100845445874
 20
28.3717101181654
 10
63.59100845445876
 20
28.61653249784362
 42
0.4142135623730561
 10
63.57100845445875
 20
28.63653249784361
 10
63.55299078701924
 20
28.63653249784361
 10
63.47031912300948
 20
28.63653249784361
 42
-0.4142135623730951
 10
63.46031912300948
 20
28.64653249784362
 10
63.46031912300948
 20
28.64966648021765
 42
-0.2679491924311353
 10
63.47581912300949
 20
28.67651326773496
 10
63.5306895991088
 20
28.70819275188146
 42
-0.1316524975874295
 10
63.5356895991088
 20
28.70953249784362
 10
63.54050845445875
 20
28.70953249784362
 42
-0.4142135623730518
 10
63.54650845445876
 20
28.70353249784362
 10
63.54650845445876
 20
28.69642929254738
 42
0.5170635500107807
 10
63.55982468988047
 20
28.68699517453732
 10
63.64769221903703
 20
28.71788194236204
 42
-0.5170635500107573
 10
63.66100845445875
 20
28.70844782435199
 10
63.66100845445875
 20
27.7213231681632
 42
-0.5170635500107731
 10
63.64769221903703
 20
27.71188905015314
 10
63.59769221903704
 20
27.72946480772889
 42
-0.3183363346814593
 10
63.59100845445876
 20
27.73889892573895
 10
63.59100845445874
 20
28.3017101181654
 42
0.4142135623730949
 10
63.58100845445875
 20
28.3117101181654
  0
LWPOLYLINE
  5
6841
330
17
100
AcDbEntity
  8
R-SWTS-DET1
100
AcDbPolyline
 90
        6
 70
     0
 43
0.0
 10
59.91149845445875
 20
25.73888549625759
 10
59.91149845445875
 20
28.13887549625759
 10
59.71151845445874
 20
28.18889549625759
 10
60.11149845445875
 20
28.28887549625759
 10
59.91149845445875
 20
28.33887549625759
 10
59.91149845445875
 20
30.7388854962576
  0
LINE
  5
6842
330
17
100
AcDbEntity
  8
R-SWTS-DET1
100
AcDbLine
 10
61.91150845445875
 20
25.96488549625759
 30
0.0
 11
59.91149845445875
 21
25.96488549625759
 31
0.0
  0
LINE
  5
6843
330
17
100
AcDbEntity
  8
R-SWTS-DET1
100
AcDbLine
 10
61.91150845445875
 20
30.4648854962576
 30
0.0
 11
59.91149845445875
 21
30.4648854962576
 31
0.0
  0
LINE
  5
6847
330
17
100
AcDbEntity
  8
R-SWTS-DET2
100
AcDbLine
 10
61.91150845445874
 20
27.57259495469927
 30
0.0
 11
59.91152858509534
 21
27.57259495469927
 31
0.0
  0
LINE
  5
6848
330
17
100
AcDbEntity
  8
R-SWTS-DET3
100
AcDbLine
 10
62.28650845445875
 20
28.08994866915411
 30
0.0
 11
62.28650845445875
 21
28.33994866915411
 31
0.0
  0
LINE
  5
6849
330
17
100
AcDbEntity
  8
R-SWTS-DET3
100
AcDbLine
 10
62.28650845445875
 20
28.08994866915411
 30
0.0
 11
59.91150845445876
 21
28.08994866915411
 31
0.0
  0
LINE
  5
684A
330
17
100
AcDbEntity
  8
R-SWTS-DET3
100
AcDbLine
 10
62.28650845445875
 20
28.33994866915411
 30
0.0
 11
59.91150845445876
 21
28.33994866915411
 31
0.0
  0
LINE
  5
684B
330
17
100
AcDbEntity
  8
R-SWTS-DET2
100
AcDbLine
 10
61.91150845445874
 20
28.85730238360895
 30
0.0
 11
59.91152858509534
 21
28.85730238360895
 31
0.0
  0
LWPOLYLINE
  5
684C
330
17
100
AcDbEntity
  8
R-SWTS-DET1
  6
HIDDEN
100
AcDbPolyline
 90
       98
 70
     1
 43
0.0
 10
61.91150845445875
 20
30.01088549625759
 10
61.99150845445875
 20
30.01088549625759
 10
61.99150845445875
 20
29.84088549625759
 10
62.07750845445875
 20
29.8408854962576
 10
62.07750845445875
 20
29.90288549625759
 10
62.29450845445875
 20
29.8238854962576
 42
-1.003724381894564
 10
62.27050845445875
 20
29.75838549625759
 10
62.16742685119164
 20
29.79595301389272
 42
0.4152632777059977
 10
62.13570047836313
 20
29.77871054466124
 42
-0.3398956733201357
 10
62.11250845445872
 20
29.7608854962576
 10
62.01150845445877
 20
29.76088549625759
 42
0.414213562373069
 10
61.99150845445875
 20
29.7408854962576
 10
61.99150845445875
 20
29.6168854962576
 42
0.4142135623731211
 10
62.00150845445875
 20
29.6068854962576
 10
62.00150845445875
 20
29.4448854962576
 10
61.99150845445875
 20
29.4348854962576
 10
62.00150845445875
 20
29.4248854962576
 10
62.00150845445875
 20
29.26288549625759
 42
0.4142135623730431
 10
61.99150845445875
 20
29.2528854962576
 10
61.99150845445875
 20
28.88638549625759
 42
0.4142135623730821
 10
62.07150845445875
 20
28.80638549625759
 10
62.08156388370735
 20
28.80638549625759
 42
-0.1990202627215654
 10
62.15584091240349
 20
28.77560087881453
 10
62.21714163957279
 20
28.71424923291343
 42
0.1990202627215551
 10
62.23128964503871
 20
28.7083854962576
 10
62.31150845445878
 20
28.7083854962576
 42
-0.4142135623730605
 10
62.49150845445875
 20
28.5283854962576
 10
62.49150845445877
 20
27.9033854962576
 42
-0.4142135623730749
 10
62.31150845445878
 20
27.72338549625759
 10
62.23128964503871
 20
27.72338549625759
 42
0.1990202627215551
 10
62.21714163957279
 20
27.71752175960177
 10
62.15584091240348
 20
27.65617011370066
 42
-0.1990202627215655
 10
62.08156388370735
 20
27.6253854962576
 10
62.07150845445875
 20
27.6253854962576
 42
0.4142135623730964
 10
61.99150845445875
 20
27.5453854962576
 10
61.99150845445875
 20
27.17888549625759
 42
0.4142135623730951
 10
62.00150845445874
 20
27.16888549625759
 10
62.00150845445874
 20
27.00688549625759
 10
61.99150845445875
 20
26.99688549625759
 10
62.00150845445874
 20
26.98688549625759
 10
62.00150845445875
 20
26.82488549625759
 42
0.4142135623731471
 10
61.99150845445875
 20
26.81488549625759
 10
61.99150845445875
 20
26.69088549625759
 42
0.4142135623730951
 10
62.01150845445875
 20
26.6708854962576
 10
62.11250845445872
 20
26.6708854962576
 42
-0.3398956733201879
 10
62.13570047836313
 20
26.65306044785396
 42
0.4152632777060245
 10
62.16742685119161
 20
26.63581797862246
 10
62.27050845445875
 20
26.67338549625759
 42
-1.00372438189457
 10
62.29450845445875
 20
26.6078854962576
 10
62.07750845445875
 20
26.52888549625759
 10
62.07750845445875
 20
26.59088549625759
 10
61.99150845445875
 20
26.59088549625759
 10
61.99150845445875
 20
26.42088549625759
 10
61.91150845445875
 20
26.42088549625759
 10
61.91150845445875
 20
27.69835519322729
 10
62.01400845445876
 20
27.7343854962576
 10
62.01400845445876
 20
27.7053854962576
 10
62.08570845445875
 20
27.7053854962576
 42
0.1989123673796549
 10
62.10338612398841
 20
27.71270782672794
 10
62.17000845445875
 20
27.7793854962576
 10
62.17000845445875
 20
27.8213354962576
 42
0.3541185725306985
 10
62.15416668827511
 20
27.84089844827227
 10
62.05200845445876
 20
27.8633354962576
 10
62.01400845445876
 20
27.8633354962576
 10
62.01400845445876
 20
27.8343354962576
 10
62.00200845445876
 20
27.8343354962576
 42
-0.4142135623730951
 10
61.98200845445876
 20
27.8543354962576
 10
61.98200845445876
 20
27.8833354962576
 42
-0.4142135623730951
 10
62.00200845445876
 20
27.9033354962576
 10
62.20400345445876
 20
27.9033354962576
 42
-0.4142135623730951
 10
62.24200845445875
 20
27.8653304962576
 10
62.22000845445876
 20
27.8653304962576
 10
62.22000845445876
 20
27.82338549625759
 42
0.4142135623730951
 10
62.24000845445876
 20
27.80338549625759
 10
62.31150845445878
 20
27.80338549625759
 42
0.4142135623730743
 10
62.41150845445877
 20
27.9033854962576
 10
62.41150845445876
 20
28.5283854962576
 42
0.4142135623730587
 10
62.31150845445876
 20
28.6283854962576
 10
62.24000845445876
 20
28.6283854962576
 42
0.4142135623730951
 10
62.22000845445875
 20
28.60838549625761
 10
62.22000845445876
 20
28.56644049625759
 10
62.24200845445875
 20
28.56644049625759
 42
-0.4142135623730951
 10
62.20400345445876
 20
28.5284354962576
 10
62.00200845445876
 20
28.5284354962576
 42
-0.4142135623730951
 10
61.98200845445876
 20
28.54843549625759
 10
61.98200845445876
 20
28.57743549625759
 42
-0.4142135623730951
 10
62.00200845445876
 20
28.59743549625759
 10
62.01400845445876
 20
28.59743549625759
 10
62.01400845445876
 20
28.56843549625759
 10
62.05200845445876
 20
28.56843549625759
 10
62.15416668827511
 20
28.59087254424292
 42
0.3541185725306761
 10
62.17000845445875
 20
28.6104354962576
 10
62.17000845445875
 20
28.6523854962576
 10
62.10338612398841
 20
28.71906316578725
 42
0.1989123673796627
 10
62.08570845445875
 20
28.72638549625759
 10
62.01400845445876
 20
28.72638549625759
 10
62.01400845445876
 20
28.6973854962576
 10
61.91150845445875
 20
28.73341579928789
  0
LWPOLYLINE
  5
684D
330
17
100
AcDbEntity
  8
R-SWTS-DET1
  6
HIDDEN
100
AcDbPolyline
 90
      112
 70
     1
 43
0.0
 10
62.05150845445875
 20
30.3848854962576
 42
0.414213562373093
 10
61.99150845445875
 20
30.32488549625759
 10
61.99150845445875
 20
30.09088549625759
 10
62.00950845445875
 20
30.09088549625759
 42
-0.4142135623731076
 10
62.07150845445875
 20
30.0288854962576
 10
62.07150845445875
 20
29.84088549625759
 10
62.05350845445875
 20
29.84088549625759
 42
-0.4142135623730867
 10
61.99150845445875
 20
29.90288549625759
 10
61.99150845445875
 20
30.01088549625759
 10
61.91150845445875
 20
30.01088549625759
 10
61.91150845445875
 20
30.4648854962576
 10
63.66150845445876
 20
30.4648854962576
 10
63.66150845445876
 20
28.73236579928789
 10
63.55900845445875
 20
28.69633549625759
 10
63.55900845445875
 20
28.72533549625759
 10
63.48730845445874
 20
28.72533549625759
 42
0.1989123673796471
 10
63.46963078492908
 20
28.71801316578725
 10
63.40300845445874
 20
28.65133549625759
 10
63.40300845445874
 20
28.60938549625759
 42
0.3541185725306839
 10
63.41885022064239
 20
28.58982254424292
 10
63.52100845445875
 20
28.56738549625759
 10
63.55900845445875
 20
28.56738549625759
 10
63.55900845445875
 20
28.59638549625759
 10
63.57100845445875
 20
28.59638549625759
 42
-0.4142135623730951
 10
63.59100845445874
 20
28.57638549625759
 10
63.59100845445874
 20
28.54738549625759
 42
-0.4142135623730951
 10
63.57100845445875
 20
28.52738549625759
 10
63.36901345445873
 20
28.52738549625759
 42
-0.4142135623730951
 10
63.33100845445874
 20
28.56539049625759
 10
63.35300845445875
 20
28.56539049625759
 10
63.35300845445875
 20
28.60238549625759
 42
0.4142135623730951
 10
63.32800845445875
 20
28.62738549625759
 10
62.88650845445875
 20
28.62738549625759
 42
0.4142135623730848
 10
62.78650845445875
 20
28.5273854962576
 10
62.78650845445875
 20
27.9023854962576
 42
0.4142135623730847
 10
62.88650845445875
 20
27.80238549625759
 10
63.32800845445875
 20
27.80238549625759
 42
0.4142135623730951
 10
63.35300845445875
 20
27.82738549625759
 10
63.35300845445875
 20
27.86438049625759
 10
63.33100845445874
 20
27.86438049625759
 42
-0.4142135623730951
 10
63.36901345445873
 20
27.90238549625759
 10
63.57100845445875
 20
27.90238549625759
 42
-0.4142135623730951
 10
63.59100845445874
 20
27.88238549625759
 10
63.59100845445874
 20
27.85338549625759
 42
-0.4142135623730951
 10
63.57100845445875
 20
27.83338549625759
 10
63.55900845445875
 20
27.83338549625759
 10
63.55900845445875
 20
27.86238549625759
 10
63.52100845445875
 20
27.86238549625759
 10
63.41885022064239
 20
27.83994844827227
 42
0.3541185725306901
 10
63.40300845445874
 20
27.82038549625759
 10
63.40300845445874
 20
27.77843549625759
 10
63.46963078492908
 20
27.71175782672793
 42
0.1989123673796472
 10
63.48730845445874
 20
27.70443549625759
 10
63.55900845445875
 20
27.70443549625759
 10
63.55900845445875
 20
27.73343549625759
 10
63.66150845445876
 20
27.69740519322729
 10
63.66150845445876
 20
25.96488549625759
 10
61.91150845445875
 20
25.96488549625759
 10
61.91150845445875
 20
26.4188854962576
 10
61.99150845445875
 20
26.4188854962576
 10
61.99150845445875
 20
26.52688549625759
 42
-0.4142135623730868
 10
62.05350845445875
 20
26.5888854962576
 10
62.07150845445875
 20
26.5888854962576
 10
62.07150845445875
 20
26.4008854962576
 42
-0.4142135623730887
 10
62.00950845445875
 20
26.3388854962576
 10
61.99150845445875
 20
26.3388854962576
 10
61.99150845445875
 20
26.1048854962576
 42
0.4142135623730951
 10
62.05150845445875
 20
26.04488549625759
 10
63.52150845445875
 20
26.04488549625759
 42
0.4142135623730951
 10
63.58150845445876
 20
26.10488549625759
 10
63.58150845445876
 20
26.83315565879683
 42
0.5680984128595087
 10
63.55199494094524
 20
26.85074807365745
 42
-0.3397540095737741
 10
63.35350845445876
 20
26.88263797972852
 10
63.35350845445875
 20
26.92660346395483
 10
63.38298911950758
 20
26.94362413385667
 42
-0.3865446749097419
 10
63.39613381807438
 20
26.94076593852729
 42
3.127286275187394
 10
63.39613381807436
 20
27.05100505398791
 42
-0.38654467490966
 10
63.38298911950758
 20
27.04814685865852
 10
63.35350845445875
 20
27.06516752856034
 10
63.35350845445876
 20
27.10913301278666
 42
-0.3397540095737763
 10
63.55199494094524
 20
27.14102291885772
 42
0.5680984128595011
 10
63.58150845445876
 20
27.15861533371836
 10
63.58150845445876
 20
27.6044354962576
 42
0.4142135623731302
 10
63.56150845445874
 20
27.62443549625761
 10
63.48730845445875
 20
27.62443549625759
 42
-0.1990756122146733
 10
63.42009113031004
 20
27.6523025584827
 10
63.35738994536075
 20
27.71505582543781
 42
0.1990202627215667
 10
63.33970493852834
 20
27.72238549625759
 10
62.87650845445876
 20
27.72238549625759
 42
-0.4142135623730996
 10
62.70650845445875
 20
27.89238549625759
 10
62.70650845445875
 20
28.53738549625761
 42
-0.4142135623731034
 10
62.87650845445876
 20
28.7073854962576
 10
63.33970493852834
 20
28.70738549625759
 42
0.1990202627215824
 10
63.35738994536075
 20
28.71471516707737
 10
63.42009113031004
 20
28.77746843403249
 42
-0.1990756122146731
 10
63.48730845445875
 20
28.80533549625759
 10
63.56150845445874
 20
28.80533549625759
 42
0.4142135623730953
 10
63.58150845445876
 20
28.82533549625759
 10
63.58150845445876
 20
29.27115565879685
 42
0.5680984128595151
 10
63.55199494094524
 20
29.28874807365748
 42
-0.3397540095737933
 10
63.35350845445876
 20
29.32063797972853
 10
63.35350845445875
 20
29.36460346395484
 10
63.38298911950758
 20
29.38162413385667
 42
-0.3865446749097419
 10
63.39613381807438
 20
29.37876593852729
 42
3.127286275187394
 10
63.39613381807436
 20
29.48900505398791
 42
-0.38654467490966
 10
63.38298911950758
 20
29.48614685865852
 10
63.35350845445875
 20
29.50316752856036
 10
63.35350845445876
 20
29.54713301278666
 42
-0.3397540095737883
 10
63.55199494094524
 20
29.57902291885772
 42
0.5680984128595153
 10
63.58150845445876
 20
29.59661533371834
 10
63.58150845445876
 20
30.32488549625759
 42
0.4142135623731039
 10
63.52150845445875
 20
30.3848854962576
  0
LWPOLYLINE
  5
684E
330
17
100
AcDbEntity
  8
R-SWTS-DET2
100
AcDbPolyline
 90
       31
 70
     1
 43
0.0
 10
62.02551048262319
 20
28.7134872650079
 10
62.02063618202522
 20
28.68667073846897
 10
61.91340158434347
 20
28.7208008625901
 10
61.90852728546478
 20
28.78174751325017
 10
61.91150845445874
 20
28.85730238360895
 10
61.88049891183751
 20
28.84721184205064
 42
0.1257100272134179
 10
61.82875658424385
 20
28.61522044002858
 42
-0.2260837189018228
 10
61.77903872559975
 20
28.46163487959697
 10
61.66809810743941
 20
28.36607956993728
 42
0.6449762263124317
 10
61.67983944991306
 20
28.34014527791909
 10
61.80907638554244
 20
28.34172501494715
 42
0.1518691569180708
 10
61.8535115398917
 20
28.35807779154348
 10
61.91343731916018
 20
28.39658097983873
 42
-0.0293454671788447
 10
61.96531996235281
 20
28.41397586904163
 10
62.08711397218984
 20
28.43120615862515
 42
-0.6538117075652882
 10
62.09410070915521
 20
28.4109653477223
 10
61.92885179166528
 20
28.36687360049997
 42
0.8886355728344963
 10
61.93091322256467
 20
28.34172501494715
 10
62.06515884295733
 20
28.34172501494715
 42
0.0642046489364144
 10
62.25377509966462
 20
28.38415747685657
 42
0.6896355001773956
 10
62.25377509966462
 20
28.48676620724468
 42
0.0703560868358924
 10
62.06515884295733
 20
28.52799866915411
 10
61.9694560326237
 20
28.52799866915411
 10
61.9694560326237
 20
28.60134542713069
 10
62.02307333232422
 20
28.62328622194817
 10
62.02794763120291
 20
28.58428036403469
 10
62.06450488052981
 20
28.6184104902267
 10
62.0864392297821
 20
28.58671822989542
 10
62.14005652776333
 20
28.64766488262637
 10
62.07425348000646
 20
28.70373580156498
 10
62.06450488052981
 20
28.67935714088677
  0
LWPOLYLINE
  5
684F
330
17
100
AcDbEntity
  8
R-SWTS-DET2
100
AcDbPolyline
 90
       31
 70
     1
 43
0.0
 10
62.02551048262319
 20
27.71641007330031
 10
62.02063618202522
 20
27.74322659983925
 10
61.91340158434347
 20
27.70909647571812
 10
61.90852728546478
 20
27.64814982505805
 10
61.91150845445874
 20
27.57259495469927
 10
61.88049891183751
 20
27.58268549625759
 42
-0.1257100272134179
 10
61.82875658424385
 20
27.81467689827964
 42
0.2260837189018228
 10
61.77903872559975
 20
27.96826245871125
 10
61.66809810743941
 20
28.06381776837094
 42
-0.6449762263124317
 10
61.67983944991306
 20
28.08975206038912
 10
61.80907638554244
 20
28.08817232336107
 42
-0.1518691569180708
 10
61.8535115398917
 20
28.07181954676474
 10
61.91343731916018
 20
28.03331635846949
 42
0.0293454671788447
 10
61.96531996235281
 20
28.01592146926659
 10
62.08711397218984
 20
27.99869117968306
 42
0.6538117075652882
 10
62.09410070915521
 20
28.01893199058592
 10
61.92885179166528
 20
28.06302373780825
 42
-0.8886355728344963
 10
61.93091322256467
 20
28.08817232336107
 10
62.06515884295733
 20
28.08817232336107
 42
-0.0642046489364144
 10
62.25377509966462
 20
28.04573986145165
 42
-0.6896355001773956
 10
62.25377509966462
 20
27.94313113106354
 42
-0.0703560868358924
 10
62.06515884295733
 20
27.90189866915411
 10
61.9694560326237
 20
27.90189866915411
 10
61.9694560326237
 20
27.82855191117752
 10
62.02307333232422
 20
27.80661111636006
 10
62.02794763120291
 20
27.84561697427353
 10
62.06450488052981
 20
27.81148684808152
 10
62.0864392297821
 20
27.8431791084128
 10
62.14005652776333
 20
27.78223245568185
 10
62.07425348000646
 20
27.72616153674325
 10
62.06450488052981
 20
27.75054019742145
  0
SOLID
  5
6852
330
17
100
AcDbEntity
  8
R-ANNO-DIMS
100
AcDbTrace
 10
63.91150845445875
 20
24.28055216292426
 30
0.0
 11
63.91150845445875
 21
24.19721882959093
 31
0.0
 12
63.66150845445876
 22
24.2388854962576
 32
0.0
 13
63.66150845445876
 23
24.2388854962576
 33
0.0
  0
MTEXT
  5
6854
330
17
100
AcDbEntity
  8
R-ANNO-DIMS
100
AcDbMText
 10
65.26945844923194
 20
24.4638854962576
 30
0.0
 40
0.25
 41
0.0
 71
     5
 72
     1
  1
VENT OPENING
 73
     1
 44
1.0
1001
ACAD
1000
MTEXTBEGIN
1070
    73
1070
     1
1070
    44
1040
1.0
1070
    74
1070
     0
1000
MTEXTEND
  0
LINE
  5
6855
330
17
100
AcDbEntity
  8
R-ANNO-DIMS
100
AcDbLine
 10
61.91150845445875
 20
25.58988549625759
 30
0.0
 11
61.91150845445875
 21
24.0588854962576
 31
0.0
  0
LINE
  5
6856
330
17
100
AcDbEntity
  8
R-ANNO-DIMS
100
AcDbLine
 10
61.66150845445875
 20
24.2388854962576
 30
0.0
 11
60.19496375978171
 21
24.2388854962576
 31
0.0
  0
SOLID
  5
6857
330
17
100
AcDbEntity
  8
R-ANNO-DIMS
100
AcDbTrace
 10
61.66150845445875
 20
24.28055216292426
 30
0.0
 11
61.66150845445875
 21
24.19721882959093
 31
0.0
 12
61.91150845445875
 22
24.2388854962576
 32
0.0
 13
61.91150845445875
 23
24.2388854962576
 33
0.0
  0
SOLID
  5
6858
330
17
100
AcDbEntity
  8
R-ANNO-DIMS
100
AcDbTrace
 10
60.19496375978171
 20
24.28055216292426
 30
0.0
 11
60.19496375978171
 21
24.19721882959093
 31
0.0
 12
59.94496375978171
 22
24.2388854962576
 32
0.0
 13
59.94496375978171
 23
24.2388854962576
 33
0.0
  0
MTEXT
  5
6859
330
17
100
AcDbEntity
  8
R-ANNO-DIMS
100
AcDbMText
 10
60.92823610712023
 20
24.4638854962576
 30
0.0
 40
0.25
 41
0.0
 71
     5
 72
     1
  1
\A1;DLO
 73
     1
 44
1.0
1001
ACAD
1000
MTEXTBEGIN
1070
    73
1070
     1
1070
    44
1040
1.0
1070
    74
1070
     0
1000
MTEXTEND
  0
LINE
  5
685C
330
17
100
AcDbEntity
  8
R-ANNO-DIMS
100
AcDbLine
 10
62.16150845445875
 20
24.2388854962576
 30
0.0
 11
63.41150845445875
 21
24.2388854962576
 31
0.0
  0
SOLID
  5
685D
330
17
100
AcDbEntity
  8
R-ANNO-DIMS
100
AcDbTrace
 10
62.16150845445875
 20
24.28055216292426
 30
0.0
 11
62.16150845445875
 21
24.19721882959093
 31
0.0
 12
61.91150845445875
 22
24.2388854962576
 32
0.0
 13
61.91150845445875
 23
24.2388854962576
 33
0.0
  0
SOLID
  5
685E
330
17
100
AcDbEntity
  8
R-ANNO-DIMS
100
AcDbTrace
 10
63.41150845445875
 20
24.28055216292426
 30
0.0
 11
63.41150845445875
 21
24.19721882959093
 31
0.0
 12
63.66150845445876
 22
24.2388854962576
 32
0.0
 13
63.66150845445876
 23
24.2388854962576
 33
0.0
  0
MTEXT
  5
685F
330
17
100
AcDbEntity
  8
R-ANNO-DIMS
100
AcDbMText
 10
62.78650845445875
 20
24.4638854962576
 30
0.0
 40
0.25
 41
0.0
 71
     5
 72
     1
  1
\A1;1 3/4"
 73
     1
 44
1.0
1001
ACAD
1000
MTEXTBEGIN
1070
    73
1070
     1
1070
    44
1040
1.0
1070
    74
1070
     0
1000
MTEXTEND
  0
LWPOLYLINE
  5
6F8E
330
17
100
AcDbEntity
  8
R-SWTS-DET3
100
AcDbPolyline
 90
        4
 70
     0
 43
0.0
 10
47.39303648016341
 20
35.81984011443422
 10
47.39303648016341
 20
33.2844920858093
 10
47.6430364801634
 20
33.2844920858093
 10
47.6430364801634
 20
35.81984011443422
  0
LWPOLYLINE
  5
6F91
330
17
100
AcDbEntity
  8
R-SWTS-DET1
100
AcDbPolyline
 90
       23
 70
     1
 43
0.0
 10
49.25278898016944
 20
33.90949208580996
 10
49.25278898016944
 20
34.15949208580995
 10
49.21778898016945
 20
34.15949208580995
 10
49.21778898016945
 20
34.40949208580997
 10
49.12778898016944
 20
34.40949208580997
 10
49.12778898016944
 20
34.44449208580996
 10
48.19778898015738
 20
34.44449208580998
 10
48.19778898015738
 20
34.40949208580998
 10
48.1077889801574
 20
34.40949208580997
 10
48.1077889801574
 20
34.36449208580997
 10
48.1077889801574
 20
34.31949208580997
 10
47.98328398016944
 20
34.31949208580998
 10
47.98328398016944
 20
33.99949208580994
 10
48.1077889801574
 20
33.99949208580995
 10
48.1077889801574
 20
33.90949208580997
 10
48.19778898015738
 20
33.90949208580997
 10
48.19778898015738
 20
33.87449208580997
 10
48.35529257884761
 20
33.87449208580996
 10
48.35529257884761
 20
33.90949208580996
 10
48.70529257884761
 20
33.90949208580996
 10
48.70529257884761
 20
33.87449208580996
 10
49.12778898016944
 20
33.87449208580996
 10
49.12778898016944
 20
33.90949208580996
  0
ARC
  5
6F92
330
17
100
AcDbEntity
  8
R-SWTS-DET3
100
AcDbCircle
 10
47.5194841134064
 20
33.19339923905025
 30
0.0
 40
0.7969581492212631
100
AcDbArc
 50
310.4007772379727
 51
329.4977537617371
  0
LWPOLYLINE
  5
6F93
330
17
100
AcDbEntity
  8
R-SWTS-DET1
100
AcDbPolyline
 90
       32
 70
     1
 43
0.0
 10
47.98328398016944
 20
33.78449208580996
 10
47.98328398423342
 20
33.20428156766574
 42
-0.1242036526138901
 10
47.97251178956051
 20
33.16158549153592
 10
47.86215019219214
 20
32.95679601031056
 42
-0.2758198526281321
 10
47.78292238686504
 20
32.90949208580999
 10
47.67828398016944
 20
32.90949208581
 42
-0.9999999999999998
 10
47.67828398016944
 20
32.94149208581
 10
47.68428398016944
 20
32.94149208581
 42
0.9999999999999998
 10
47.68428398016944
 20
32.98549208581
 10
47.51528398016945
 20
32.98549208580999
 42
0.9999999999999998
 10
47.51528398016945
 20
32.94149208581
 10
47.52128398016945
 20
32.94149208581
 42
-0.9999999999999998
 10
47.52128398016945
 20
32.90949208580997
 10
47.34528398016944
 20
32.90949208580997
 42
-0.7673269879790971
 10
47.33778398016945
 20
32.93748246686673
 10
47.44328398016945
 20
33.00020252339169
 10
47.44328398016944
 20
33.06549208580997
 10
47.47428398016944
 20
33.06549208580997
 10
47.47428398016944
 20
33.03449208580996
 10
47.80178398016944
 20
33.03449208580996
 10
47.89328398016944
 20
33.20428155949416
 10
47.89328398016944
 20
33.50449208580933
 10
47.86328398016943
 20
33.50449208580932
 10
47.86328398016943
 20
33.53449208580932
 10
47.89328398016944
 20
33.53449208580932
 10
47.89328398016944
 20
34.53449208580997
 10
49.34278898016944
 20
34.53449208580997
 10
49.34278898016945
 20
33.68949208580997
 42
-0.4142135623730951
 10
49.31278898016945
 20
33.65949208580996
 10
49.28278898016944
 20
33.65949208580996
 42
-0.4142135623730951
 10
49.25278898016943
 20
33.68949208580997
 10
49.25278898016944
 20
33.78449208580997
  0
ARC
  5
6F94
330
17
100
AcDbEntity
  8
R-SWTS-DET3
100
AcDbCircle
 10
46.88922850159558
 20
33.18186187273673
 30
0.0
 40
0.5105891790859307
100
AcDbArc
 50
331.4045308612694
 51
11.59564722521843
  0
ARC
  5
6F95
330
17
100
AcDbEntity
  8
R-SWTS-DET2
100
AcDbCircle
 10
46.88922850159531
 20
33.18186187273743
 30
0.0
 40
0.5105891790859307
100
AcDbArc
 50
331.4045308612694
 51
11.59564722521843
  0
LINE
  5
6F96
330
17
100
AcDbEntity
  8
R-SWTS-DET2
100
AcDbLine
 10
47.78603648016343
 20
33.28449208580929
 30
0.0
 11
47.47403648016343
 21
33.03449208580996
 31
0.0
  0
LINE
  5
6F97
330
17
100
AcDbEntity
  8
R-SWTS-DET2
100
AcDbLine
 10
47.47403648016343
 20
33.28449208580929
 30
0.0
 11
47.78603648016343
 21
33.03449208580996
 31
0.0
  0
LWPOLYLINE
  5
6F98
330
17
100
AcDbEntity
  8
R-SWTS-DET2
100
AcDbPolyline
 90
        4
 70
     1
 43
0.0
 10
47.47403648016343
 20
33.03449208580996
 10
47.78603648016343
 20
33.03449208580996
 10
47.78603648016343
 20
33.28449208580929
 10
47.47403648016343
 20
33.28449208580929
  0
LWPOLYLINE
  5
6F99
330
17
100
AcDbEntity
  8
R-SWTS-DET2
100
AcDbPolyline
 90
       11
 70
     1
 43
0.0
 10
47.61453648016343
 20
32.9054529850883
 10
47.59953648016343
 20
32.8904529850883
 10
47.58453648016343
 20
32.9054529850883
 10
47.54669634520136
 20
32.90545298508831
 10
47.54669634520136
 20
32.95545298508833
 10
47.50578648016342
 20
32.95545298508833
 10
47.50578648016342
 20
32.98345298508833
 10
47.69328648016342
 20
32.98345298508833
 10
47.69328648016342
 20
32.95545298508833
 10
47.65237661512548
 20
32.95545298508833
 10
47.65237661512548
 20
32.90545298508831
  0
LWPOLYLINE
  5
6F9A
330
17
100
AcDbEntity
  8
R-SWTS-DET2
100
AcDbPolyline
 90
       12
 70
     0
 43
0.0
 10
47.54669634520136
 20
32.90545298508831
 10
47.47453648016342
 20
32.90545298508833
 42
0.4142135623731211
 10
47.51453648016341
 20
32.86545298508832
 10
47.54412004328061
 20
32.86545298508831
 42
-0.3972412470608563
 10
47.56907757967582
 20
32.84190947988113
 10
47.58456071336638
 20
32.6566006888718
 42
0.9447064698048437
 10
47.61451224696046
 20
32.6566006888718
 10
47.62999538065103
 20
32.84190947988113
 42
-0.397241247060855
 10
47.65495291704623
 20
32.86545298508831
 10
47.68453648016342
 20
32.86545298508832
 42
0.4142135623731211
 10
47.72453648016342
 20
32.90545298508833
 10
47.65237661512548
 20
32.90545298508831
  0
LWPOLYLINE
  5
6F9B
330
17
100
AcDbEntity
  8
R-SWTS-DET2
100
AcDbPolyline
 90
        4
 70
     1
 43
0.0
 10
47.6430364801634
 20
33.5344920858093
 10
47.6430364801634
 20
34.15949208581075
 10
47.89303648016341
 20
34.15949208581075
 10
47.89303648016341
 20
33.5344920858093
  0
ARC
  5
6F9C
330
17
100
AcDbEntity
  8
R-SWTS-DET3
100
AcDbCircle
 10
47.76803648016369
 20
34.46635119044719
 30
0.0
 40
0.249999999999999
100
AcDbArc
 50
239.9999999999998
 51
300.0
  0
ARC
  5
6F9D
330
17
100
AcDbEntity
  8
R-SWTS-DET3
100
AcDbCircle
 10
47.76803648016369
 20
34.53751300202441
 30
0.0
 40
0.249999999999999
100
AcDbArc
 50
239.9999999999998
 51
300.0
  0
ARC
  5
6F9E
330
17
100
AcDbEntity
  8
R-SWTS-DET3
100
AcDbCircle
 10
47.76803648016342
 20
34.67983662517885
 30
0.0
 40
0.249999999999999
100
AcDbArc
 50
239.9999999999998
 51
300.0
  0
ARC
  5
6F9F
330
17
100
AcDbEntity
  8
R-SWTS-DET3
100
AcDbCircle
 10
47.76803648016342
 20
34.60867481360163
 30
0.0
 40
0.249999999999999
100
AcDbArc
 50
239.9999999999998
 51
300.0
  0
ARC
  5
6FA0
330
17
100
AcDbEntity
  8
R-SWTS-DET3
100
AcDbCircle
 10
47.76803648016342
 20
34.75099843675607
 30
0.0
 40
0.249999999999999
100
AcDbArc
 50
239.9999999999998
 51
300.0
  0
LINE
  5
6FA2
330
17
100
AcDbEntity
  8
R-SWTS-DET1
100
AcDbLine
 10
48.20539689575025
 20
32.99654512992077
 30
0.0
 11
48.20539689575024
 21
33.78449208580996
 31
0.0
  0
LWPOLYLINE
  5
6FA3
330
17
100
AcDbEntity
  8
R-SWTS-DET1
100
AcDbPolyline
 90
       54
 70
     1
 43
0.0
 10
48.92480373059088
 20
33.0974920865534
 10
48.28417774394829
 20
33.09749208740714
 42
0.2374086589145607
 10
48.27213219576602
 20
33.09143103418348
 10
48.20835134758798
 20
33.00548407669711
 42
0.1609749659296044
 10
48.20539689575025
 20
32.99654512992077
 10
48.20539689575025
 20
32.79949208580283
 42
0.4142135622612168
 10
48.22039689574452
 20
32.78449208580282
 10
48.30539689577648
 20
32.78449208577036
 10
48.3053968957401
 20
32.7364920858206
 42
0.4142135625965044
 10
48.32039689574017
 20
32.72149208580923
 10
48.60205448917573
 20
32.7214920858106
 42
0.4142135622598295
 10
48.61705448917566
 20
32.73649208580486
 10
48.61705448919304
 20
32.78198362503476
 42
0.4142135624849559
 10
48.60205448919304
 20
32.79698362504049
 10
48.42039689577647
 20
32.79698362504049
 10
48.42039689577647
 20
32.81509232835137
 42
0.4142135623731037
 10
48.36039689577646
 20
32.87509232835136
 10
48.33039689584514
 20
32.87509232835136
 10
48.33039689584514
 20
32.94519406140274
 10
48.4053968957733
 20
32.94519406138695
 42
0.4142135624347833
 10
48.42039689577647
 20
32.96019406138695
 10
48.42039689577647
 20
32.98749208655864
 10
49.30303648024411
 20
32.98749208601741
 10
49.30303648024411
 20
32.96019406138695
 42
0.4142135624347833
 10
49.31803648024727
 20
32.94519406138695
 10
49.39303648017544
 20
32.94519406140274
 10
49.39303648017544
 20
32.87509232833242
 10
49.36303648024411
 20
32.87509232835136
 42
0.4142135623731037
 10
49.30303648024411
 20
32.81509232835137
 10
49.30303648024411
 20
32.79698362504049
 10
49.12137888670859
 20
32.79698362504049
 42
0.4142135624849559
 10
49.10637888670859
 20
32.78198362503476
 10
49.10637888672597
 20
32.73649208580486
 42
0.4142135622598645
 10
49.12137888672589
 20
32.7214920858106
 10
49.40303648016147
 20
32.72149208580923
 42
0.4142135625965045
 10
49.41803648016154
 20
32.7364920858206
 10
49.41803648012516
 20
32.78449208577036
 10
49.50303648015743
 20
32.78449208580282
 42
0.4142135622549909
 10
49.5180364801517
 20
32.79949208580251
 10
49.51803648017512
 20
33.89449208580822
 42
0.4142135623793384
 10
49.50303648017512
 20
33.90949208580854
 10
49.40803648017544
 20
33.90949208580854
 42
0.4142135623730259
 10
49.39303648017544
 20
33.89449208580855
 10
49.39303648017542
 20
33.83149208580853
 42
0.9999999999999998
 10
49.42503648017543
 20
33.83149208580853
 10
49.42503648017543
 20
33.83749208580854
 42
-0.9999999999999998
 10
49.46903648017543
 20
33.83749208580854
 10
49.46903648017543
 20
33.66849208580854
 42
-0.9999999999999998
 10
49.42503648017543
 20
33.66849208580854
 10
49.42503648017543
 20
33.67449208580854
 42
0.9999999999999998
 10
49.39303648017544
 20
33.67449208580854
 10
49.39303648017544
 20
33.09749208613522
 10
48.94480373059088
 20
33.09749208652801
 10
48.93480373060357
 20
33.08749208654071
  0
LWPOLYLINE
  5
6FA5
330
17
100
AcDbEntity
  8
R-SWTS-DET3
100
AcDbPolyline
 90
        4
 70
     1
 43
0.0
 10
48.3698694202545
 20
32.58649208581132
 10
49.40133134786059
 20
32.58649208581132
 10
49.40133134786059
 20
32.72149208581065
 10
48.3698694202545
 20
32.72149208581065
  0
LINE
  5
6FA6
330
17
100
AcDbEntity
  8
R-SWTS-DET3
100
AcDbLine
 10
48.3698694202545
 20
32.58649208581132
 30
0.0
 11
49.40133134786059
 21
32.72149208581065
 31
0.0
  0
LINE
  5
6FA7
330
17
100
AcDbEntity
  8
R-SWTS-DET3
100
AcDbLine
 10
48.3698694202545
 20
32.72149208581065
 30
0.0
 11
49.40133134786059
 21
32.58649208581132
 31
0.0
  0
ARC
  5
6FA8
330
17
100
AcDbEntity
  8
R-SWTS-DET3
100
AcDbCircle
 10
49.77247601705276
 20
32.65319638438382
 30
0.0
 40
0.2863180733925208
100
AcDbArc
 50
152.7053945050833
 51
193.4721512635405
  0
LWPOLYLINE
  5
6FB2
330
17
100
AcDbEntity
  8
R-SWTS-DET2
100
AcDbPolyline
 90
        9
 70
     1
 43
0.0
 10
49.43444173002156
 20
33.65824208580857
 10
49.43444173002156
 20
33.72199208580857
 10
49.43444173002156
 20
33.73699208580857
 10
49.41944173002156
 20
33.75199208580857
 10
49.43444173002156
 20
33.76699208580857
 10
49.43444173002156
 20
33.78199208580857
 10
49.43444173002156
 20
33.84574208580857
 10
49.46244173002156
 20
33.84574208580857
 10
49.46244173002156
 20
33.65824208580857
  0
LWPOLYLINE
  5
6FB5
330
17
100
AcDbEntity
  8
R-SWTS-DET2
100
AcDbPolyline
 90
        4
 70
     1
 43
0.0
 10
49.35003648017544
 20
33.65849208580858
 10
49.35003648017544
 20
33.84549208580856
 42
-0.9999999999999998
 10
49.38603648017543
 20
33.84549208580856
 10
49.38603648017543
 20
33.65849208580858
 42
-0.9999999999999998
  0
LWPOLYLINE
  5
6FB7
330
17
100
AcDbEntity
  8
R-SWTS-DET2
100
AcDbPolyline
 90
        8
 70
     0
 43
0.0
 10
49.43444173002156
 20
33.78199208580857
 10
49.39303648017543
 20
33.78199208580857
 10
49.39303648017543
 20
33.84549208580856
 42
0.9801999800039041
 10
49.34303648017543
 20
33.84649208580857
 10
49.34303648017543
 20
33.65849208580858
 42
0.9999999999999998
 10
49.39303648017543
 20
33.65849208580858
 10
49.39303648017543
 20
33.72199208580857
 10
49.43444173002156
 20
33.72199208580857
  0
LWPOLYLINE
  5
6FE2
330
17
100
AcDbEntity
  8
R-SWTS-DET1
100
AcDbPolyline
 90
        6
 70
     0
 43
0.0
 10
50.01544696147384
 20
35.81984011443422
 10
47.61545696147384
 20
35.81984011443422
 10
47.56543696147384
 20
35.61986011443421
 10
47.46545696147384
 20
36.01984011443422
 10
47.41545696147384
 20
35.81984011443422
 10
45.01544696147384
 20
35.81984011443422
  0
ELLIPSE
  5
6FE3
330
17
100
AcDbEntity
  8
R-SWTS-DET2
100
AcDbEllipse
 10
47.66683559282521
 20
23.25296080091999
 30
0.0
 11
0.183635613212628
 21
0.0
 31
0.0
210
0.0
220
0.0
230
1.0
 40
0.6808920250516302
 41
0.0
 42
6.283185307179586
  0
LWPOLYLINE
  5
6FE4
330
17
100
AcDbEntity
  8
R-SWTS-DET1
100
AcDbPolyline
 90
       54
 70
     1
 43
0.0
 10
48.94860284325268
 20
23.31492477562393
 10
48.30797685661008
 20
23.3149247747702
 42
-0.2374086589145607
 10
48.29593130842782
 20
23.32098582799387
 10
48.23215046024978
 20
23.40693278548024
 42
-0.1609749659296044
 10
48.22919600841206
 20
23.41587173225658
 10
48.22919600841206
 20
23.61292477637451
 42
-0.4142135622612168
 10
48.24419600840633
 20
23.62792477637452
 10
48.32919600843827
 20
23.62792477640699
 10
48.32919600840189
 20
23.67592477635675
 42
-0.4142135625965044
 10
48.34419600840196
 20
23.69092477636812
 10
48.62585360183754
 20
23.69092477636674
 42
-0.4142135622598295
 10
48.64085360183747
 20
23.67592477637249
 10
48.64085360185484
 20
23.63043323714258
 42
-0.4142135624849559
 10
48.62585360185484
 20
23.61543323713686
 10
48.44419600843827
 20
23.61543323713686
 10
48.44419600843827
 20
23.59732453382597
 42
-0.4142135623731037
 10
48.38419600843827
 20
23.53732453382598
 10
48.35419600850695
 20
23.53732453382598
 10
48.35419600850695
 20
23.46722280077459
 10
48.42919600843512
 20
23.4672228007904
 42
-0.4142135624347833
 10
48.44419600843827
 20
23.4522228007904
 10
48.44419600843827
 20
23.4249247756187
 10
49.32683559290591
 20
23.42492477615994
 10
49.32683559290591
 20
23.4522228007904
 42
-0.4142135624347833
 10
49.34183559290907
 20
23.4672228007904
 10
49.41683559283724
 20
23.46722280077459
 10
49.41683559283724
 20
23.53732453384492
 10
49.38683559290591
 20
23.53732453382598
 42
-0.4142135623731037
 10
49.32683559290591
 20
23.59732453382597
 10
49.32683559290591
 20
23.61543323713686
 10
49.14517799937039
 20
23.61543323713686
 42
-0.4142135624849559
 10
49.13017799937039
 20
23.63043323714258
 10
49.13017799938777
 20
23.67592477637249
 42
-0.4142135622598645
 10
49.1451779993877
 20
23.69092477636676
 10
49.42683559282326
 20
23.69092477636812
 42
-0.4142135625965045
 10
49.44183559282333
 20
23.67592477635675
 10
49.44183559278696
 20
23.62792477640699
 10
49.52683559281922
 20
23.62792477637452
 42
-0.4142135622549909
 10
49.5418355928135
 20
23.61292477637484
 10
49.54183559283691
 20
22.51792477636913
 42
-0.4142135623793384
 10
49.52683559283691
 20
22.5029247763688
 10
49.43183559283724
 20
22.5029247763688
 42
-0.4142135623730259
 10
49.41683559283724
 20
22.5179247763688
 10
49.41683559283723
 20
22.5809247763688
 42
-0.9999999999999998
 10
49.44883559283724
 20
22.5809247763688
 10
49.44883559283724
 20
22.5749247763688
 42
0.9999999999999998
 10
49.49283559283724
 20
22.5749247763688
 10
49.49283559283724
 20
22.7439247763688
 42
0.9999999999999998
 10
49.44883559283724
 20
22.7439247763688
 10
49.44883559283724
 20
22.7379247763688
 42
-0.9999999999999998
 10
49.41683559283724
 20
22.7379247763688
 10
49.41683559283724
 20
23.31492477604212
 10
48.96860284325268
 20
23.31492477564933
 10
48.95860284326538
 20
23.32492477563663
  0
LWPOLYLINE
  5
6FE5
330
17
100
AcDbEntity
  8
R-SWTS-DET1
100
AcDbPolyline
 90
       32
 70
     1
 43
0.0
 10
48.00708309283123
 20
22.6279247763674
 10
48.00708309689522
 20
23.20813529451161
 42
0.1242036526138901
 10
47.9963109022223
 20
23.25083137064144
 10
47.88594930485394
 20
23.45562085186678
 42
0.2758198526281321
 10
47.80672149952684
 20
23.50292477636735
 10
47.70208309283124
 20
23.50292477636735
 42
0.9999999999999998
 10
47.70208309283124
 20
23.47092477636734
 10
47.70808309283125
 20
23.47092477636735
 42
-0.9999999999999998
 10
47.70808309283125
 20
23.42692477636735
 10
47.53908309283125
 20
23.42692477636736
 42
-0.9999999999999998
 10
47.53908309283125
 20
23.47092477636734
 10
47.54508309283124
 20
23.47092477636734
 42
0.9999999999999998
 10
47.54508309283124
 20
23.50292477636738
 10
47.36908309283125
 20
23.50292477636738
 42
0.7673269879790971
 10
47.36158309283125
 20
23.47493439531063
 10
47.46708309283124
 20
23.41221433878566
 10
47.46708309283124
 20
23.34692477636737
 10
47.49808309283124
 20
23.34692477636737
 10
47.49808309283124
 20
23.37792477636738
 10
47.82558309283124
 20
23.37792477636738
 10
47.91708309283125
 20
23.20813530268319
 10
47.91708309283125
 20
22.90792477636802
 10
47.88708309283123
 20
22.90792477636804
 10
47.88708309283123
 20
22.87792477636803
 10
47.91708309283123
 20
22.87792477636803
 10
47.91708309283125
 20
21.87792477636738
 10
49.36658809283123
 20
21.87792477636738
 10
49.36658809283125
 20
22.72292477636738
 42
0.4142135623730951
 10
49.33658809283125
 20
22.75292477636738
 10
49.30658809283123
 20
22.75292477636738
 42
0.4142135623730951
 10
49.27658809283123
 20
22.72292477636738
 10
49.27658809283125
 20
22.62792477636738
  0
LWPOLYLINE
  5
6FE6
330
17
100
AcDbEntity
  8
R-SWTS-DET3
100
AcDbPolyline
 90
        4
 70
     0
 43
0.0
 10
47.4168355928252
 20
20.69083977636602
 10
47.4168355928252
 20
23.12792477636805
 10
47.66683559282521
 20
23.12792477636805
 10
47.66683559282521
 20
20.68980011959255
  0
LWPOLYLINE
  5
6FE7
330
17
100
AcDbEntity
  8
R-SWTS-DET1
100
AcDbPolyline
 90
       23
 70
     1
 43
0.0
 10
49.27658809283125
 20
22.50292477636739
 10
49.27658809283125
 20
22.25292477636739
 10
49.24158809283125
 20
22.25292477636739
 10
49.24158809283125
 20
22.00292477636738
 10
49.15158809283124
 20
22.00292477636738
 10
49.15158809283124
 20
21.96792477636738
 10
48.22158809281919
 20
21.96792477636737
 10
48.22158809281919
 20
22.00292477636736
 10
48.13158809281921
 20
22.00292477636738
 10
48.13158809281921
 20
22.04792477636738
 10
48.13158809281921
 20
22.09292477636738
 10
48.00708309283125
 20
22.09292477636737
 10
48.00708309283123
 20
22.4129247763674
 10
48.13158809281921
 20
22.41292477636739
 10
48.13158809281921
 20
22.50292477636738
 10
48.22158809281919
 20
22.50292477636738
 10
48.22158809281919
 20
22.53792477636737
 10
48.37909169150941
 20
22.53792477636739
 10
48.37909169150941
 20
22.50292477636738
 10
48.72909169150941
 20
22.50292477636739
 10
48.72909169150941
 20
22.53792477636737
 10
49.15158809283124
 20
22.53792477636737
 10
49.15158809283124
 20
22.50292477636739
  0
ARC
  5
6FE8
330
17
100
AcDbEntity
  8
R-SWTS-DET3
100
AcDbCircle
 10
47.79183559282522
 20
21.66141842542128
 30
0.0
 40
0.249999999999999
100
AcDbArc
 50
59.99999999999997
 51
120.0
  0
ARC
  5
6FE9
330
17
100
AcDbEntity
  8
R-SWTS-DET3
100
AcDbCircle
 10
47.79183559282522
 20
21.73258023699849
 30
0.0
 40
0.249999999999999
100
AcDbArc
 50
60.00000000000002
 51
120.0
  0
ARC
  5
6FEA
330
17
100
AcDbEntity
  8
R-SWTS-DET3
100
AcDbCircle
 10
47.79183559282549
 20
21.94606567173015
 30
0.0
 40
0.249999999999999
100
AcDbArc
 50
60.00000000000002
 51
120.0
  0
ARC
  5
6FEB
330
17
100
AcDbEntity
  8
R-SWTS-DET3
100
AcDbCircle
 10
47.79183559282549
 20
21.87490386015293
 30
0.0
 40
0.249999999999999
100
AcDbArc
 50
60.00000000000002
 51
120.0
  0
ARC
  5
6FEC
330
17
100
AcDbEntity
  8
R-SWTS-DET3
100
AcDbCircle
 10
47.79183559282522
 20
21.80374204857571
 30
0.0
 40
0.249999999999999
100
AcDbArc
 50
60.00000000000002
 51
120.0
  0
LWPOLYLINE
  5
6FED
330
17
100
AcDbEntity
  8
R-SWTS-DET2
100
AcDbPolyline
 90
        4
 70
     1
 43
0.0
 10
47.66683559282521
 20
22.87792477636805
 10
47.66683559282521
 20
22.2529247763666
 10
47.9168355928252
 20
22.2529247763666
 10
47.9168355928252
 20
22.87792477636805
  0
LWPOLYLINE
  5
6FEE
330
17
100
AcDbEntity
  8
R-SWTS-DET2
100
AcDbPolyline
 90
        8
 70
     0
 43
0.0
 10
49.45824084268335
 20
22.68842477636884
 10
49.41683559283723
 20
22.68842477636884
 10
49.41683559283723
 20
22.75192477636883
 42
0.9801999800039041
 10
49.36683559283723
 20
22.75292477636883
 10
49.36683559283723
 20
22.56492477636884
 42
0.9999999999999998
 10
49.41683559283723
 20
22.56492477636884
 10
49.41683559283723
 20
22.62842477636883
 10
49.45824084268335
 20
22.62842477636883
  0
LWPOLYLINE
  5
6FEF
330
17
100
AcDbEntity
  8
R-SWTS-DET2
100
AcDbPolyline
 90
        4
 70
     1
 43
0.0
 10
49.37383559283723
 20
22.56492477636884
 10
49.37383559283723
 20
22.75192477636883
 42
-0.9999999999999998
 10
49.40983559283722
 20
22.75192477636883
 10
49.40983559283722
 20
22.56492477636884
 42
-0.9999999999999998
  0
LWPOLYLINE
  5
6FF0
330
17
100
AcDbEntity
  8
R-SWTS-DET2
100
AcDbPolyline
 90
        9
 70
     1
 43
0.0
 10
49.45824084268335
 20
22.56467477636885
 10
49.45824084268335
 20
22.62842477636883
 10
49.45824084268335
 20
22.64342477636883
 10
49.44324084268335
 20
22.65842477636883
 10
49.45824084268335
 20
22.67342477636884
 10
49.45824084268335
 20
22.68842477636884
 10
49.45824084268335
 20
22.75217477636883
 10
49.48624084268335
 20
22.75217477636883
 10
49.48624084268335
 20
22.56467477636885
  0
LINE
  5
6FF1
330
17
100
AcDbEntity
  8
R-SWTS-DET3
100
AcDbLine
 10
49.24366908405632
 20
23.31483514171275
 30
0.0
 11
49.1918892401377
 21
23.25954438795461
 31
0.0
  0
LINE
  5
6FF2
330
17
100
AcDbEntity
  8
R-SWTS-DET3
100
AcDbLine
 10
48.39366853291631
 20
23.81592477636603
 30
0.0
 11
49.4251304605224
 21
23.69092477636669
 31
0.0
  0
LINE
  5
6FF3
330
17
100
AcDbEntity
  8
R-SWTS-DET3
100
AcDbLine
 10
48.39366853291631
 20
23.69092477636669
 30
0.0
 11
49.4251304605224
 21
23.81592477636603
 31
0.0
  0
LWPOLYLINE
  5
6FF4
330
17
100
AcDbEntity
  8
R-SWTS-DET3
100
AcDbPolyline
 90
        4
 70
     1
 43
0.0
 10
48.39366853291631
 20
23.81592477636602
 10
49.4251304605224
 20
23.81592477636602
 10
49.4251304605224
 20
23.69092477636669
 10
48.39366853291631
 20
23.69092477636669
  0
ARC
  5
6FF6
330
17
100
AcDbEntity
  8
R-SWTS-DET3
100
AcDbCircle
 10
46.91302761425738
 20
23.23055498944063
 30
0.0
 40
0.5105891790859307
100
AcDbArc
 50
348.4043527747815
 51
28.59546913873058
  0
LWPOLYLINE
  5
6FF7
330
17
100
AcDbEntity
  8
R-SWTS-DET2
100
AcDbPolyline
 90
       12
 70
     0
 43
0.0
 10
47.57049545786316
 20
23.50696387708904
 10
47.49833559282523
 20
23.50696387708902
 42
-0.4142135623731211
 10
47.53833559282521
 20
23.54696387708903
 10
47.56791915594241
 20
23.54696387708904
 42
0.3972412470608563
 10
47.59287669233763
 20
23.57050738229621
 10
47.60835982602819
 20
23.75581617330555
 42
-0.9447064698048437
 10
47.63831135962226
 20
23.75581617330555
 10
47.65379449331283
 20
23.57050738229621
 42
0.397241247060855
 10
47.67875202970803
 20
23.54696387708904
 10
47.70833559282523
 20
23.54696387708903
 42
-0.4142135623731211
 10
47.74833559282522
 20
23.50696387708902
 10
47.67617572778727
 20
23.50696387708904
  0
LWPOLYLINE
  5
6FF8
330
17
100
AcDbEntity
  8
R-SWTS-DET2
100
AcDbPolyline
 90
       11
 70
     1
 43
0.0
 10
47.63833559282523
 20
23.50696387708904
 10
47.62333559282523
 20
23.52196387708904
 10
47.60833559282523
 20
23.50696387708904
 10
47.57049545786316
 20
23.50696387708904
 10
47.57049545786316
 20
23.45696387708901
 10
47.52958559282522
 20
23.45696387708901
 10
47.52958559282522
 20
23.42896387708902
 10
47.71708559282522
 20
23.42896387708902
 10
47.71708559282522
 20
23.45696387708901
 10
47.67617572778727
 20
23.45696387708901
 10
47.67617572778727
 20
23.50696387708904
  0
LINE
  5
6FF9
330
17
100
AcDbEntity
  8
R-SWTS-DET2
100
AcDbLine
 10
49.05705537459692
 20
23.31382299342793
 30
0.0
 11
49.05705537459692
 21
24.09253840707766
 31
0.0
  0
LINE
  5
6FFA
330
17
100
AcDbEntity
  8
R-SWTS-DET2
100
AcDbLine
 10
48.8670554345969
 20
23.31382299342793
 30
0.0
 11
48.8670554345969
 21
24.09253840707766
 31
0.0
  0
ARC
  5
6FFB
330
17
100
AcDbEntity
  8
R-SWTS-DET3
100
AcDbCircle
 10
47.58962310969204
 20
23.2287108425281
 30
0.0
 40
0.7522642223670945
100
AcDbArc
 50
31.65766791930379
 51
48.99685608653239
  0
LINE
  5
6FFC
330
17
100
AcDbEntity
  8
R-SWTS-DET3
100
AcDbLine
 10
48.71078244313313
 20
23.28243718414622
 30
0.0
 11
48.68214516407244
 21
23.31105315674945
 31
0.0
  0
LINE
  5
6FFD
330
17
100
AcDbEntity
  8
R-SWTS-DET3
100
AcDbLine
 10
49.14034209629498
 20
23.1965892361548
 30
0.0
 11
49.1059773510388
 21
23.14508049754167
 31
0.0
  0
LINE
  5
6FFE
330
17
100
AcDbEntity
  8
R-SWTS-DET3
100
AcDbLine
 10
49.18043435966353
 20
23.20231244274813
 30
0.0
 11
49.14034209629498
 21
23.1965892361548
 31
0.0
  0
LINE
  5
6FFF
330
17
100
AcDbEntity
  8
R-SWTS-DET3
100
AcDbLine
 10
49.1918892401377
 20
23.25954438795461
 30
0.0
 11
49.18043435966353
 21
23.20231244274813
 31
0.0
  0
LINE
  5
7000
330
17
100
AcDbEntity
  8
R-SWTS-DET2
100
AcDbLine
 10
49.14855540459692
 20
23.24732310342793
 30
0.0
 11
49.14855540459692
 21
23.31382299342793
 31
0.0
  0
LINE
  5
7001
330
17
100
AcDbEntity
  8
R-SWTS-DET3
100
AcDbLine
 10
48.71078244313313
 20
23.2366516219447
 30
0.0
 11
48.71078244313313
 21
23.28243718414622
 31
0.0
  0
LINE
  5
7002
330
17
100
AcDbEntity
  8
R-SWTS-DET3
100
AcDbLine
 10
48.73941977411064
 20
23.2366516219447
 30
0.0
 11
48.71078244313313
 21
23.2366516219447
 31
0.0
  0
LINE
  5
7003
330
17
100
AcDbEntity
  8
R-SWTS-DET3
100
AcDbLine
 10
48.75660217269717
 20
23.1965892361548
 30
0.0
 11
48.73941977411064
 21
23.2366516219447
 31
0.0
  0
LINE
  5
7004
330
17
100
AcDbEntity
  8
R-SWTS-DET3
100
AcDbLine
 10
48.77951198556235
 20
23.19086605974318
 30
0.0
 11
48.75660217269717
 21
23.1965892361548
 31
0.0
  0
LINE
  5
7005
330
17
100
AcDbEntity
  8
R-SWTS-DET3
100
AcDbLine
 10
48.80242185034437
 20
23.16225008713995
 30
0.0
 11
48.77951198556235
 21
23.19086605974318
 31
0.0
  0
LINE
  5
7006
330
17
100
AcDbEntity
  8
R-SWTS-DET3
100
AcDbLine
 10
48.8367866475174
 20
23.16225008713995
 30
0.0
 11
48.80242185034437
 21
23.16225008713995
 31
0.0
  0
LINE
  5
7007
330
17
100
AcDbEntity
  8
R-SWTS-DET3
100
AcDbLine
 10
48.87115139277359
 20
23.14508049754167
 30
0.0
 11
48.8367866475174
 21
23.16225008713995
 31
0.0
  0
LINE
  5
7008
330
17
100
AcDbEntity
  8
R-SWTS-DET3
100
AcDbLine
 10
48.91124360422529
 20
23.15080367395328
 30
0.0
 11
48.87115139277359
 21
23.14508049754167
 31
0.0
  0
LINE
  5
7009
330
17
100
AcDbEntity
  8
R-SWTS-DET3
100
AcDbLine
 10
48.93415346900731
 20
23.13935729094833
 30
0.0
 11
48.91124360422529
 21
23.15080367395328
 31
0.0
  0
LINE
  5
700A
330
17
100
AcDbEntity
  8
R-SWTS-DET3
100
AcDbLine
 10
48.98570061285003
 20
23.15652688054662
 30
0.0
 11
48.93415346900731
 21
23.13935729094833
 31
0.0
  0
LINE
  5
700B
330
17
100
AcDbEntity
  8
R-SWTS-DET3
100
AcDbLine
 10
49.02006541002307
 20
23.14508049754167
 30
0.0
 11
48.98570061285003
 21
23.15652688054662
 31
0.0
  0
LINE
  5
700C
330
17
100
AcDbEntity
  8
R-SWTS-DET3
100
AcDbLine
 10
49.05443015527925
 20
23.16225008713995
 30
0.0
 11
49.02006541002307
 21
23.14508049754167
 31
0.0
  0
LINE
  5
700D
330
17
100
AcDbEntity
  8
R-SWTS-DET2
100
AcDbLine
 10
48.77555540459692
 20
23.24732310342793
 30
0.0
 11
48.77555540459692
 21
23.31382299342793
 31
0.0
  0
LINE
  5
700E
330
17
100
AcDbEntity
  8
R-SWTS-DET3
100
AcDbLine
 10
49.1059773510388
 20
23.14508049754167
 30
0.0
 11
49.05443015527925
 21
23.16225008713995
 31
0.0
  0
ARC
  5
700F
330
17
100
AcDbEntity
  8
R-SWTS-DET2
100
AcDbCircle
 10
48.96205540459691
 20
23.47559349342794
 30
0.0
 40
0.2947704
100
AcDbArc
 50
230.7507000000001
 51
309.2493
  0
LINE
  5
7010
330
17
100
AcDbEntity
  8
R-SWTS-DET2
100
AcDbLine
 10
48.95743600693435
 20
24.31073641058976
 30
0.0
 11
48.8670554345969
 21
24.09253840707766
 31
0.0
  0
LINE
  5
7011
330
17
100
AcDbEntity
  8
R-SWTS-DET2
100
AcDbLine
 10
48.96667480225947
 20
24.31073641058976
 30
0.0
 11
49.05705537459692
 21
24.09253840707766
 31
0.0
  0
ARC
  5
7012
330
17
100
AcDbEntity
  8
R-SWTS-DET2
100
AcDbCircle
 10
48.96205540459691
 20
24.30882299342793
 30
0.0
 40
0.005
100
AcDbArc
 50
22.50000000000009
 51
157.4999999999999
  0
ARC
  5
7013
330
17
100
AcDbEntity
  8
R-SWTS-DET3
100
AcDbCircle
 10
49.76936869397324
 20
23.75250347011687
 30
0.0
 40
0.259405402911137
100
AcDbArc
 50
165.8484678412433
 51
208.7015420675307
  0
ELLIPSE
  5
74AE
330
17
100
AcDbEntity
  8
R-SWTS-DET2
100
AcDbEllipse
 10
72.32452289342757
 20
28.36720345824455
 30
0.0
 11
0.0
 21
0.183635613212628
 31
0.0
210
0.0
220
0.0
230
-1.0
 40
0.6808920250516302
 41
0.0
 42
6.283185307179586
  0
LINE
  5
74AF
330
17
100
AcDbEntity
  8
R-SWTS-DET3
100
AcDbLine
 10
72.35462515252263
 20
29.40586174214606
 30
0.0
 11
72.38324112512586
 21
29.37722446308537
 31
0.0
  0
LINE
  5
74B0
330
17
100
AcDbEntity
  8
R-SWTS-DET3
100
AcDbLine
 10
72.76248686887426
 20
29.09621013873806
 30
0.0
 11
72.76248686887426
 21
30.12549832594173
 31
0.0
  0
LWPOLYLINE
  5
74B1
330
17
100
AcDbEntity
  8
R-SWTS-DET3
100
AcDbPolyline
 90
        4
 70
     1
 43
0.0
 10
72.88748686887359
 20
29.09403639833565
 10
72.88748686887359
 20
30.12549832594173
 10
72.76248686887426
 20
30.12549832594173
 10
72.76248686887426
 20
29.09403639833565
  0
LINE
  5
74B2
330
17
100
AcDbEntity
  8
R-SWTS-DET3
100
AcDbLine
 10
72.76248686887426
 20
29.09403639833565
 30
0.0
 11
72.88748686887359
 21
30.12549832594173
 31
0.0
  0
LINE
  5
74B3
330
17
100
AcDbEntity
  8
R-SWTS-DET3
100
AcDbLine
 10
72.88748686887359
 20
29.09403639833565
 30
0.0
 11
72.76248686887426
 21
30.12549832594173
 31
0.0
  0
LWPOLYLINE
  5
74B4
330
17
100
AcDbEntity
  8
R-SWTS-DET1
100
AcDbPolyline
 90
       54
 70
     1
 43
0.0
 10
72.38648686813151
 20
29.64897070867202
 10
72.38648686727778
 20
29.00834472202942
 42
0.2374086589145607
 10
72.39254792050144
 20
28.99629917384717
 10
72.47849487798781
 20
28.93251832566911
 42
0.1609749659296044
 10
72.48743382476416
 20
28.92956387383139
 10
72.68448686888209
 20
28.92956387383139
 42
0.4142135622612168
 10
72.69948686888209
 20
28.94456387382566
 10
72.69948686891456
 20
29.02956387385761
 10
72.74748686886432
 20
29.02956387382123
 42
0.4142135625965044
 10
72.76248686887569
 20
29.04456387382131
 10
72.76248686887432
 20
29.32622146725687
 42
0.4142135622598295
 10
72.74748686888006
 20
29.3412214672568
 10
72.70199532965015
 20
29.34122146727417
 42
0.4142135624849559
 10
72.68699532964443
 20
29.32622146727418
 10
72.68699532964443
 20
29.14456387385761
 10
72.66888662633355
 20
29.14456387385761
 42
0.4142135623731037
 10
72.60888662633355
 20
29.0845638738576
 10
72.60888662633355
 20
29.05456387392629
 10
72.53878489328217
 20
29.05456387392629
 10
72.53878489329797
 20
29.12956387385445
 42
0.4142135624347833
 10
72.52378489329797
 20
29.14456387385761
 10
72.49648686812628
 20
29.14456387385761
 10
72.49648686866752
 20
30.02720345832525
 10
72.52378489329797
 20
30.02720345832525
 42
0.4142135624347833
 10
72.53878489329797
 20
30.04220345832842
 10
72.53878489328217
 20
30.11720345825658
 10
72.6088866263525
 20
30.11720345825658
 10
72.60888662633355
 20
30.08720345832525
 42
0.4142135623731037
 10
72.66888662633355
 20
30.02720345832525
 10
72.68699532964443
 20
30.02720345832525
 10
72.68699532964443
 20
29.84554586478973
 42
0.4142135624849559
 10
72.70199532965015
 20
29.83054586478973
 10
72.74748686888006
 20
29.83054586480711
 42
0.4142135622598645
 10
72.76248686887433
 20
29.84554586480702
 10
72.76248686887569
 20
30.12720345824261
 42
0.4142135625965045
 10
72.74748686886432
 20
30.14220345824268
 10
72.69948686891456
 20
30.1422034582063
 10
72.69948686888209
 20
30.22720345823856
 42
0.4142135622549909
 10
72.68448686888241
 20
30.24220345823284
 10
71.5894868688767
 20
30.24220345825626
 42
0.4142135623793384
 10
71.57448686887637
 20
30.22720345825625
 10
71.57448686887637
 20
30.13220345825657
 42
0.4142135623730259
 10
71.58948686887637
 20
30.11720345825658
 10
71.65248686887638
 20
30.11720345825656
 42
0.9999999999999998
 10
71.65248686887638
 20
30.14920345825657
 10
71.64648686887638
 20
30.14920345825657
 42
-0.9999999999999998
 10
71.64648686887638
 20
30.19320345825658
 10
71.81548686887637
 20
30.19320345825658
 42
-0.9999999999999998
 10
71.81548686887637
 20
30.14920345825657
 10
71.80948686887638
 20
30.14920345825657
 42
0.9999999999999998
 10
71.80948686887638
 20
30.11720345825658
 10
72.38648686854969
 20
30.11720345825658
 10
72.3864868681569
 20
29.66897070867201
 10
72.39648686814421
 20
29.65897070868472
  0
LWPOLYLINE
  5
74B5
330
17
100
AcDbEntity
  8
R-SWTS-DET1
100
AcDbPolyline
 90
       23
 70
     1
 43
0.0
 10
71.57448686887497
 20
29.97695595825057
 10
71.32448686887497
 20
29.97695595825057
 10
71.32448686887497
 20
29.94195595825058
 10
71.07448686887495
 20
29.94195595825058
 10
71.07448686887495
 20
29.85195595825057
 10
71.03948686887496
 20
29.85195595825057
 10
71.03948686887495
 20
28.92195595823852
 10
71.07448686887494
 20
28.92195595823852
 10
71.07448686887495
 20
28.83195595823854
 10
71.11948686887496
 20
28.83195595823854
 10
71.16448686887496
 20
28.83195595823854
 10
71.16448686887494
 20
28.70745095825059
 10
71.48448686887498
 20
28.70745095825057
 10
71.48448686887497
 20
28.83195595823854
 10
71.57448686887495
 20
28.83195595823854
 10
71.57448686887495
 20
28.92195595823852
 10
71.60948686887495
 20
28.92195595823852
 10
71.60948686887497
 20
29.07945955692874
 10
71.57448686887495
 20
29.07945955692874
 10
71.57448686887497
 20
29.42945955692875
 10
71.60948686887495
 20
29.42945955692875
 10
71.60948686887495
 20
29.85195595825057
 10
71.57448686887497
 20
29.85195595825057
  0
LWPOLYLINE
  5
74B6
330
17
100
AcDbEntity
  8
R-SWTS-DET1
100
AcDbPolyline
 90
       32
 70
     1
 43
0.0
 10
71.69948686887497
 20
28.70745095825057
 10
72.27969738701919
 20
28.70745096231456
 42
-0.1242036526138901
 10
72.32239346314901
 20
28.69667876764165
 10
72.52718294437435
 20
28.58631717027328
 42
-0.2758198526281321
 10
72.57448686887492
 20
28.50708936494618
 10
72.57448686887492
 20
28.40245095825058
 42
-0.9999999999999998
 10
72.54248686887492
 20
28.40245095825058
 10
72.54248686887493
 20
28.40845095825058
 42
0.9999999999999998
 10
72.49848686887492
 20
28.40845095825058
 10
72.49848686887493
 20
28.23945095825059
 42
0.9999999999999998
 10
72.54248686887492
 20
28.23945095825059
 10
72.54248686887492
 20
28.24545095825058
 42
-0.9999999999999998
 10
72.57448686887496
 20
28.24545095825058
 10
72.57448686887496
 20
28.06945095825059
 42
-0.7673269879790971
 10
72.5464964878182
 20
28.06195095825059
 10
72.48377643129323
 20
28.16745095825059
 10
72.41848686887495
 20
28.16745095825057
 10
72.41848686887495
 20
28.19845095825058
 10
72.44948686887496
 20
28.19845095825058
 10
72.44948686887496
 20
28.52595095825058
 10
72.27969739519076
 20
28.61745095825059
 10
71.9794868688756
 20
28.61745095825059
 10
71.97948686887561
 20
28.58745095825057
 10
71.94948686887561
 20
28.58745095825057
 10
71.94948686887561
 20
28.61745095825057
 10
70.94948686887495
 20
28.61745095825059
 10
70.94948686887495
 20
30.06695595825057
 10
71.79448686887496
 20
30.06695595825057
 42
-0.4142135623730951
 10
71.82448686887496
 20
30.03695595825057
 10
71.82448686887496
 20
30.00695595825057
 42
-0.4142135623730951
 10
71.79448686887496
 20
29.97695595825057
 10
71.69948686887495
 20
29.97695595825057
  0
LWPOLYLINE
  5
74B7
330
17
100
AcDbEntity
  8
R-SWTS-DET2
100
AcDbPolyline
 90
        4
 70
     1
 43
0.0
 10
71.94948686887562
 20
28.36720345824455
 10
71.32448686887418
 20
28.36720345824455
 10
71.32448686887418
 20
28.61720345824455
 10
71.94948686887562
 20
28.61720345824455
  0
ARC
  5
74B8
330
17
100
AcDbEntity
  8
R-SWTS-DET3
100
AcDbCircle
 10
70.87530414108329
 20
28.49220345824456
 30
0.0
 40
0.249999999999999
100
AcDbArc
 50
329.9999999999999
 51
30.00000000000005
  0
ARC
  5
74B9
330
17
100
AcDbEntity
  8
R-SWTS-DET3
100
AcDbCircle
 10
70.9464659526605
 20
28.49220345824484
 30
0.0
 40
0.249999999999999
100
AcDbArc
 50
329.9999999999999
 51
30.00000000000005
  0
ARC
  5
74BA
330
17
100
AcDbEntity
  8
R-SWTS-DET3
100
AcDbCircle
 10
70.80414232950608
 20
28.49220345824456
 30
0.0
 40
0.249999999999999
100
AcDbArc
 50
329.9999999999999
 51
30.00000000000005
  0
ARC
  5
74BB
330
17
100
AcDbEntity
  8
R-SWTS-DET3
100
AcDbCircle
 10
70.73298051792885
 20
28.49220345824456
 30
0.0
 40
0.249999999999999
100
AcDbArc
 50
329.9999999999999
 51
30.00000000000012
  0
ARC
  5
74BC
330
17
100
AcDbEntity
  8
R-SWTS-DET3
100
AcDbCircle
 10
71.01762776423773
 20
28.49220345824484
 30
0.0
 40
0.249999999999999
100
AcDbArc
 50
329.9999999999999
 51
30.00000000000005
  0
LWPOLYLINE
  5
74BD
330
17
100
AcDbEntity
  8
R-SWTS-DET2
100
AcDbPolyline
 90
       11
 70
     1
 43
0.0
 10
72.57852596959661
 20
28.33870345824457
 10
72.59352596959661
 20
28.32370345824457
 10
72.57852596959661
 20
28.30870345824457
 10
72.57852596959661
 20
28.2708633232825
 10
72.52852596959659
 20
28.2708633232825
 10
72.52852596959659
 20
28.22995345824457
 10
72.50052596959659
 20
28.22995345824457
 10
72.50052596959659
 20
28.41745345824456
 10
72.52852596959659
 20
28.41745345824456
 10
72.52852596959659
 20
28.37654359320662
 10
72.57852596959661
 20
28.37654359320662
  0
LWPOLYLINE
  5
74BE
330
17
100
AcDbEntity
  8
R-SWTS-DET2
100
AcDbPolyline
 90
       12
 70
     0
 43
0.0
 10
72.57852596959661
 20
28.2708633232825
 10
72.5785259695966
 20
28.19870345824457
 42
0.4142135623731211
 10
72.6185259695966
 20
28.23870345824456
 10
72.61852596959662
 20
28.26828702136176
 42
-0.3972412470608563
 10
72.64206947480379
 20
28.29324455775695
 10
72.82737826581312
 20
28.30872769144752
 42
0.9447064698048437
 10
72.82737826581312
 20
28.3386792250416
 10
72.64206947480379
 20
28.35416235873217
 42
-0.397241247060855
 10
72.61852596959662
 20
28.37911989512738
 10
72.6185259695966
 20
28.40870345824458
 42
0.4142135623731211
 10
72.5785259695966
 20
28.44870345824457
 10
72.57852596959661
 20
28.37654359320662
  0
ARC
  5
74BF
330
17
100
AcDbEntity
  8
R-SWTS-DET3
100
AcDbCircle
 10
72.30027293503567
 20
28.28999097511137
 30
0.0
 40
0.7522642223670945
100
AcDbArc
 50
41.00314391346878
 51
58.34233208069615
  0
LWPOLYLINE
  5
74C0
330
17
100
AcDbEntity
  8
R-SWTS-DET2
100
AcDbPolyline
 90
        4
 70
     1
 43
0.0
 10
71.63648686887642
 20
30.07420345825658
 10
71.8234868688764
 20
30.07420345825658
 42
0.9999999999999998
 10
71.8234868688764
 20
30.11020345825656
 10
71.63648686887642
 20
30.11020345825656
 42
0.9999999999999998
  0
LWPOLYLINE
  5
74C1
330
17
100
AcDbEntity
  8
R-SWTS-DET2
100
AcDbPolyline
 90
        8
 70
     0
 43
0.0
 10
71.75998686887641
 20
30.15860870810269
 10
71.75998686887641
 20
30.11720345825657
 10
71.8234868688764
 20
30.11720345825657
 42
-0.9801999800039041
 10
71.8244868688764
 20
30.06720345825657
 10
71.63648686887642
 20
30.06720345825657
 42
-0.9999999999999998
 10
71.63648686887642
 20
30.11720345825657
 10
71.69998686887641
 20
30.11720345825657
 10
71.69998686887641
 20
30.15860870810269
  0
LWPOLYLINE
  5
74C2
330
17
100
AcDbEntity
  8
R-SWTS-DET2
100
AcDbPolyline
 90
        9
 70
     1
 43
0.0
 10
71.63623686887643
 20
30.15860870810269
 10
71.69998686887641
 20
30.15860870810269
 10
71.71498686887641
 20
30.15860870810269
 10
71.72998686887641
 20
30.14360870810269
 10
71.74498686887641
 20
30.15860870810269
 10
71.75998686887641
 20
30.15860870810269
 10
71.82373686887641
 20
30.15860870810269
 10
71.82373686887641
 20
30.1866087081027
 10
71.63623686887643
 20
30.1866087081027
  0
LINE
  5
74C3
330
17
100
AcDbEntity
  8
R-SWTS-DET2
100
AcDbLine
 10
72.38601096180435
 20
29.56213473360985
 30
0.0
 11
73.16472637545406
 21
29.56213473360985
 31
0.0
  0
LINE
  5
74C4
330
17
100
AcDbEntity
  8
R-SWTS-DET2
100
AcDbLine
 10
72.38601096180435
 20
29.75213467360985
 30
0.0
 11
73.16472637545406
 21
29.75213467360985
 31
0.0
  0
LINE
  5
74C5
330
17
100
AcDbEntity
  8
R-SWTS-DET2
100
AcDbLine
 10
72.31951107180434
 20
29.47063470360985
 30
0.0
 11
72.38601096180435
 21
29.47063470360985
 31
0.0
  0
LINE
  5
74C6
330
17
100
AcDbEntity
  8
R-SWTS-DET2
100
AcDbLine
 10
72.31951107180434
 20
29.84363470360984
 30
0.0
 11
72.38601096180435
 21
29.84363470360984
 31
0.0
  0
LINE
  5
74C7
330
17
100
AcDbEntity
  8
R-SWTS-DET3
100
AcDbLine
 10
72.38702311008916
 20
29.93874838306926
 30
0.0
 11
72.331732356331
 21
29.88696853915064
 31
0.0
  0
ARC
  5
74C8
330
17
100
AcDbEntity
  8
R-SWTS-DET2
100
AcDbCircle
 10
72.54778146180433
 20
29.65713470360984
 30
0.0
 40
0.2947704
100
AcDbArc
 50
140.7507
 51
219.2493
  0
LINE
  5
74C9
330
17
100
AcDbEntity
  8
R-SWTS-DET3
100
AcDbLine
 10
72.331732356331
 20
29.88696853915064
 30
0.0
 11
72.27450041112454
 21
29.87551365867647
 31
0.0
  0
LINE
  5
74CA
330
17
100
AcDbEntity
  8
R-SWTS-DET3
100
AcDbLine
 10
72.27450041112454
 20
29.87551365867647
 30
0.0
 11
72.26877720453121
 21
29.83542139530793
 31
0.0
  0
LINE
  5
74CB
330
17
100
AcDbEntity
  8
R-SWTS-DET3
100
AcDbLine
 10
72.26877720453121
 20
29.83542139530793
 30
0.0
 11
72.21726846591806
 21
29.80105665005174
 31
0.0
  0
LINE
  5
74CC
330
17
100
AcDbEntity
  8
R-SWTS-DET3
100
AcDbLine
 10
72.21726846591806
 20
29.80105665005174
 30
0.0
 11
72.23443805551636
 21
29.74950945429219
 31
0.0
  0
LINE
  5
74CD
330
17
100
AcDbEntity
  8
R-SWTS-DET3
100
AcDbLine
 10
72.23443805551636
 20
29.74950945429219
 30
0.0
 11
72.21726846591806
 21
29.715144709036
 31
0.0
  0
LINE
  5
74CE
330
17
100
AcDbEntity
  8
R-SWTS-DET3
100
AcDbLine
 10
72.21726846591806
 20
29.715144709036
 30
0.0
 11
72.22871484892303
 21
29.68077991186296
 31
0.0
  0
LINE
  5
74CF
330
17
100
AcDbEntity
  8
R-SWTS-DET3
100
AcDbLine
 10
72.22871484892303
 20
29.68077991186296
 30
0.0
 11
72.21154525932473
 21
29.62923276802025
 31
0.0
  0
LINE
  5
74D0
330
17
100
AcDbEntity
  8
R-SWTS-DET3
100
AcDbLine
 10
72.21154525932473
 20
29.62923276802025
 30
0.0
 11
72.2229916423297
 21
29.60632290323823
 31
0.0
  0
LINE
  5
74D1
330
17
100
AcDbEntity
  8
R-SWTS-DET3
100
AcDbLine
 10
72.2229916423297
 20
29.60632290323823
 30
0.0
 11
72.21726846591806
 21
29.56623069178653
 31
0.0
  0
LINE
  5
74D2
330
17
100
AcDbEntity
  8
R-SWTS-DET3
100
AcDbLine
 10
72.21726846591806
 20
29.56623069178653
 30
0.0
 11
72.23443805551636
 21
29.53186594653034
 31
0.0
  0
LINE
  5
74D3
330
17
100
AcDbEntity
  8
R-SWTS-DET3
100
AcDbLine
 10
72.23443805551636
 20
29.53186594653034
 30
0.0
 11
72.23443805551636
 21
29.49750114935731
 31
0.0
  0
LINE
  5
74D4
330
17
100
AcDbEntity
  8
R-SWTS-DET3
100
AcDbLine
 10
72.23443805551636
 20
29.49750114935731
 30
0.0
 11
72.26305402811959
 21
29.47459128457528
 31
0.0
  0
LINE
  5
74D5
330
17
100
AcDbEntity
  8
R-SWTS-DET3
100
AcDbLine
 10
72.26305402811959
 20
29.47459128457528
 30
0.0
 11
72.26877720453121
 21
29.4516814717101
 31
0.0
  0
LINE
  5
74D6
330
17
100
AcDbEntity
  8
R-SWTS-DET3
100
AcDbLine
 10
72.26877720453121
 20
29.4516814717101
 30
0.0
 11
72.3088395903211
 21
29.43449907312358
 31
0.0
  0
LINE
  5
74D7
330
17
100
AcDbEntity
  8
R-SWTS-DET3
100
AcDbLine
 10
72.3088395903211
 20
29.43449907312358
 30
0.0
 11
72.3088395903211
 21
29.40586174214606
 31
0.0
  0
LINE
  5
74D8
330
17
100
AcDbEntity
  8
R-SWTS-DET3
100
AcDbLine
 10
72.3088395903211
 20
29.40586174214606
 30
0.0
 11
72.35462515252263
 21
29.40586174214606
 31
0.0
  0
ARC
  5
74D9
330
17
100
AcDbEntity
  8
R-SWTS-DET3
100
AcDbCircle
 10
72.82406556262444
 20
30.46973655939257
 30
0.0
 40
0.259405402911137
100
AcDbArc
 50
241.2984579324692
 51
284.1515321587567
  0
ARC
  5
74DA
330
17
100
AcDbEntity
  8
R-SWTS-DET2
100
AcDbCircle
 10
73.38101096180435
 20
29.65713470360984
 30
0.0
 40
0.005
100
AcDbArc
 50
292.5000000000001
 51
67.49999999999992
  0
LINE
  5
74DB
330
17
100
AcDbEntity
  8
R-SWTS-DET2
100
AcDbLine
 10
73.38292437896616
 20
29.6617541012724
 30
0.0
 11
73.16472637545406
 21
29.75213467360985
 31
0.0
  0
LINE
  5
74DC
330
17
100
AcDbEntity
  8
R-SWTS-DET2
100
AcDbLine
 10
73.38292437896616
 20
29.65251530594729
 30
0.0
 11
73.16472637545406
 21
29.56213473360985
 31
0.0
  0
LWPOLYLINE
  5
74DD
330
17
100
AcDbEntity
  8
R-SWTS-DET3
100
AcDbPolyline
 90
        4
 70
     0
 43
0.0
 10
69.76247686887359
 20
28.11720345824454
 10
72.19948686887562
 20
28.11720345824454
 10
72.19948686887562
 20
28.36720345824455
 10
69.75396927514805
 20
28.36720345824455
  0
LWPOLYLINE
  5
74DE
330
17
100
AcDbEntity
  8
R-SWTS-DET1
100
AcDbPolyline
 90
        6
 70
     0
 43
0.0
 10
69.76247686887359
 20
25.74341223086906
 10
69.76247686887359
 20
28.36507549625759
 10
69.9624568688736
 20
28.41509549625759
 10
69.56247686887358
 20
28.5150754962576
 10
69.76247686887359
 20
28.56507549625759
 10
69.76247686887359
 20
30.7150854962576
  0
ELLIPSE
  5
74DF
330
17
100
AcDbEntity
  8
R-SWTS-DET2
100
AcDbEllipse
 10
64.22447242990478
 20
28.36720345824455
 30
0.0
 11
0.0
 21
0.183635613212628
 31
0.0
210
0.0
220
0.0
230
1.0
 40
0.6808920250516302
 41
0.0
 42
6.283185307179586
  0
LINE
  5
74E0
330
17
100
AcDbEntity
  8
R-SWTS-DET3
100
AcDbLine
 10
64.19437017080972
 20
29.40586174214606
 30
0.0
 11
64.16575419820649
 21
29.37722446308537
 31
0.0
  0
LINE
  5
74E1
330
17
100
AcDbEntity
  8
R-SWTS-DET3
100
AcDbLine
 10
63.78650845445808
 20
29.09621013873806
 30
0.0
 11
63.78650845445808
 21
30.12549832594173
 31
0.0
  0
LWPOLYLINE
  5
74E2
330
17
100
AcDbEntity
  8
R-SWTS-DET3
100
AcDbPolyline
 90
        4
 70
     1
 43
0.0
 10
63.66150845445876
 20
29.09403639833565
 10
63.66150845445876
 20
30.12549832594173
 10
63.78650845445808
 20
30.12549832594173
 10
63.78650845445808
 20
29.09403639833565
  0
LINE
  5
74E3
330
17
100
AcDbEntity
  8
R-SWTS-DET3
100
AcDbLine
 10
63.78650845445808
 20
29.09403639833565
 30
0.0
 11
63.66150845445876
 21
30.12549832594173
 31
0.0
  0
LINE
  5
74E4
330
17
100
AcDbEntity
  8
R-SWTS-DET3
100
AcDbLine
 10
63.66150845445876
 20
29.09403639833565
 30
0.0
 11
63.78650845445808
 21
30.12549832594173
 31
0.0
  0
LWPOLYLINE
  5
74E5
330
17
100
AcDbEntity
  8
R-SWTS-DET1
100
AcDbPolyline
 90
       54
 70
     1
 43
0.0
 10
64.16250845520083
 20
29.64897070867202
 10
64.16250845605457
 20
29.00834472202942
 42
-0.2374086589145607
 10
64.15644740283091
 20
28.99629917384717
 10
64.07050044534454
 20
28.93251832566911
 42
-0.1609749659296044
 10
64.06156149856819
 20
28.92956387383139
 10
63.86450845445025
 20
28.92956387383139
 42
-0.4142135622612168
 10
63.84950845445025
 20
28.94456387382566
 10
63.84950845441778
 20
29.02956387385761
 10
63.80150845446802
 20
29.02956387382123
 42
-0.4142135625965044
 10
63.78650845445665
 20
29.04456387382131
 10
63.78650845445803
 20
29.32622146725687
 42
-0.4142135622598295
 10
63.80150845445228
 20
29.3412214672568
 10
63.84699999368219
 20
29.34122146727417
 42
-0.4142135624849559
 10
63.86199999368791
 20
29.32622146727418
 10
63.86199999368791
 20
29.14456387385761
 10
63.8801086969988
 20
29.14456387385761
 42
-0.4142135623731037
 10
63.94010869699879
 20
29.0845638738576
 10
63.94010869699879
 20
29.05456387392629
 10
64.01021043005018
 20
29.05456387392629
 10
64.01021043003438
 20
29.12956387385445
 42
-0.4142135624347833
 10
64.02521043003438
 20
29.14456387385761
 10
64.05250845520606
 20
29.14456387385761
 10
64.05250845466483
 20
30.02720345832525
 10
64.02521043003438
 20
30.02720345832525
 42
-0.4142135624347833
 10
64.01021043003438
 20
30.04220345832842
 10
64.01021043005018
 20
30.11720345825658
 10
63.94010869697985
 20
30.11720345825658
 10
63.94010869699879
 20
30.08720345832525
 42
-0.4142135623731037
 10
63.8801086969988
 20
30.02720345832525
 10
63.86199999368791
 20
30.02720345832525
 10
63.86199999368791
 20
29.84554586478973
 42
-0.4142135624849559
 10
63.84699999368219
 20
29.83054586478973
 10
63.80150845445228
 20
29.83054586480711
 42
-0.4142135622598645
 10
63.78650845445801
 20
29.84554586480702
 10
63.78650845445665
 20
30.12720345824261
 42
-0.4142135625965045
 10
63.80150845446802
 20
30.14220345824268
 10
63.84950845441778
 20
30.1422034582063
 10
63.84950845445025
 20
30.22720345823856
 42
-0.4142135622549909
 10
63.86450845444993
 20
30.24220345823284
 10
64.95950845445564
 20
30.24220345825626
 42
-0.4142135623793384
 10
64.97450845445597
 20
30.22720345825625
 10
64.97450845445597
 20
30.13220345825657
 42
-0.4142135623730259
 10
64.95950845445597
 20
30.11720345825658
 10
64.89650845445597
 20
30.11720345825656
 42
-0.9999999999999998
 10
64.89650845445597
 20
30.14920345825657
 10
64.90250845445597
 20
30.14920345825657
 42
0.9999999999999998
 10
64.90250845445597
 20
30.19320345825658
 10
64.73350845445597
 20
30.19320345825658
 42
0.9999999999999998
 10
64.73350845445597
 20
30.14920345825657
 10
64.73950845445597
 20
30.14920345825657
 42
-0.9999999999999998
 10
64.73950845445597
 20
30.11720345825658
 10
64.16250845478265
 20
30.11720345825658
 10
64.16250845517544
 20
29.66897070867201
 10
64.15250845518814
 20
29.65897070868472
  0
LWPOLYLINE
  5
74E6
330
17
100
AcDbEntity
  8
R-SWTS-DET1
100
AcDbPolyline
 90
       23
 70
     1
 43
0.0
 10
64.97450845445738
 20
29.97695595825057
 10
65.22450845445738
 20
29.97695595825057
 10
65.22450845445738
 20
29.94195595825058
 10
65.47450845445739
 20
29.94195595825058
 10
65.47450845445739
 20
29.85195595825057
 10
65.50950845445739
 20
29.85195595825057
 10
65.5095084544574
 20
28.92195595823852
 10
65.47450845445741
 20
28.92195595823852
 10
65.47450845445739
 20
28.83195595823854
 10
65.42950845445739
 20
28.83195595823854
 10
65.38450845445739
 20
28.83195595823854
 10
65.38450845445741
 20
28.70745095825059
 10
65.06450845445737
 20
28.70745095825057
 10
65.06450845445738
 20
28.83195595823854
 10
64.97450845445739
 20
28.83195595823854
 10
64.97450845445739
 20
28.92195595823852
 10
64.93950845445739
 20
28.92195595823852
 10
64.93950845445738
 20
29.07945955692874
 10
64.97450845445739
 20
29.07945955692874
 10
64.97450845445738
 20
29.42945955692875
 10
64.93950845445739
 20
29.42945955692875
 10
64.93950845445739
 20
29.85195595825057
 10
64.97450845445738
 20
29.85195595825057
  0
LWPOLYLINE
  5
74E7
330
17
100
AcDbEntity
  8
R-SWTS-DET1
100
AcDbPolyline
 90
       32
 70
     1
 43
0.0
 10
64.84950845445737
 20
28.70745095825057
 10
64.26929793631316
 20
28.70745096231456
 42
0.1242036526138901
 10
64.22660186018333
 20
28.69667876764165
 10
64.02181237895799
 20
28.58631717027328
 42
0.2758198526281321
 10
63.97450845445742
 20
28.50708936494618
 10
63.97450845445742
 20
28.40245095825058
 42
0.9999999999999998
 10
64.00650845445743
 20
28.40245095825058
 10
64.00650845445742
 20
28.40845095825058
 42
-0.9999999999999998
 10
64.05050845445742
 20
28.40845095825058
 10
64.05050845445741
 20
28.23945095825059
 42
-0.9999999999999998
 10
64.00650845445743
 20
28.23945095825059
 10
64.00650845445743
 20
28.24545095825058
 42
0.9999999999999998
 10
63.97450845445739
 20
28.24545095825058
 10
63.97450845445739
 20
28.06945095825059
 42
0.7673269879790971
 10
64.00249883551414
 20
28.06195095825059
 10
64.06521889203911
 20
28.16745095825059
 10
64.1305084544574
 20
28.16745095825057
 10
64.1305084544574
 20
28.19845095825058
 10
64.09950845445739
 20
28.19845095825058
 10
64.09950845445739
 20
28.52595095825058
 10
64.26929792814158
 20
28.61745095825059
 10
64.56950845445675
 20
28.61745095825059
 10
64.56950845445674
 20
28.58745095825057
 10
64.59950845445674
 20
28.58745095825057
 10
64.59950845445674
 20
28.61745095825057
 10
65.59950845445739
 20
28.61745095825059
 10
65.59950845445739
 20
30.06695595825057
 10
64.75450845445739
 20
30.06695595825057
 42
0.4142135623730951
 10
64.72450845445739
 20
30.03695595825057
 10
64.72450845445739
 20
30.00695595825057
 42
0.4142135623730951
 10
64.75450845445739
 20
29.97695595825057
 10
64.84950845445739
 20
29.97695595825057
  0
LWPOLYLINE
  5
74E8
330
17
100
AcDbEntity
  8
R-SWTS-DET3
100
AcDbPolyline
 90
        4
 70
     0
 43
0.0
 10
66.78651845445876
 20
28.11720345824454
 10
64.34950845445673
 20
28.11720345824454
 10
64.34950845445673
 20
28.36720345824455
 10
66.7950260481843
 20
28.36720345824455
  0
LWPOLYLINE
  5
74E9
330
17
100
AcDbEntity
  8
R-SWTS-DET2
100
AcDbPolyline
 90
        4
 70
     1
 43
0.0
 10
64.59950845445672
 20
28.36720345824455
 10
65.22450845445817
 20
28.36720345824455
 10
65.22450845445817
 20
28.61720345824455
 10
64.59950845445672
 20
28.61720345824455
  0
ARC
  5
74EA
330
17
100
AcDbEntity
  8
R-SWTS-DET3
100
AcDbCircle
 10
65.67369118224906
 20
28.49220345824456
 30
0.0
 40
0.249999999999999
100
AcDbArc
 50
149.9999999999999
 51
210.0000000000001
  0
ARC
  5
74EB
330
17
100
AcDbEntity
  8
R-SWTS-DET3
100
AcDbCircle
 10
65.60252937067184
 20
28.49220345824484
 30
0.0
 40
0.249999999999999
100
AcDbArc
 50
149.9999999999999
 51
210.0000000000001
  0
ARC
  5
74EC
330
17
100
AcDbEntity
  8
R-SWTS-DET3
100
AcDbCircle
 10
65.74485299382627
 20
28.49220345824456
 30
0.0
 40
0.249999999999999
100
AcDbArc
 50
149.9999999999999
 51
210.0000000000001
  0
ARC
  5
74ED
330
17
100
AcDbEntity
  8
R-SWTS-DET3
100
AcDbCircle
 10
65.81601480540349
 20
28.49220345824456
 30
0.0
 40
0.249999999999999
100
AcDbArc
 50
149.9999999999999
 51
210.0000000000001
  0
ARC
  5
74EE
330
17
100
AcDbEntity
  8
R-SWTS-DET3
100
AcDbCircle
 10
65.53136755909462
 20
28.49220345824484
 30
0.0
 40
0.249999999999999
100
AcDbArc
 50
149.9999999999999
 51
210.0000000000001
  0
LWPOLYLINE
  5
74EF
330
17
100
AcDbEntity
  8
R-SWTS-DET2
100
AcDbPolyline
 90
       11
 70
     1
 43
0.0
 10
63.97046935373573
 20
28.33870345824457
 10
63.95546935373573
 20
28.32370345824457
 10
63.97046935373573
 20
28.30870345824457
 10
63.97046935373573
 20
28.2708633232825
 10
64.02046935373576
 20
28.2708633232825
 10
64.02046935373576
 20
28.22995345824457
 10
64.04846935373575
 20
28.22995345824457
 10
64.04846935373575
 20
28.41745345824456
 10
64.02046935373576
 20
28.41745345824456
 10
64.02046935373576
 20
28.37654359320662
 10
63.97046935373573
 20
28.37654359320662
  0
LWPOLYLINE
  5
74F0
330
17
100
AcDbEntity
  8
R-SWTS-DET2
100
AcDbPolyline
 90
       12
 70
     0
 43
0.0
 10
63.97046935373573
 20
28.2708633232825
 10
63.97046935373575
 20
28.19870345824457
 42
-0.4142135623731211
 10
63.93046935373575
 20
28.23870345824456
 10
63.93046935373573
 20
28.26828702136176
 42
0.3972412470608563
 10
63.90692584852856
 20
28.29324455775695
 10
63.72161705751922
 20
28.30872769144752
 42
-0.9447064698048437
 10
63.72161705751922
 20
28.3386792250416
 10
63.90692584852856
 20
28.35416235873217
 42
0.397241247060855
 10
63.93046935373573
 20
28.37911989512738
 10
63.93046935373575
 20
28.40870345824458
 42
-0.4142135623731211
 10
63.97046935373575
 20
28.44870345824457
 10
63.97046935373573
 20
28.37654359320662
  0
ARC
  5
74F1
330
17
100
AcDbEntity
  8
R-SWTS-DET3
100
AcDbCircle
 10
64.24872238829667
 20
28.28999097511137
 30
0.0
 40
0.7522642223670945
100
AcDbArc
 50
121.6576679193038
 51
138.9968560865312
  0
LINE
  5
74F2
330
17
100
AcDbEntity
  8
R-SWTS-DET3
100
AcDbLine
 10
64.28021811880114
 20
29.83542139530793
 30
0.0
 11
64.33172685741428
 21
29.80105665005174
 31
0.0
  0
LINE
  5
74F3
330
17
100
AcDbEntity
  8
R-SWTS-DET3
100
AcDbLine
 10
64.33172685741428
 20
29.80105665005174
 30
0.0
 11
64.31455726781599
 21
29.74950945429219
 31
0.0
  0
LINE
  5
74F4
330
17
100
AcDbEntity
  8
R-SWTS-DET3
100
AcDbLine
 10
64.31455726781599
 20
29.74950945429219
 30
0.0
 11
64.33172685741428
 21
29.715144709036
 31
0.0
  0
LINE
  5
74F5
330
17
100
AcDbEntity
  8
R-SWTS-DET3
100
AcDbLine
 10
64.33172685741428
 20
29.715144709036
 30
0.0
 11
64.32028047440931
 21
29.68077991186296
 31
0.0
  0
LINE
  5
74F6
330
17
100
AcDbEntity
  8
R-SWTS-DET3
100
AcDbLine
 10
64.32028047440931
 20
29.68077991186296
 30
0.0
 11
64.33745006400761
 21
29.62923276802025
 31
0.0
  0
LINE
  5
74F7
330
17
100
AcDbEntity
  8
R-SWTS-DET3
100
AcDbLine
 10
64.33172685741428
 20
29.56623069178653
 30
0.0
 11
64.31455726781599
 21
29.53186594653034
 31
0.0
  0
LINE
  5
74F8
330
17
100
AcDbEntity
  8
R-SWTS-DET3
100
AcDbLine
 10
64.33745006400761
 20
29.62923276802025
 30
0.0
 11
64.32600368100264
 21
29.60632290323823
 31
0.0
  0
LINE
  5
74F9
330
17
100
AcDbEntity
  8
R-SWTS-DET3
100
AcDbLine
 10
64.32600368100264
 20
29.60632290323823
 30
0.0
 11
64.33172685741428
 21
29.56623069178653
 31
0.0
  0
LWPOLYLINE
  5
74FA
330
17
100
AcDbEntity
  8
R-SWTS-DET2
100
AcDbPolyline
 90
        4
 70
     1
 43
0.0
 10
64.91250845445593
 20
30.07420345825658
 10
64.72550845445595
 20
30.07420345825658
 42
-0.9999999999999998
 10
64.72550845445595
 20
30.11020345825656
 10
64.91250845445593
 20
30.11020345825656
 42
-0.9999999999999998
  0
LWPOLYLINE
  5
74FB
330
17
100
AcDbEntity
  8
R-SWTS-DET2
100
AcDbPolyline
 90
        8
 70
     0
 43
0.0
 10
64.78900845445593
 20
30.15860870810269
 10
64.78900845445593
 20
30.11720345825657
 10
64.72550845445595
 20
30.11720345825657
 42
0.9801999800039041
 10
64.72450845445594
 20
30.06720345825657
 10
64.91250845445593
 20
30.06720345825657
 42
0.9999999999999998
 10
64.91250845445593
 20
30.11720345825657
 10
64.84900845445594
 20
30.11720345825657
 10
64.84900845445594
 20
30.15860870810269
  0
LWPOLYLINE
  5
74FC
330
17
100
AcDbEntity
  8
R-SWTS-DET2
100
AcDbPolyline
 90
        9
 70
     1
 43
0.0
 10
64.91275845445592
 20
30.15860870810269
 10
64.84900845445594
 20
30.15860870810269
 10
64.83400845445594
 20
30.15860870810269
 10
64.81900845445593
 20
30.14360870810269
 10
64.80400845445593
 20
30.15860870810269
 10
64.78900845445593
 20
30.15860870810269
 10
64.72525845445594
 20
30.15860870810269
 10
64.72525845445594
 20
30.1866087081027
 10
64.91275845445592
 20
30.1866087081027
  0
LINE
  5
74FD
330
17
100
AcDbEntity
  8
R-SWTS-DET2
100
AcDbLine
 10
64.162984361528
 20
29.56213473360985
 30
0.0
 11
63.38426894787828
 21
29.56213473360985
 31
0.0
  0
LINE
  5
74FE
330
17
100
AcDbEntity
  8
R-SWTS-DET2
100
AcDbLine
 10
64.162984361528
 20
29.75213467360985
 30
0.0
 11
63.38426894787828
 21
29.75213467360985
 31
0.0
  0
LINE
  5
74FF
330
17
100
AcDbEntity
  8
R-SWTS-DET2
100
AcDbLine
 10
64.229484251528
 20
29.47063470360985
 30
0.0
 11
64.162984361528
 21
29.47063470360985
 31
0.0
  0
LINE
  5
7500
330
17
100
AcDbEntity
  8
R-SWTS-DET2
100
AcDbLine
 10
64.229484251528
 20
29.84363470360984
 30
0.0
 11
64.162984361528
 21
29.84363470360984
 31
0.0
  0
LINE
  5
7501
330
17
100
AcDbEntity
  8
R-SWTS-DET3
100
AcDbLine
 10
64.16197221324319
 20
29.93874838306926
 30
0.0
 11
64.21726296700135
 21
29.88696853915064
 31
0.0
  0
ARC
  5
7502
330
17
100
AcDbEntity
  8
R-SWTS-DET2
100
AcDbCircle
 10
64.00121386152801
 20
29.65713470360984
 30
0.0
 40
0.2947704
100
AcDbArc
 50
320.7507
 51
39.24929999999996
  0
LINE
  5
7503
330
17
100
AcDbEntity
  8
R-SWTS-DET3
100
AcDbLine
 10
64.21726296700135
 20
29.88696853915064
 30
0.0
 11
64.27449491220781
 21
29.87551365867647
 31
0.0
  0
LINE
  5
7504
330
17
100
AcDbEntity
  8
R-SWTS-DET3
100
AcDbLine
 10
64.27449491220781
 20
29.87551365867647
 30
0.0
 11
64.28021811880114
 21
29.83542139530793
 31
0.0
  0
LINE
  5
7505
330
17
100
AcDbEntity
  8
R-SWTS-DET3
100
AcDbLine
 10
64.31455726781599
 20
29.53186594653034
 30
0.0
 11
64.31455726781599
 21
29.49750114935731
 31
0.0
  0
LINE
  5
7506
330
17
100
AcDbEntity
  8
R-SWTS-DET3
100
AcDbLine
 10
64.31455726781599
 20
29.49750114935731
 30
0.0
 11
64.28594129521275
 21
29.47459128457528
 31
0.0
  0
LINE
  5
7507
330
17
100
AcDbEntity
  8
R-SWTS-DET3
100
AcDbLine
 10
64.28594129521275
 20
29.47459128457528
 30
0.0
 11
64.28021811880114
 21
29.4516814717101
 31
0.0
  0
LINE
  5
7508
330
17
100
AcDbEntity
  8
R-SWTS-DET3
100
AcDbLine
 10
64.28021811880114
 20
29.4516814717101
 30
0.0
 11
64.24015573301125
 21
29.43449907312358
 31
0.0
  0
LINE
  5
7509
330
17
100
AcDbEntity
  8
R-SWTS-DET3
100
AcDbLine
 10
64.24015573301125
 20
29.43449907312358
 30
0.0
 11
64.24015573301125
 21
29.40586174214606
 31
0.0
  0
LINE
  5
750A
330
17
100
AcDbEntity
  8
R-SWTS-DET3
100
AcDbLine
 10
64.24015573301125
 20
29.40586174214606
 30
0.0
 11
64.19437017080972
 21
29.40586174214606
 31
0.0
  0
ARC
  5
750B
330
17
100
AcDbEntity
  8
R-SWTS-DET3
100
AcDbCircle
 10
63.72492976070791
 20
30.46973655939257
 30
0.0
 40
0.259405402911137
100
AcDbArc
 50
255.8484678412433
 51
298.7015420675307
  0
ARC
  5
750C
330
17
100
AcDbEntity
  8
R-SWTS-DET2
100
AcDbCircle
 10
63.167984361528
 20
29.65713470360984
 30
0.0
 40
0.005
100
AcDbArc
 50
112.5
 51
247.4999999999999
  0
LINE
  5
750D
330
17
100
AcDbEntity
  8
R-SWTS-DET2
100
AcDbLine
 10
63.16607094436618
 20
29.6617541012724
 30
0.0
 11
63.38426894787828
 21
29.75213467360985
 31
0.0
  0
LINE
  5
750E
330
17
100
AcDbEntity
  8
R-SWTS-DET2
100
AcDbLine
 10
63.16607094436618
 20
29.65251530594729
 30
0.0
 11
63.38426894787828
 21
29.56213473360985
 31
0.0
  0
LWPOLYLINE
  5
750F
330
17
100
AcDbEntity
  8
R-SWTS-DET1
100
AcDbPolyline
 90
        6
 70
     0
 43
0.0
 10
66.78651845445876
 20
25.74341223086906
 10
66.78651845445876
 20
28.36507549625759
 10
66.58653845445875
 20
28.41509549625759
 10
66.98651845445876
 20
28.5150754962576
 10
66.78651845445876
 20
28.56507549625759
 10
66.78651845445876
 20
30.7150854962576
  0
ARC
  5
7512
330
17
100
AcDbEntity
  8
R-SWTS-DET3
100
AcDbCircle
 10
64.23823035756796
 20
27.69876651509026
 30
0.0
 40
0.4329807042392145
100
AcDbArc
 50
75.10759156157007
 51
122.9863257895384
  0
ARC
  5
7514
330
17
100
AcDbEntity
  8
R-SWTS-DET3
100
AcDbCircle
 10
72.30121488383986
 20
27.63878786634377
 30
0.0
 40
0.4891115083519645
100
AcDbArc
 50
59.90176956028855
 51
102.004313088603
  0
LINE
  5
75D8
330
17
100
AcDbEntity
  8
R-SWTS-DET1
  6
DASHED
100
AcDbLine
 10
21.34417382775857
 20
38.61613563215225
 30
0.0
 11
24.18792382775857
 21
35.92863563215225
 31
0.0
  0
LINE
  5
75D9
330
17
100
AcDbEntity
  8
0
100
AcDbLine
 10
18.18792382775857
 20
38.92863563215227
 30
0.0
 11
14.44703207907605
 21
38.92863563215227
 31
0.0
  0
LINE
  5
75DA
330
17
100
AcDbEntity
  8
0
100
AcDbLine
 10
18.18792382775857
 20
38.61613563215225
 30
0.0
 11
14.44703207907605
 21
38.61613563215224
 31
0.0
  0
LINE
  5
75DB
330
17
100
AcDbEntity
  8
0
100
AcDbLine
 10
18.18792382775857
 20
35.61613563215225
 30
0.0
 11
14.44703207907605
 21
35.61613563215225
 31
0.0
  0
LINE
  5
75DC
330
17
100
AcDbEntity
  8
0
100
AcDbLine
 10
18.18792382775857
 20
35.92863563215225
 30
0.0
 11
14.44703207907605
 21
35.92863563215225
 31
0.0
  0
LINE
  5
75DD
330
17
100
AcDbEntity
  8
R-SWTS-DET1
  6
DASHED
100
AcDbLine
 10
18.50042382775857
 20
35.92863563215225
 30
0.0
 11
21.34417382775857
 21
38.61613563215225
 31
0.0
  0
LINE
  5
75DE
330
17
100
AcDbEntity
  8
0
100
AcDbLine
 10
24.18792382775857
 20
35.61613563215225
 30
0.0
 11
18.50042382775857
 21
35.61613563215225
 31
0.0
  0
LINE
  5
75DF
330
17
100
AcDbEntity
  8
0
100
AcDbLine
 10
24.18792382775857
 20
35.92863563215225
 30
0.0
 11
18.50042382775857
 21
35.92863563215225
 31
0.0
  0
LINE
  5
75E0
330
17
100
AcDbEntity
  8
0
100
AcDbLine
 10
24.18792382775857
 20
38.61613563215225
 30
0.0
 11
18.50042382775857
 21
38.61613563215225
 31
0.0
  0
LINE
  5
75E1
330
17
100
AcDbEntity
  8
0
100
AcDbLine
 10
24.18792382775857
 20
38.92863563215225
 30
0.0
 11
18.50042382775857
 21
38.92863563215225
 31
0.0
  0
LINE
  5
75E2
330
17
100
AcDbEntity
  8
0
100
AcDbLine
 10
28.41055998365118
 20
35.92863563215225
 30
0.0
 11
24.50042382775857
 21
35.92863563215225
 31
0.0
  0
LINE
  5
75E3
330
17
100
AcDbEntity
  8
0
100
AcDbLine
 10
28.41055998365118
 20
35.61613563215225
 30
0.0
 11
24.50042382775857
 21
35.61613563215225
 31
0.0
  0
LINE
  5
75E4
330
17
100
AcDbEntity
  8
0
100
AcDbLine
 10
28.41055998365118
 20
38.61613563215224
 30
0.0
 11
24.50042382775857
 21
38.61613563215225
 31
0.0
  0
LINE
  5
75E5
330
17
100
AcDbEntity
  8
0
100
AcDbLine
 10
28.41055998365118
 20
38.92863563215225
 30
0.0
 11
24.50042382775857
 21
38.92863563215225
 31
0.0
  0
LINE
  5
75E6
330
17
100
AcDbEntity
  8
0
100
AcDbLine
 10
18.50042382775857
 20
44.18593254632848
 30
0.0
 11
18.50042382775857
 21
30.44460144088716
 31
0.0
  0
LINE
  5
75E7
330
17
100
AcDbEntity
  8
0
100
AcDbLine
 10
18.18792382775857
 20
44.18593254632849
 30
0.0
 11
18.18792382775857
 21
30.44460144088716
 31
0.0
  0
LINE
  5
75E8
330
17
100
AcDbEntity
  8
0
100
AcDbLine
 10
24.18792382775857
 20
44.18593254632848
 30
0.0
 11
24.18792382775857
 21
30.44460144088716
 31
0.0
  0
LINE
  5
75E9
330
17
100
AcDbEntity
  8
0
100
AcDbLine
 10
24.50042382775857
 20
44.18593254632848
 30
0.0
 11
24.50042382775857
 21
30.44460144088716
 31
0.0
  0
TEXT
  5
75EA
330
17
100
AcDbEntity
  8
0
  6
Continuous
100
AcDbText
 10
7.981401062925308
 20
37.36866438233774
 30
0.0
 40
0.5
  1
PROJECT-OUT
 72
     1
 11
10.46485945310266
 21
37.36866438233774
 31
0.0
100
AcDbText
  0
TEXT
  5
75EC
330
17
100
AcDbEntity
  8
0
  6
Continuous
100
AcDbText
 10
6.91789678779393
 20
36.31752698850514
 30
0.0
 40
0.5
  1
TYPICAL ELEVATION
 72
     1
 11
10.430857224356
 21
36.31752698850514
 31
0.0
100
AcDbText
  0
LINE
  5
75ED
330
17
100
AcDbEntity
  8
0
100
AcDbLine
 10
20.07400600960585
 20
21.62889864926718
 30
0.0
 11
20.07400600960585
 21
25.3697903979497
 31
0.0
  0
LINE
  5
75EE
330
17
100
AcDbEntity
  8
0
100
AcDbLine
 10
22.76150600960585
 20
21.62889864926718
 30
0.0
 11
22.76150600960585
 21
25.3697903979497
 31
0.0
  0
LINE
  5
75EF
330
17
100
AcDbEntity
  8
0
100
AcDbLine
 10
23.07400600960588
 20
21.62889864926718
 30
0.0
 11
23.07400600960588
 21
25.3697903979497
 31
0.0
  0
LINE
  5
75F0
330
17
100
AcDbEntity
  8
0
100
AcDbLine
 10
19.76150600960585
 20
21.62889864926718
 30
0.0
 11
19.76150600960585
 21
25.3697903979497
 31
0.0
  0
LINE
  5
75F1
330
17
100
AcDbEntity
  8
0
100
AcDbLine
 10
25.77387952229208
 20
21.62889864926718
 30
0.0
 11
16.80994594615646
 21
21.62889864926719
 31
0.0
  0
LINE
  5
75F2
330
17
100
AcDbEntity
  8
0
100
AcDbLine
 10
25.77387952229208
 20
21.31639864926718
 30
0.0
 11
16.80994594615646
 21
21.31639864926719
 31
0.0
  0
LINE
  5
75F3
330
17
100
AcDbEntity
  8
R-SWTS-DET1
  6
DASHED
100
AcDbLine
 10
20.07400600960585
 20
15.62889864926718
 30
0.0
 11
22.76150600960585
 21
18.47264864926718
 31
0.0
  0
LINE
  5
75F4
330
17
100
AcDbEntity
  8
0
100
AcDbLine
 10
20.07400600960585
 20
11.40626249337457
 30
0.0
 11
20.07400600960585
 21
15.31639864926718
 31
0.0
  0
LINE
  5
75F5
330
17
100
AcDbEntity
  8
0
100
AcDbLine
 10
22.76150600960582
 20
11.40626249337457
 30
0.0
 11
22.76150600960585
 21
15.31639864926718
 31
0.0
  0
LINE
  5
75F6
330
17
100
AcDbEntity
  8
0
100
AcDbLine
 10
23.07400600960585
 20
11.40626249337457
 30
0.0
 11
23.07400600960585
 21
15.31639864926718
 31
0.0
  0
LINE
  5
75F7
330
17
100
AcDbEntity
  8
0
100
AcDbLine
 10
19.76150600960585
 20
11.40626249337457
 30
0.0
 11
19.76150600960585
 21
15.31639864926718
 31
0.0
  0
LINE
  5
75F8
330
17
100
AcDbEntity
  8
0
100
AcDbLine
 10
25.77387952229208
 20
15.31639864926719
 30
0.0
 11
16.80994594615646
 21
15.31639864926718
 31
0.0
  0
LINE
  5
75F9
330
17
100
AcDbEntity
  8
0
100
AcDbLine
 10
25.77387952229208
 20
15.62889864926719
 30
0.0
 11
16.80994594615646
 21
15.62889864926718
 31
0.0
  0
LINE
  5
75FA
330
17
100
AcDbEntity
  8
R-SWTS-DET1
  6
DASHED
100
AcDbLine
 10
20.07400600960585
 20
21.31639864926718
 30
0.0
 11
22.76150600960585
 21
18.47264864926718
 31
0.0
  0
LINE
  5
75FB
330
17
100
AcDbEntity
  8
0
100
AcDbLine
 10
20.07400600960585
 20
15.62889864926718
 30
0.0
 11
20.07400600960585
 21
21.31639864926718
 31
0.0
  0
LINE
  5
75FC
330
17
100
AcDbEntity
  8
0
100
AcDbLine
 10
19.76150600960585
 20
15.62889864926718
 30
0.0
 11
19.76150600960585
 21
21.31639864926718
 31
0.0
  0
LINE
  5
75FD
330
17
100
AcDbEntity
  8
0
100
AcDbLine
 10
23.07400600960585
 20
15.62889864926718
 30
0.0
 11
23.07400600960585
 21
21.31639864926718
 31
0.0
  0
LINE
  5
75FE
330
17
100
AcDbEntity
  8
0
100
AcDbLine
 10
22.76150600960585
 20
15.62889864926718
 30
0.0
 11
22.76150600960585
 21
21.31639864926718
 31
0.0
  0
TEXT
  5
75FF
330
17
100
AcDbEntity
  8
0
  6
Continuous
100
AcDbText
 10
9.924789414871392
 20
17.42884890649107
 30
0.0
 40
0.5
  1
TYPICAL ELEVATION
 72
     1
 11
13.43774985143346
 21
17.42884890649107
 31
0.0
100
AcDbText
  0
TEXT
  5
7600
330
17
100
AcDbEntity
  8
0
  6
Continuous
100
AcDbText
 10
9.513532434886808
 20
18.47998630032367
 30
0.0
 40
0.5
  1
OUTSWING CASEMENT
 72
     1
 11
13.47175208018012
 21
18.47998630032367
 31
0.0
100
AcDbText
  0
TEXT
  5
7615
330
17
100
AcDbEntity
  8
0
  6
Continuous
100
AcDbText
 10
55.10981600208729
 20
14.171034429741
 30
0.0
 40
0.375
  1
OUTSWING CASEMENT
 72
     1
 11
58.07848073605729
 21
14.171034429741
 31
0.0
100
AcDbText
  0
TEXT
  5
7616
330
17
100
AcDbEntity
  8
0
  6
Continuous
 62
     2
100
AcDbText
 10
53.88658953551158
 20
15.76876652643346
 30
0.0
 40
0.375
  1
GLASSvent™ WINDOWS DETAILS
 72
     1
 11
58.07848073605729
 21
15.76876652643346
 31
0.0
100
AcDbText
  0
MTEXT
  5
7722
102
{ACAD_XDICTIONARY
360
7723
102
}
330
17
100
AcDbEntity
  8
TEXT
100
AcDbMText
 10
1.000000043343135
 20
1.999999984525842
 30
0.0
 40
0.375
 41
15.4571868900598
 71
     1
 72
     5
  1
ENGINEERING CHANGE:  97910-095 (MARCH 2017)\PFILE NAME:  KCDE070 SHEET 02 OF 02.DWG
 73
     1
 44
1.0
1001
ACAD
1000
ACAD_MTEXT_COLUMN_INFO_BEGIN
1070
    75
1070
     2
1070
    79
1070
     0
1070
    76
1070
     1
1070
    78
1070
     0
1070
    48
1040
15.4571868900598
1070
    49
1040
1.25
1070
    50
1070
     1
1040
0.0
1000
ACAD_MTEXT_COLUMN_INFO_END
1000
MTEXTBEGIN
1070
    73
1070
     1
1070
    44
1040
1.0
1070
    74
1070
     0
1000
MTEXTEND
  0
MTEXT
  5
77EB
330
17
100
AcDbEntity
  8
0
 62
     1
100
AcDbMText
 10
36.87787067810416
 20
10.45874153289029
 30
0.0
 40
0.5
 41
39.63250839359393
 71
     1
 72
     5
  1
GLASSvent™ WINDOWS DETAILS SHOWN WITH Trifab™ VG 451 FRAMING SYSTEM FOR REFERENCE. \PREFER TO CAD FILES OF EACH SPECIFIED STOREFRONT PRODUCT(S) FOR MORE GLASSvent™ WINDOWS DETAILS.
 73
     1
 44
1.0
1001
ACAD
1000
MTEXTBEGIN
1070
    73
1070
     1
1070
    44
1040
1.0
1070
    74
1070
     0
1000
MTEXTEND
  0
MTEXT
  5
7C31
330
17
100
AcDbEntity
  8
0
100
AcDbMText
 10
58.07848073605729
 20
15.22767764730948
 30
0.0
 40
0.375
 41
6.951085965852506
 71
     2
 72
     5
  1
PROJECT-OUT OR
 73
     1
 44
1.0
1001
ACAD
1000
MTEXTBEGIN
1070
    73
1070
     1
1070
    44
1040
1.0
1070
    74
1070
     0
1000
MTEXTEND
  0
INSERT
  5
7E8C
330
17
100
AcDbEntity
  8
0
100
AcDbBlockReference
  2
Kawneer Logo English
 10
1.0
 20
2.5
 30
0.0
 41
5.337
 42
5.337
 43
5.337
  0
ENDSEC
  0
SECTION
  2
OBJECTS
  0
DICTIONARY
  5
C
330
0
100
AcDbDictionary
281
     1
  3
ACAD_CIP_PREVIOUS_PRODUCT_INFO
350
76FC
  3
ACAD_COLOR
350
7598
  3
ACAD_FIELDLIST
350
7720
  3
ACAD_GROUP
350
D
  3
ACAD_LAYOUT
350
485C
  3
ACAD_MATERIAL
350
7597
  3
ACAD_MLEADERSTYLE
350
767A
  3
ACAD_MLINESTYLE
350
1A
  3
ACAD_PLOTSETTINGS
350
485D
  3
ACAD_PLOTSTYLENAME
350
485A
  3
ACAD_SCALELIST
350
7668
  3
ACAD_TABLESTYLE
350
7666
  3
ACAD_VISUALSTYLE
350
764D
  3
ACDB_RECOMPOSE_DATA
350
7EE9
  3
ACDBVARIABLEDICTIONARY
350
3E
  3
DWGPROPS
350
7EEA
  0
DICTIONARY
  5
76B8
330
8
100
AcDbDictionary
280
     1
281
     1
  0
DICTIONARY
  5
7699
330
2
100
AcDbDictionary
280
     1
281
     1
  3
ACAD_LAYERSTATES
360
769A
  0
DICTIONARY
  5
76A9
330
E
100
AcDbDictionary
280
     1
281
     1
  3
ADSK_XREC_LAYER_RECONCILED
360
76AA
  0
DICTIONARY
  5
76AB
330
273
100
AcDbDictionary
280
     1
281
     1
  3
ADSK_XREC_LAYER_RECONCILED
360
76AC
  0
DICTIONARY
  5
76AD
330
277
100
AcDbDictionary
280
     1
281
     1
  3
ADSK_XREC_LAYER_RECONCILED
360
76AE
  0
DICTIONARY
  5
76AF
330
42D
100
AcDbDictionary
280
     1
281
     1
  3
ADSK_XREC_LAYER_RECONCILED
360
76B0
  0
DICTIONARY
  5
76B1
330
42E
100
AcDbDictionary
280
     1
281
     1
  3
ADSK_XREC_LAYER_RECONCILED
360
76B2
  0
DICTIONARY
  5
7711
330
7710
100
AcDbDictionary
280
     1
281
     1
  0
DICTIONARY
  5
4A11
330
17
100
AcDbDictionary
280
     1
281
     1
  3
ACAD_LAYOUTSELFREF
360
7593
  0
DICTIONARY
  5
4A0F
330
14
100
AcDbDictionary
280
     1
281
     1
  3
ACAD_LAYOUTSELFREF
360
7592
  0
DICTIONARY
  5
7E88
330
7E7E
100
AcDbDictionary
280
     1
281
     1
  3
ACAD_SORTENTS
360
7E89
  0
DICTIONARY
  5
7EE7
330
7E7F
100
AcDbDictionary
280
     1
281
     1
  3
ACAD_MTEXT_2008_RT
360
7EE8
  0
DICTIONARY
  5
7723
330
7722
100
AcDbDictionary
280
     1
281
     1
  0
XRECORD
  5
76FC
102
{ACAD_REACTORS
330
C
102
}
330
C
100
AcDbXrecord
280
     1
300
ACD
300
2012
300
85730ACD_2012_0F
  0
DICTIONARY
  5
7598
102
{ACAD_REACTORS
330
C
102
}
330
C
100
AcDbDictionary
281
     1
  0
FIELDLIST
  5
7720
102
{ACAD_REACTORS
330
C
102
}
330
C
100
AcDbIdSet
 90
        0
100
AcDbFieldList
  0
DICTIONARY
  5
D
102
{ACAD_REACTORS
330
C
102
}
330
C
100
AcDbDictionary
281
     1
  0
DICTIONARY
  5
485C
102
{ACAD_REACTORS
330
C
102
}
330
C
100
AcDbDictionary
281
     1
  3
Layout1
350
485F
  3
Model
350
485E
  0
DICTIONARY
  5
7597
102
{ACAD_REACTORS
330
C
102
}
330
C
100
AcDbDictionary
281
     1
  3
ByBlock
350
763D
  3
ByLayer
350
7635
  3
Global
350
7645
  0
DICTIONARY
  5
767A
102
{ACAD_REACTORS
330
C
102
}
330
C
100
AcDbDictionary
281
     1
  3
Standard
350
767B
  0
DICTIONARY
  5
1A
102
{ACAD_REACTORS
330
C
102
}
330
C
100
AcDbDictionary
281
     1
  3
STANDARD
350
1B
  0
DICTIONARY
  5
485D
102
{ACAD_REACTORS
330
C
102
}
330
C
100
AcDbDictionary
281
     1
  0
ACDBDICTIONARYWDFLT
  5
485A
102
{ACAD_REACTORS
330
C
102
}
330
C
100
AcDbDictionary
281
     1
  3
Normal
350
485B
100
AcDbDictionaryWithDefault
340
485B
  0
DICTIONARY
  5
7668
102
{ACAD_REACTORS
330
C
102
}
330
C
100
AcDbDictionary
281
     1
  3
A0
350
7669
  3
A1
350
7E5D
  3
A2
350
7E5E
  3
A3
350
7E5F
  3
A4
350
7E60
  3
A5
350
7E61
  3
A6
350
7E62
  3
A7
350
7E63
  3
A8
350
7E64
  3
A9
350
7E65
  3
B0
350
7E66
  3
B1
350
7E67
  3
B2
350
7E68
  3
B3
350
7E69
  3
B4
350
7E6A
  3
B5
350
7E6B
  3
B6
350
7E6C
  0
DICTIONARY
  5
7666
102
{ACAD_REACTORS
330
C
102
}
330
C
100
AcDbDictionary
281
     1
  3
Standard
350
7667
  0
DICTIONARY
  5
764D
102
{ACAD_REACTORS
330
C
102
}
330
C
100
AcDbDictionary
281
     1
  3
2dWireframe
350
7653
  3
3D Hidden
350
7E7C
  3
3dWireframe
350
7E7D
  3
Basic
350
7652
  3
Brighten
350
7659
  3
ColorChange
350
765D
  3
Conceptual
350
7656
  3
Dim
350
7658
  3
EdgeColorOff
350
7665
  3
Facepattern
350
765C
  3
Flat
350
764E
  3
FlatWithEdges
350
764F
  3
Gouraud
350
7650
  3
GouraudWithEdges
350
7651
  3
Hidden
350
7655
  3
JitterOff
350
7663
  3
Linepattern
350
765B
  3
OverhangOff
350
7664
  3
Realistic
350
7657
  3
Shaded
350
7662
  3
Shaded with edges
350
7661
  3
Shades of Gray
350
765E
  3
Sketchy
350
765F
  3
Thicken
350
765A
  3
Wireframe
350
7654
  3
X-Ray
350
7660
  0
XRECORD
  5
7EE9
102
{ACAD_REACTORS
330
C
102
}
330
C
100
AcDbXrecord
280
     1
 90
        1
330
7667
330
7722
330
7E7F
  0
DICTIONARY
  5
3E
102
{ACAD_REACTORS
330
C
102
}
330
C
100
AcDbDictionary
281
     1
  3
CANNOSCALE
350
76F5
  3
CMLEADERSTYLE
350
76F4
  3
CTABLESTYLE
350
76F3
  3
DIMADEC
350
3F
  3
DIMASSOC
350
75A3
  3
INDEXCTL
350
76F7
  3
LAYEREVAL
350
7ED9
  3
LAYERNOTIFY
350
7EDA
  3
LIGHTINGUNITS
350
7ED8
  3
MSLTSCALE
350
7ED7
  3
PROJECTNAME
350
75A4
  3
SORTENTS
350
76F6
  3
XCLIPFRAME
350
7EE5
  0
XRECORD
  5
7EEA
102
{ACAD_REACTORS
330
C
102
}
330
C
100
AcDbXrecord
280
     1
  1
DWGPROPS COOKIE
  2

  3

  4

  6

  7

  8
quadiss
  9

300
=
301
=
302
=
303
=
304
=
305
=
306
=
307
=
308
=
309
=
 40
0.8048460069444443
 41
2450777.579237616
 42
2457809.472245567
  1

 90
        0
  0
DICTIONARY
  5
769A
102
{ACAD_REACTORS
330
7699
102
}
330
7699
100
AcDbDictionary
281
     1
  0
XRECORD
  5
76AA
102
{ACAD_REACTORS
330
76A9
102
}
330
76A9
100
AcDbXrecord
280
     1
290
     1
  0
XRECORD
  5
76AC
102
{ACAD_REACTORS
330
76AB
102
}
330
76AB
100
AcDbXrecord
280
     1
290
     1
  0
XRECORD
  5
76AE
102
{ACAD_REACTORS
330
76AD
102
}
330
76AD
100
AcDbXrecord
280
     1
290
     1
  0
XRECORD
  5
76B0
102
{ACAD_REACTORS
330
76AF
102
}
330
76AF
100
AcDbXrecord
280
     1
290
     1
  0
XRECORD
  5
76B2
102
{ACAD_REACTORS
330
76B1
102
}
330
76B1
100
AcDbXrecord
280
     1
290
     1
  0
XRECORD
  5
7593
102
{ACAD_REACTORS
330
4A11
102
}
330
4A11
100
AcDbXrecord
280
     1
340
17
  0
XRECORD
  5
7592
102
{ACAD_REACTORS
330
4A0F
102
}
330
4A0F
100
AcDbXrecord
280
     1
340
14
  0
SORTENTSTABLE
  5
7E89
102
{ACAD_REACTORS
330
7E88
102
}
330
7E88
100
AcDbSortentsTable
330
7E7E
  0
XRECORD
  5
7EE8
102
{ACAD_REACTORS
330
7EE7
102
}
330
7EE7
100
AcDbXrecord
280
     1
 40
102645.0
  1
\pxqr;{\fArial TUR|b0|i0|c0|p34;\T1.05;AN ARCONIC COMPANY}
  0
LAYOUT
  5
485F
102
{ACAD_XDICTIONARY
360
7EED
102
}
102
{ACAD_REACTORS
330
485C
102
}
330
485C
100
AcDbPlotSettings
  1

  2
\\NOAKCI-SRV7\Marketing Communications - HP4550hdn
  4

  6

 40
0.0
 41
0.0
 42
0.0
 43
0.0
 44
0.0
 45
0.0
 46
0.0
 47
0.0
 48
0.0
 49
0.0
140
0.0
141
0.0
142
1.0
143
1.0
 70
   688
 72
     0
 73
     0
 74
     5
  7
monochrome.ctb
 75
    16
147
1.0
148
0.0
149
0.0
100
AcDbLayout
  1
Layout1
 70
     1
 71
     1
 10
0.0
 20
0.0
 11
12.0
 21
9.0
 12
0.0
 22
0.0
 32
0.0
 14
1.000000000000000E+20
 24
1.000000000000000E+20
 34
1.000000000000000E+20
 15
-1.000000000000000E+20
 25
-1.000000000000000E+20
 35
-1.000000000000000E+20
146
0.0
 13
0.0
 23
0.0
 33
0.0
 16
1.0
 26
0.0
 36
0.0
 17
0.0
 27
1.0
 37
0.0
 76
     0
330
14
  0
LAYOUT
  5
485E
102
{ACAD_XDICTIONARY
360
7EEB
102
}
102
{ACAD_REACTORS
330
485C
102
}
330
485C
100
AcDbPlotSettings
  1

  2
\\noakci-hub01\KCI_MKT_HP9000_PCL6
  4
11x17
  6

 40
3.174999952316284
 41
3.174999952316284
 42
3.17498779296875
 43
3.17498779296875
 44
279.3999938964844
 45
431.8000183105469
 46
0.0
 47
0.0
 48
0.0
 49
0.0
140
0.0
141
0.0
142
1.0
143
4.370096526218011
 70
 11952
 72
     0
 73
     1
 74
     1
  7
monochrome.ctb
 75
     0
147
0.2288278975076609
148
0.1127081960405007
149
0.0728186680745267
100
AcDbLayout
  1
Model
 70
     1
 71
     0
 10
0.0
 20
0.0
 11
12.0
 21
9.0
 12
0.0
 22
0.0
 32
0.0
 14
0.0
 24
0.0
 34
0.0
 15
0.0
 25
0.0
 35
0.0
146
0.0
 13
0.0
 23
0.0
 33
0.0
 16
1.0
 26
0.0
 36
0.0
 17
0.0
 27
1.0
 37
0.0
 76
     0
330
17
331
762C
  0
MATERIAL
  5
763D
102
{ACAD_XDICTIONARY
360
763E
102
}
102
{ACAD_REACTORS
330
7597
102
}
330
7597
100
AcDbMaterial
  1
ByBlock
 72
     0
 43
0.0208333333333333
 43
0.0
 43
0.0
 43
0.0
 43
0.0
 43
0.0208333333333333
 43
0.0
 43
0.0
 43
0.0
 43
0.0
 43
1.0
 43
0.0
 43
0.0
 43
0.0
 43
0.0
 43
1.0
 77
     0
 47
0.0208333333333333
 47
0.0
 47
0.0
 47
0.0
 47
0.0
 47
0.0208333333333333
 47
0.0
 47
0.0
 47
0.0
 47
0.0
 47
1.0
 47
0.0
 47
0.0
 47
0.0
 47
0.0
 47
1.0
171
     0
 49
0.0208333333333333
 49
0.0
 49
0.0
 49
0.0
 49
0.0
 49
0.0208333333333333
 49
0.0
 49
0.0
 49
0.0
 49
0.0
 49
1.0
 49
0.0
 49
0.0
 49
0.0
 49
0.0
 49
1.0
175
     0
142
0.0208333333333333
142
0.0
142
0.0
142
0.0
142
0.0
142
0.0208333333333333
142
0.0
142
0.0
142
0.0
142
0.0
142
1.0
142
0.0
142
0.0
142
0.0
142
0.0
142
1.0
179
     0
144
0.0208333333333333
144
0.0
144
0.0
144
0.0
144
0.0
144
0.0208333333333333
144
0.0
144
0.0
144
0.0
144
0.0
144
1.0
144
0.0
144
0.0
144
0.0
144
0.0
144
1.0
147
0.0208333333333333
147
0.0
147
0.0
147
0.0
147
0.0
147
0.0208333333333333
147
0.0
147
0.0
147
0.0
147
0.0
147
1.0
147
0.0
147
0.0
147
0.0
147
0.0
147
1.0
  0
MATERIAL
  5
7635
102
{ACAD_XDICTIONARY
360
7636
102
}
102
{ACAD_REACTORS
330
7597
102
}
330
7597
100
AcDbMaterial
  1
ByLayer
 72
     0
 43
0.0208333333333333
 43
0.0
 43
0.0
 43
0.0
 43
0.0
 43
0.0208333333333333
 43
0.0
 43
0.0
 43
0.0
 43
0.0
 43
1.0
 43
0.0
 43
0.0
 43
0.0
 43
0.0
 43
1.0
 77
     0
 47
0.0208333333333333
 47
0.0
 47
0.0
 47
0.0
 47
0.0
 47
0.0208333333333333
 47
0.0
 47
0.0
 47
0.0
 47
0.0
 47
1.0
 47
0.0
 47
0.0
 47
0.0
 47
0.0
 47
1.0
171
     0
 49
0.0208333333333333
 49
0.0
 49
0.0
 49
0.0
 49
0.0
 49
0.0208333333333333
 49
0.0
 49
0.0
 49
0.0
 49
0.0
 49
1.0
 49
0.0
 49
0.0
 49
0.0
 49
0.0
 49
1.0
175
     0
142
0.0208333333333333
142
0.0
142
0.0
142
0.0
142
0.0
142
0.0208333333333333
142
0.0
142
0.0
142
0.0
142
0.0
142
1.0
142
0.0
142
0.0
142
0.0
142
0.0
142
1.0
179
     0
144
0.0208333333333333
144
0.0
144
0.0
144
0.0
144
0.0
144
0.0208333333333333
144
0.0
144
0.0
144
0.0
144
0.0
144
1.0
144
0.0
144
0.0
144
0.0
144
0.0
144
1.0
147
0.0208333333333333
147
0.0
147
0.0
147
0.0
147
0.0
147
0.0208333333333333
147
0.0
147
0.0
147
0.0
147
0.0
147
1.0
147
0.0
147
0.0
147
0.0
147
0.0
147
1.0
  0
MATERIAL
  5
7645
102
{ACAD_XDICTIONARY
360
7646
102
}
102
{ACAD_REACTORS
330
7597
102
}
330
7597
100
AcDbMaterial
  1
Global
 72
     0
 43
0.0208333333333333
 43
0.0
 43
0.0
 43
0.0
 43
0.0
 43
0.0208333333333333
 43
0.0
 43
0.0
 43
0.0
 43
0.0
 43
1.0
 43
0.0
 43
0.0
 43
0.0
 43
0.0
 43
1.0
 77
     0
 47
0.0208333333333333
 47
0.0
 47
0.0
 47
0.0
 47
0.0
 47
0.0208333333333333
 47
0.0
 47
0.0
 47
0.0
 47
0.0
 47
1.0
 47
0.0
 47
0.0
 47
0.0
 47
0.0
 47
1.0
171
     0
 49
0.0208333333333333
 49
0.0
 49
0.0
 49
0.0
 49
0.0
 49
0.0208333333333333
 49
0.0
 49
0.0
 49
0.0
 49
0.0
 49
1.0
 49
0.0
 49
0.0
 49
0.0
 49
0.0
 49
1.0
175
     0
142
0.0208333333333333
142
0.0
142
0.0
142
0.0
142
0.0
142
0.0208333333333333
142
0.0
142
0.0
142
0.0
142
0.0
142
1.0
142
0.0
142
0.0
142
0.0
142
0.0
142
1.0
179
     0
144
0.0208333333333333
144
0.0
144
0.0
144
0.0
144
0.0
144
0.0208333333333333
144
0.0
144
0.0
144
0.0
144
0.0
144
1.0
144
0.0
144
0.0
144
0.0
144
0.0
144
1.0
147
0.0208333333333333
147
0.0
147
0.0
147
0.0
147
0.0
147
0.0208333333333333
147
0.0
147
0.0
147
0.0
147
0.0
147
1.0
147
0.0
147
0.0
147
0.0
147
0.0
147
1.0
  0
MLEADERSTYLE
  5
767B
102
{ACAD_REACTORS
330
767A
102
}
330
767A
100
AcDbMLeaderStyle
170
     2
171
     1
172
     0
 90
        2
 40
0.0
 41
0.0
173
     1
 91
-1056964608
340
11
 92
       -2
290
     1
 42
0.09
291
     1
 43
0.36
  3
Standard
 44
0.18
300

342
F
174
     1
178
     6
175
     1
176
     0
 93
-1056964608
 45
0.18
292
     0
297
     0
 46
0.18
 94
-1056964608
 47
1.0
 49
1.0
140
1.0
293
     1
141
0.0
294
     1
177
     0
142
1.0
295
     0
296
     0
143
0.125
1001
ACAD_MLEADERVER
1070
     2
  0
MLINESTYLE
  5
1B
102
{ACAD_REACTORS
330
1A
102
}
330
1A
100
AcDbMlineStyle
  2
STANDARD
 70
     0
  3

 62
   256
 51
90.0
 52
90.0
 71
     2
 49
0.5
 62
   256
  6
BYLAYER
 49
-0.5
 62
   256
  6
BYLAYER
  0
ACDBPLACEHOLDER
  5
485B
102
{ACAD_REACTORS
330
485A
102
}
330
485A
  0
SCALE
  5
7669
102
{ACAD_REACTORS
330
7668
102
}
330
7668
100
AcDbScale
 70
     0
300
1:1
140
1.0
141
1.0
290
     1
  0
SCALE
  5
7E5D
102
{ACAD_REACTORS
330
7668
102
}
330
7668
100
AcDbScale
 70
     0
300
1/128" = 1'-0"
140
0.0078125
141
12.0
290
     0
  0
SCALE
  5
7E5E
102
{ACAD_REACTORS
330
7668
102
}
330
7668
100
AcDbScale
 70
     0
300
1/64" = 1'-0"
140
0.015625
141
12.0
290
     0
  0
SCALE
  5
7E5F
102
{ACAD_REACTORS
330
7668
102
}
330
7668
100
AcDbScale
 70
     0
300
1/32" = 1'-0"
140
0.03125
141
12.0
290
     0
  0
SCALE
  5
7E60
102
{ACAD_REACTORS
330
7668
102
}
330
7668
100
AcDbScale
 70
     0
300
1/16" = 1'-0"
140
0.0625
141
12.0
290
     0
  0
SCALE
  5
7E61
102
{ACAD_REACTORS
330
7668
102
}
330
7668
100
AcDbScale
 70
     0
300
3/32" = 1'-0"
140
0.09375
141
12.0
290
     0
  0
SCALE
  5
7E62
102
{ACAD_REACTORS
330
7668
102
}
330
7668
100
AcDbScale
 70
     0
300
1/8" = 1'-0"
140
0.125
141
12.0
290
     0
  0
SCALE
  5
7E63
102
{ACAD_REACTORS
330
7668
102
}
330
7668
100
AcDbScale
 70
     0
300
3/16" = 1'-0"
140
0.1875
141
12.0
290
     0
  0
SCALE
  5
7E64
102
{ACAD_REACTORS
330
7668
102
}
330
7668
100
AcDbScale
 70
     0
300
1/4" = 1'-0"
140
0.25
141
12.0
290
     0
  0
SCALE
  5
7E65
102
{ACAD_REACTORS
330
7668
102
}
330
7668
100
AcDbScale
 70
     0
300
3/8" = 1'-0"
140
0.375
141
12.0
290
     0
  0
SCALE
  5
7E66
102
{ACAD_REACTORS
330
7668
102
}
330
7668
100
AcDbScale
 70
     0
300
1/2" = 1'-0"
140
0.5
141
12.0
290
     0
  0
SCALE
  5
7E67
102
{ACAD_REACTORS
330
7668
102
}
330
7668
100
AcDbScale
 70
     0
300
3/4" = 1'-0"
140
0.75
141
12.0
290
     0
  0
SCALE
  5
7E68
102
{ACAD_REACTORS
330
7668
102
}
330
7668
100
AcDbScale
 70
     0
300
1" = 1'-0"
140
1.0
141
12.0
290
     0
  0
SCALE
  5
7E69
102
{ACAD_REACTORS
330
7668
102
}
330
7668
100
AcDbScale
 70
     0
300
1-1/2" = 1'-0"
140
1.5
141
12.0
290
     0
  0
SCALE
  5
7E6A
102
{ACAD_REACTORS
330
7668
102
}
330
7668
100
AcDbScale
 70
     0
300
3" = 1'-0"
140
3.0
141
12.0
290
     0
  0
SCALE
  5
7E6B
102
{ACAD_REACTORS
330
7668
102
}
330
7668
100
AcDbScale
 70
     0
300
6" = 1'-0"
140
6.0
141
12.0
290
     0
  0
SCALE
  5
7E6C
102
{ACAD_REACTORS
330
7668
102
}
330
7668
100
AcDbScale
 70
     0
300
1'-0" = 1'-0"
140
12.0
141
12.0
290
     0
  0
TABLESTYLE
  5
7667
102
{ACAD_XDICTIONARY
360
76B4
102
}
102
{ACAD_REACTORS
330
7666
102
}
330
7666
100
AcDbTableStyle
  3
Standard
 70
     0
 71
     0
 40
0.06
 41
0.06
280
     0
281
     0
  7
STANDARD
140
0.18
170
     2
 62
     0
 63
     7
283
     0
274
    -2
284
     1
 64
     0
275
    -2
285
     1
 65
     0
276
    -2
286
     1
 66
     0
277
    -2
287
     1
 67
     0
278
    -2
288
     1
 68
     0
279
    -2
289
     1
 69
     0
  7
STANDARD
140
0.25
170
     5
 62
     0
 63
     7
283
     0
274
    -2
284
     1
 64
     0
275
    -2
285
     1
 65
     0
276
    -2
286
     1
 66
     0
277
    -2
287
     1
 67
     0
278
    -2
288
     1
 68
     0
279
    -2
289
     1
 69
     0
  7
STANDARD
140
0.18
170
     5
 62
     0
 63
     7
283
     0
274
    -2
284
     1
 64
     0
275
    -2
285
     1
 65
     0
276
    -2
286
     1
 66
     0
277
    -2
287
     1
 67
     0
278
    -2
288
     1
 68
     0
279
    -2
289
     1
 69
     0
  0
VISUALSTYLE
  5
7653
102
{ACAD_XDICTIONARY
360
7EFC
102
}
102
{ACAD_REACTORS
330
764D
102
}
330
764D
100
AcDbVisualStyle
  2
2dWireframe
 70
     4
 71
     0
 72
     2
 73
     0
 90
        0
 40
-0.6
 41
-30.0
 62
     5
 63
     7
 74
     1
 91
        4
 64
     7
 65
   257
 75
     1
175
     1
 42
1.0
 92
        0
 66
   257
 43
1.0
 76
     1
 77
     6
 78
     2
 67
     7
 79
     5
170
     0
171
     0
290
     0
174
     0
 93
        1
 44
0.0
173
     0
291
     0
 45
0.0
1001
ACAD
1000
AcDbSavedByObjectVersion
1070
     0
  0
VISUALSTYLE
  5
7E7C
102
{ACAD_XDICTIONARY
360
7F23
102
}
102
{ACAD_REACTORS
330
764D
102
}
330
764D
100
AcDbVisualStyle
  2
3D Hidden
 70
     6
 71
     1
 72
     2
 73
     2
 90
        0
 40
-0.6
 41
-30.0
 62
     5
 63
     7
 74
     2
 91
        2
 64
     7
 65
   257
 75
     2
175
     1
 42
40.0
 92
        0
 66
   257
 43
1.0
 76
     1
 77
     6
 78
     2
 67
     7
 79
     3
170
     0
171
     0
290
     0
174
     0
 93
        1
 44
0.0
173
     0
291
     0
 45
0.0
1001
ACAD
1000
AcDbSavedByObjectVersion
1070
     0
  0
VISUALSTYLE
  5
7E7D
102
{ACAD_XDICTIONARY
360
7F25
102
}
102
{ACAD_REACTORS
330
764D
102
}
330
764D
100
AcDbVisualStyle
  2
3dWireframe
 70
     5
 71
     0
 72
     2
 73
     0
 90
        0
 40
-0.6
 41
-30.0
 62
     5
 63
     7
 74
     1
 91
        4
 64
     7
 65
   257
 75
     1
175
     1
 42
1.0
 92
        0
 66
   257
 43
1.0
 76
     1
 77
     6
 78
     2
 67
     7
 79
     5
170
     0
171
     0
290
     0
174
     0
 93
        1
 44
0.0
173
     0
291
     0
 45
0.0
1001
ACAD
1000
AcDbSavedByObjectVersion
1070
     0
  0
VISUALSTYLE
  5
7652
102
{ACAD_XDICTIONARY
360
7EFA
102
}
102
{ACAD_REACTORS
330
764D
102
}
330
764D
100
AcDbVisualStyle
  2
Basic
 70
     7
 71
     1
 72
     0
 73
     1
 90
        0
 40
-0.6
 41
-30.0
 62
     5
 63
     7
 74
     0
 91
        4
 64
     7
 65
   257
 75
     1
175
     1
 42
1.0
 92
        8
 66
     7
 43
1.0
 76
     1
 77
     6
 78
     2
 67
     7
 79
     5
170
     0
171
     0
290
     0
174
     0
 93
        1
 44
0.0
173
     0
291
     1
 45
0.0
1001
ACAD
1000
AcDbSavedByObjectVersion
1070
     0
  0
VISUALSTYLE
  5
7659
102
{ACAD_XDICTIONARY
360
7F08
102
}
102
{ACAD_REACTORS
330
764D
102
}
330
764D
100
AcDbVisualStyle
  2
Brighten
 70
    12
 71
     2
 72
     2
 73
     0
 90
        0
 40
-0.6
 41
-30.0
 62
     5
 63
     7
 74
     1
 91
        4
 64
     7
 65
   257
 75
     1
175
     1
 42
1.0
 92
        8
 66
     7
 43
1.0
 76
     1
 77
     6
 78
     2
 67
     7
 79
     5
170
     0
171
     0
290
     0
174
     0
 93
        1
 44
50.0
173
     0
291
     1
 45
0.0
1001
ACAD
1000
AcDbSavedByObjectVersion
1070
     0
  0
VISUALSTYLE
  5
765D
102
{ACAD_XDICTIONARY
360
7F10
102
}
102
{ACAD_REACTORS
330
764D
102
}
330
764D
100
AcDbVisualStyle
  2
ColorChange
 70
    16
 71
     2
 72
     2
 73
     3
 90
        0
 40
-0.6
 41
-30.0
 62
     5
 63
     8
 74
     1
 91
        4
 64
     7
 65
   257
 75
     1
175
     1
 42
1.0
 92
        8
 66
     8
 43
1.0
 76
     1
 77
     6
 78
     2
 67
     7
 79
     5
170
     0
171
     0
290
     0
174
     0
 93
        1
 44
0.0
173
     0
291
     1
 45
0.0
1001
ACAD
1000
AcDbSavedByObjectVersion
1070
     0
  0
VISUALSTYLE
  5
7656
102
{ACAD_XDICTIONARY
360
7F02
102
}
102
{ACAD_REACTORS
330
764D
102
}
330
764D
100
AcDbVisualStyle
  2
Conceptual
 70
     9
 71
     3
 72
     2
 73
     0
 90
        0
 40
-0.6
 41
-30.0
 62
     5
 63
     7
 74
     2
 91
        2
 64
     7
 65
   257
 75
     1
175
     1
 42
179.0
 92
        8
 66
     7
 43
1.0
 76
     1
 77
     6
 78
     2
 67
     7
 79
     3
170
     0
171
     0
290
     0
174
     0
 93
        1
 44
0.0
173
     0
291
     0
 45
0.0
1001
ACAD
1000
AcDbSavedByObjectVersion
1070
     0
  0
VISUALSTYLE
  5
7658
102
{ACAD_XDICTIONARY
360
7F06
102
}
102
{ACAD_REACTORS
330
764D
102
}
330
764D
100
AcDbVisualStyle
  2
Dim
 70
    11
 71
     2
 72
     2
 73
     0
 90
        0
 40
-0.6
 41
-30.0
 62
     5
 63
     7
 74
     1
 91
        4
 64
     7
 65
   257
 75
     1
175
     1
 42
1.0
 92
        8
 66
     7
 43
1.0
 76
     1
 77
     6
 78
     2
 67
     7
 79
     5
170
     0
171
     0
290
     0
174
     0
 93
        1
 44
-50.0
173
     0
291
     1
 45
0.0
1001
ACAD
1000
AcDbSavedByObjectVersion
1070
     0
  0
VISUALSTYLE
  5
7665
102
{ACAD_XDICTIONARY
360
7F20
102
}
102
{ACAD_REACTORS
330
764D
102
}
330
764D
100
AcDbVisualStyle
  2
EdgeColorOff
 70
    22
 71
     2
 72
     2
 73
     0
 90
        0
 40
-0.6
 41
-30.0
 62
     5
 63
     7
 74
     1
 91
        4
 64
     7
 65
   257
 75
     1
175
     1
 42
1.0
 92
        8
 66
     7
 43
1.0
 76
     1
 77
     6
 78
     2
 67
     7
 79
     5
170
     0
171
     0
290
     0
174
     0
 93
        1
 44
0.0
173
     0
291
     1
 45
0.0
1001
ACAD
1000
AcDbSavedByObjectVersion
1070
     0
  0
VISUALSTYLE
  5
765C
102
{ACAD_XDICTIONARY
360
7F0E
102
}
102
{ACAD_REACTORS
330
764D
102
}
330
764D
100
AcDbVisualStyle
  2
Facepattern
 70
    15
 71
     2
 72
     2
 73
     0
 90
        0
 40
-0.6
 41
-30.0
 62
     5
 63
     7
 74
     1
 91
        4
 64
     7
 65
   257
 75
     1
175
     1
 42
1.0
 92
        8
 66
     7
 43
1.0
 76
     1
 77
     6
 78
     2
 67
     7
 79
     5
170
     0
171
     0
290
     0
174
     0
 93
        1
 44
0.0
173
     0
291
     1
 45
0.0
1001
ACAD
1000
AcDbSavedByObjectVersion
1070
     0
  0
VISUALSTYLE
  5
764E
102
{ACAD_XDICTIONARY
360
7EF2
102
}
102
{ACAD_REACTORS
330
764D
102
}
330
764D
100
AcDbVisualStyle
  2
Flat
 70
     0
 71
     2
 72
     1
 73
     1
 90
        2
 40
-0.6
 41
30.0
 62
     5
 63
     7
 74
     0
 91
        0
 64
     7
 65
   257
 75
     1
175
     1
 42
1.0
 92
        8
 66
     7
 43
1.0
 76
     1
 77
     6
 78
     2
 67
     7
 79
     5
170
     0
171
     0
290
     0
174
     0
 93
       13
 44
0.0
173
     0
291
     1
 45
0.0
1001
ACAD
1000
AcDbSavedByObjectVersion
1070
     0
  0
VISUALSTYLE
  5
764F
102
{ACAD_XDICTIONARY
360
7EF4
102
}
102
{ACAD_REACTORS
330
764D
102
}
330
764D
100
AcDbVisualStyle
  2
FlatWithEdges
 70
     1
 71
     2
 72
     1
 73
     1
 90
        2
 40
-0.6
 41
30.0
 62
     5
 63
     7
 74
     1
 91
        0
 64
     7
 65
   257
 75
     1
175
     1
 42
1.0
 92
        0
 66
   257
 43
1.0
 76
     1
 77
     6
 78
     2
 67
     7
 79
     5
170
     0
171
     0
290
     0
174
     0
 93
       13
 44
0.0
173
     0
291
     1
 45
0.0
1001
ACAD
1000
AcDbSavedByObjectVersion
1070
     0
  0
VISUALSTYLE
  5
7650
102
{ACAD_XDICTIONARY
360
7EF6
102
}
102
{ACAD_REACTORS
330
764D
102
}
330
764D
100
AcDbVisualStyle
  2
Gouraud
 70
     2
 71
     2
 72
     2
 73
     1
 90
        2
 40
-0.6
 41
30.0
 62
     5
 63
     7
 74
     0
 91
        0
 64
     7
 65
   257
 75
     1
175
     1
 42
1.0
 92
        0
 66
     7
 43
1.0
 76
     1
 77
     6
 78
     2
 67
     7
 79
     5
170
     0
171
     0
290
     0
174
     0
 93
       13
 44
0.0
173
     0
291
     1
 45
0.0
1001
ACAD
1000
AcDbSavedByObjectVersion
1070
     0
  0
VISUALSTYLE
  5
7651
102
{ACAD_XDICTIONARY
360
7EF8
102
}
102
{ACAD_REACTORS
330
764D
102
}
330
764D
100
AcDbVisualStyle
  2
GouraudWithEdges
 70
     3
 71
     2
 72
     2
 73
     1
 90
        2
 40
-0.6
 41
30.0
 62
     5
 63
     7
 74
     1
 91
        0
 64
     7
 65
   257
 75
     1
175
     1
 42
1.0
 92
        0
 66
   257
 43
1.0
 76
     1
 77
     6
 78
     2
 67
     7
 79
     5
170
     0
171
     0
290
     0
174
     0
 93
       13
 44
0.0
173
     0
291
     1
 45
0.0
1001
ACAD
1000
AcDbSavedByObjectVersion
1070
     0
  0
VISUALSTYLE
  5
7655
102
{ACAD_XDICTIONARY
360
7F00
102
}
102
{ACAD_REACTORS
330
764D
102
}
330
764D
100
AcDbVisualStyle
  2
Hidden
 70
     6
 71
     1
 72
     2
 73
     2
 90
        0
 40
-0.6
 41
-30.0
 62
     5
 63
     7
 74
     2
 91
        2
 64
     7
 65
   257
 75
     2
175
     1
 42
40.0
 92
        0
 66
   257
 43
1.0
 76
     1
 77
     6
 78
     2
 67
     7
 79
     3
170
     0
171
     0
290
     0
174
     0
 93
        1
 44
0.0
173
     0
291
     0
 45
0.0
1001
ACAD
1000
AcDbSavedByObjectVersion
1070
     0
  0
VISUALSTYLE
  5
7663
102
{ACAD_XDICTIONARY
360
7F1C
102
}
102
{ACAD_REACTORS
330
764D
102
}
330
764D
100
AcDbVisualStyle
  2
JitterOff
 70
    20
 71
     2
 72
     2
 73
     0
 90
        0
 40
-0.6
 41
-30.0
 62
     5
 63
     7
 74
     1
 91
        4
 64
     7
 65
   257
 75
     1
175
     1
 42
1.0
 92
       10
 66
     7
 43
1.0
 76
     1
 77
     6
 78
     2
 67
     7
 79
     5
170
     0
171
     0
290
     0
174
     0
 93
        1
 44
0.0
173
     0
291
     1
 45
0.0
1001
ACAD
1000
AcDbSavedByObjectVersion
1070
     0
  0
VISUALSTYLE
  5
765B
102
{ACAD_XDICTIONARY
360
7F0C
102
}
102
{ACAD_REACTORS
330
764D
102
}
330
764D
100
AcDbVisualStyle
  2
Linepattern
 70
    14
 71
     2
 72
     2
 73
     0
 90
        0
 40
-0.6
 41
-30.0
 62
     5
 63
     7
 74
     1
 91
        4
 64
     7
 65
   257
 75
     7
175
     7
 42
1.0
 92
        8
 66
     7
 43
1.0
 76
     1
 77
     6
 78
     2
 67
     7
 79
     5
170
     0
171
     0
290
     0
174
     0
 93
        1
 44
0.0
173
     0
291
     1
 45
0.0
1001
ACAD
1000
AcDbSavedByObjectVersion
1070
     0
  0
VISUALSTYLE
  5
7664
102
{ACAD_XDICTIONARY
360
7F1E
102
}
102
{ACAD_REACTORS
330
764D
102
}
330
764D
100
AcDbVisualStyle
  2
OverhangOff
 70
    21
 71
     2
 72
     2
 73
     0
 90
        0
 40
-0.6
 41
-30.0
 62
     5
 63
     7
 74
     1
 91
        4
 64
     7
 65
   257
 75
     1
175
     1
 42
1.0
 92
        9
 66
     7
 43
1.0
 76
     1
 77
     6
 78
     2
 67
     7
 79
     5
170
     0
171
     0
290
     0
174
     0
 93
        1
 44
0.0
173
     0
291
     1
 45
0.0
1001
ACAD
1000
AcDbSavedByObjectVersion
1070
     0
  0
VISUALSTYLE
  5
7657
102
{ACAD_XDICTIONARY
360
7F04
102
}
102
{ACAD_REACTORS
330
764D
102
}
330
764D
100
AcDbVisualStyle
  2
Realistic
 70
     8
 71
     2
 72
     2
 73
     0
 90
        2
 40
-0.6
 41
30.0
 62
     5
 63
     7
 74
     0
 91
        0
 64
     7
 65
   257
 75
     1
175
     1
 42
1.0
 92
        8
 66
   257
 43
1.0
 76
     1
 77
     6
 78
     2
 67
     7
 79
     3
170
     0
171
     0
290
     0
174
     0
 93
       13
 44
0.0
173
     0
291
     0
 45
0.0
1001
ACAD
1000
AcDbSavedByObjectVersion
1070
     0
  0
VISUALSTYLE
  5
7662
102
{ACAD_XDICTIONARY
360
7F1A
102
}
102
{ACAD_REACTORS
330
764D
102
}
330
764D
100
AcDbVisualStyle
  2
Shaded
 70
    27
 71
     2
 72
     2
 73
     1
 90
        2
 40
-0.6
 41
30.0
 62
     5
 63
     7
 74
     0
 91
        4
 64
     7
 65
   257
 75
     1
175
     1
 42
1.0
 92
        8
 66
   257
 43
1.0
 76
     1
 77
     6
 78
     2
 67
     8
 79
     3
170
     0
171
     0
290
     0
174
     0
 93
        5
 44
0.0
173
     0
291
     0
 45
0.0
1001
ACAD
1000
AcDbSavedByObjectVersion
1070
     0
  0
VISUALSTYLE
  5
7661
102
{ACAD_XDICTIONARY
360
7F18
102
}
102
{ACAD_REACTORS
330
764D
102
}
330
764D
100
AcDbVisualStyle
  2
Shaded with edges
 70
    26
 71
     2
 72
     2
 73
     1
 90
        2
 40
-0.6
 41
30.0
 62
     5
 63
     7
 74
     1
 91
       10
 64
     7
 65
   257
 75
     2
175
     1
 42
1.0
 92
        8
 66
   257
 43
1.0
 76
     1
 77
     6
 78
     2
 67
     7
 79
     3
170
     0
171
     0
290
     0
174
     0
 93
        5
 44
0.0
173
     0
291
     0
 45
0.0
1001
ACAD
1000
AcDbSavedByObjectVersion
1070
     0
  0
VISUALSTYLE
  5
765E
102
{ACAD_XDICTIONARY
360
7F12
102
}
102
{ACAD_REACTORS
330
764D
102
}
330
764D
100
AcDbVisualStyle
  2
Shades of Gray
 70
    23
 71
     2
 72
     2
 73
     3
 90
        0
 40
-0.6
 41
-30.0
 62
     5
 63
     7
 74
     2
 91
        2
 64
     7
 65
     7
 75
     1
175
     1
 42
40.0
 92
        8
 66
     7
 43
1.0
 76
     1
 77
     6
 78
     2
 67
     7
 79
     3
170
     0
171
     0
290
     0
174
     0
 93
        1
 44
0.0
173
     0
291
     0
 45
0.0
1001
ACAD
1000
AcDbSavedByObjectVersion
1070
     0
  0
VISUALSTYLE
  5
765F
102
{ACAD_XDICTIONARY
360
7F14
102
}
102
{ACAD_REACTORS
330
764D
102
}
330
764D
100
AcDbVisualStyle
  2
Sketchy
 70
    24
 71
     1
 72
     2
 73
     2
 90
        0
 40
-0.6
 41
-30.0
 62
     5
 63
     7
 74
     2
 91
        2
 64
     7
 65
     7
 75
     1
175
     1
 42
40.0
 92
       11
 66
     7
 43
1.0
 76
     1
 77
     6
 78
     2
 67
     7
 79
     6
170
     0
171
     0
290
     0
174
     0
 93
        1
 44
0.0
173
     0
291
     0
 45
0.0
1001
ACAD
1000
AcDbSavedByObjectVersion
1070
     0
  0
VISUALSTYLE
  5
765A
102
{ACAD_XDICTIONARY
360
7F0A
102
}
102
{ACAD_REACTORS
330
764D
102
}
330
764D
100
AcDbVisualStyle
  2
Thicken
 70
    13
 71
     2
 72
     2
 73
     0
 90
        0
 40
-0.6
 41
-30.0
 62
     5
 63
     7
 74
     1
 91
        4
 64
     7
 65
   257
 75
     1
175
     1
 42
1.0
 92
       12
 66
     7
 43
1.0
 76
     1
 77
     6
 78
     2
 67
     7
 79
     5
170
     0
171
     0
290
     0
174
     0
 93
        1
 44
0.0
173
     0
291
     1
 45
0.0
1001
ACAD
1000
AcDbSavedByObjectVersion
1070
     0
  0
VISUALSTYLE
  5
7654
102
{ACAD_XDICTIONARY
360
7EFE
102
}
102
{ACAD_REACTORS
330
764D
102
}
330
764D
100
AcDbVisualStyle
  2
Wireframe
 70
     5
 71
     0
 72
     2
 73
     0
 90
        0
 40
-0.6
 41
-30.0
 62
     5
 63
     7
 74
     1
 91
        4
 64
     7
 65
   257
 75
     1
175
     1
 42
1.0
 92
        0
 66
   257
 43
1.0
 76
     1
 77
     6
 78
     2
 67
     7
 79
     3
170
     0
171
     0
290
     0
174
     0
 93
        1
 44
0.0
173
     0
291
     0
 45
0.0
1001
ACAD
1000
AcDbSavedByObjectVersion
1070
     0
  0
VISUALSTYLE
  5
7660
102
{ACAD_XDICTIONARY
360
7F16
102
}
102
{ACAD_REACTORS
330
764D
102
}
330
764D
100
AcDbVisualStyle
  2
X-Ray
 70
    25
 71
     2
 72
     2
 73
     1
 90
        1
 40
0.5
 41
-30.0
 62
     5
 63
     7
 74
     1
 91
        0
 64
     7
 65
   257
 75
     1
175
     1
 42
1.0
 92
        8
 66
     7
 43
1.0
 76
     1
 77
     6
 78
     2
 67
     7
 79
     3
170
     0
171
     0
290
     0
174
     0
 93
       13
 44
0.0
173
     0
291
     0
 45
0.0
1001
ACAD
1000
AcDbSavedByObjectVersion
1070
     0
  0
DICTIONARYVAR
  5
76F5
102
{ACAD_REACTORS
330
3E
102
}
330
3E
100
DictionaryVariables
280
     0
  1
1:1
  0
DICTIONARYVAR
  5
76F4
102
{ACAD_REACTORS
330
3E
102
}
330
3E
100
DictionaryVariables
280
     0
  1
STANDARD
  0
DICTIONARYVAR
  5
76F3
102
{ACAD_REACTORS
330
3E
102
}
330
3E
100
DictionaryVariables
280
     0
  1
STANDARD
  0
DICTIONARYVAR
  5
3F
102
{ACAD_REACTORS
330
3E
102
}
330
3E
100
DictionaryVariables
280
     0
  1
0
  0
DICTIONARYVAR
  5
75A3
102
{ACAD_REACTORS
330
3E
102
}
330
3E
100
DictionaryVariables
280
     0
  1
1
  0
DICTIONARYVAR
  5
76F7
102
{ACAD_REACTORS
330
3E
102
}
330
3E
100
DictionaryVariables
280
     0
  1
0
  0
DICTIONARYVAR
  5
7ED9
102
{ACAD_REACTORS
330
3E
102
}
330
3E
100
DictionaryVariables
280
     0
  1
1
  0
DICTIONARYVAR
  5
7EDA
102
{ACAD_REACTORS
330
3E
102
}
330
3E
100
DictionaryVariables
280
     0
  1
15
  0
DICTIONARYVAR
  5
7ED8
102
{ACAD_REACTORS
330
3E
102
}
330
3E
100
DictionaryVariables
280
     0
  1
0
  0
DICTIONARYVAR
  5
7ED7
102
{ACAD_REACTORS
330
3E
102
}
330
3E
100
DictionaryVariables
280
     0
  1
0
  0
DICTIONARYVAR
  5
75A4
102
{ACAD_REACTORS
330
3E
102
}
330
3E
100
DictionaryVariables
280
     0
  1

  0
DICTIONARYVAR
  5
76F6
102
{ACAD_REACTORS
330
3E
102
}
330
3E
100
DictionaryVariables
280
     0
  1
127
  0
DICTIONARYVAR
  5
7EE5
102
{ACAD_REACTORS
330
3E
102
}
330
3E
100
DictionaryVariables
280
     0
  1
2
  0
DICTIONARY
  5
7EED
330
485F
100
AcDbDictionary
280
     1
281
     1
  3
ACAD_XREC_ROUNDTRIP
360
7EEE
  0
DICTIONARY
  5
7EEB
330
485E
100
AcDbDictionary
280
     1
281
     1
  3
ACAD_XREC_ROUNDTRIP
360
7EEC
  0
DICTIONARY
  5
763E
330
763D
100
AcDbDictionary
280
     1
281
     1
  3
ACAD_XREC_ROUNDTRIP
360
7EF0
  3
BUMPTILE
360
7640
  3
DIFFUSETILE
360
763F
  3
OPACITYTILE
360
7643
  3
REFLECTIONTILE
360
7642
  3
REFRACTIONTILE
360
7644
  3
SPECULARTILE
360
7641
  0
DICTIONARY
  5
7636
330
7635
100
AcDbDictionary
280
     1
281
     1
  3
ACAD_XREC_ROUNDTRIP
360
7EEF
  3
BUMPTILE
360
7638
  3
DIFFUSETILE
360
7637
  3
OPACITYTILE
360
763B
  3
REFLECTIONTILE
360
763A
  3
REFRACTIONTILE
360
763C
  3
SPECULARTILE
360
7639
  0
DICTIONARY
  5
7646
330
7645
100
AcDbDictionary
280
     1
281
     1
  3
ACAD_XREC_ROUNDTRIP
360
7EF1
  3
BUMPTILE
360
7648
  3
DIFFUSETILE
360
7647
  3
OPACITYTILE
360
764B
  3
REFLECTIONTILE
360
764A
  3
REFRACTIONTILE
360
764C
  3
SPECULARTILE
360
7649
  0
DICTIONARY
  5
76B4
330
7667
100
AcDbDictionary
280
     1
281
     1
  3
ACAD_ROUNDTRIP_2008_TABLESTYLE_CELLSTYLEMAP
360
7EE6
  3
ACAD_XREC_ROUNDTRIP
360
7F22
  0
DICTIONARY
  5
7EFC
330
7653
100
AcDbDictionary
280
     1
281
     1
  3
ACAD_XREC_ROUNDTRIP
360
7EFD
  0
DICTIONARY
  5
7F23
330
7E7C
100
AcDbDictionary
280
     1
281
     1
  3
ACAD_XREC_ROUNDTRIP
360
7F24
  0
DICTIONARY
  5
7F25
330
7E7D
100
AcDbDictionary
280
     1
281
     1
  3
ACAD_XREC_ROUNDTRIP
360
7F26
  0
DICTIONARY
  5
7EFA
330
7652
100
AcDbDictionary
280
     1
281
     1
  3
ACAD_XREC_ROUNDTRIP
360
7EFB
  0
DICTIONARY
  5
7F08
330
7659
100
AcDbDictionary
280
     1
281
     1
  3
ACAD_XREC_ROUNDTRIP
360
7F09
  0
DICTIONARY
  5
7F10
330
765D
100
AcDbDictionary
280
     1
281
     1
  3
ACAD_XREC_ROUNDTRIP
360
7F11
  0
DICTIONARY
  5
7F02
330
7656
100
AcDbDictionary
280
     1
281
     1
  3
ACAD_XREC_ROUNDTRIP
360
7F03
  0
DICTIONARY
  5
7F06
330
7658
100
AcDbDictionary
280
     1
281
     1
  3
ACAD_XREC_ROUNDTRIP
360
7F07
  0
DICTIONARY
  5
7F20
330
7665
100
AcDbDictionary
280
     1
281
     1
  3
ACAD_XREC_ROUNDTRIP
360
7F21
  0
DICTIONARY
  5
7F0E
330
765C
100
AcDbDictionary
280
     1
281
     1
  3
ACAD_XREC_ROUNDTRIP
360
7F0F
  0
DICTIONARY
  5
7EF2
330
764E
100
AcDbDictionary
280
     1
281
     1
  3
ACAD_XREC_ROUNDTRIP
360
7EF3
  0
DICTIONARY
  5
7EF4
330
764F
100
AcDbDictionary
280
     1
281
     1
  3
ACAD_XREC_ROUNDTRIP
360
7EF5
  0
DICTIONARY
  5
7EF6
330
7650
100
AcDbDictionary
280
     1
281
     1
  3
ACAD_XREC_ROUNDTRIP
360
7EF7
  0
DICTIONARY
  5
7EF8
330
7651
100
AcDbDictionary
280
     1
281
     1
  3
ACAD_XREC_ROUNDTRIP
360
7EF9
  0
DICTIONARY
  5
7F00
330
7655
100
AcDbDictionary
280
     1
281
     1
  3
ACAD_XREC_ROUNDTRIP
360
7F01
  0
DICTIONARY
  5
7F1C
330
7663
100
AcDbDictionary
280
     1
281
     1
  3
ACAD_XREC_ROUNDTRIP
360
7F1D
  0
DICTIONARY
  5
7F0C
330
765B
100
AcDbDictionary
280
     1
281
     1
  3
ACAD_XREC_ROUNDTRIP
360
7F0D
  0
DICTIONARY
  5
7F1E
330
7664
100
AcDbDictionary
280
     1
281
     1
  3
ACAD_XREC_ROUNDTRIP
360
7F1F
  0
DICTIONARY
  5
7F04
330
7657
100
AcDbDictionary
280
     1
281
     1
  3
ACAD_XREC_ROUNDTRIP
360
7F05
  0
DICTIONARY
  5
7F1A
330
7662
100
AcDbDictionary
280
     1
281
     1
  3
ACAD_XREC_ROUNDTRIP
360
7F1B
  0
DICTIONARY
  5
7F18
330
7661
100
AcDbDictionary
280
     1
281
     1
  3
ACAD_XREC_ROUNDTRIP
360
7F19
  0
DICTIONARY
  5
7F12
330
765E
100
AcDbDictionary
280
     1
281
     1
  3
ACAD_XREC_ROUNDTRIP
360
7F13
  0
DICTIONARY
  5
7F14
330
765F
100
AcDbDictionary
280
     1
281
     1
  3
ACAD_XREC_ROUNDTRIP
360
7F15
  0
DICTIONARY
  5
7F0A
330
765A
100
AcDbDictionary
280
     1
281
     1
  3
ACAD_XREC_ROUNDTRIP
360
7F0B
  0
DICTIONARY
  5
7EFE
330
7654
100
AcDbDictionary
280
     1
281
     1
  3
ACAD_XREC_ROUNDTRIP
360
7EFF
  0
DICTIONARY
  5
7F16
330
7660
100
AcDbDictionary
280
     1
281
     1
  3
ACAD_XREC_ROUNDTRIP
360
7F17
  0
XRECORD
  5
7EEE
102
{ACAD_REACTORS
330
7EED
102
}
330
7EED
100
AcDbXrecord
280
     1
102
SHADEPLOT
 70
     0
102
SHADEPLOTRESLEVEL
 70
     2
102
SHADEPLOTCUSTOMDPI
 70
   300
  0
XRECORD
  5
7EEC
102
{ACAD_REACTORS
330
7EEB
102
}
330
7EEB
100
AcDbXrecord
280
     1
102
SHADEPLOT
 70
     0
102
SHADEPLOTRESLEVEL
 70
     2
102
SHADEPLOTCUSTOMDPI
 70
   300
  0
XRECORD
  5
7EF0
102
{ACAD_REACTORS
330
763E
102
}
330
763E
100
AcDbXrecord
280
     1
102
MATERIAL
148
0.0
149
0.0
149
0.0
 93
        0
 94
      127
282
     0
 72
     0
 77
     0
171
     0
175
     0
179
     0
273
     0
  0
XRECORD
  5
7640
102
{ACAD_REACTORS
330
763E
102
}
330
763E
100
AcDbXrecord
280
     1
270
     1
271
     1
  0
XRECORD
  5
763F
102
{ACAD_REACTORS
330
763E
102
}
330
763E
100
AcDbXrecord
280
     1
270
     1
271
     1
  0
XRECORD
  5
7643
102
{ACAD_REACTORS
330
763E
102
}
330
763E
100
AcDbXrecord
280
     1
270
     1
271
     1
  0
XRECORD
  5
7642
102
{ACAD_REACTORS
330
763E
102
}
330
763E
100
AcDbXrecord
280
     1
270
     1
271
     1
  0
XRECORD
  5
7644
102
{ACAD_REACTORS
330
763E
102
}
330
763E
100
AcDbXrecord
280
     1
270
     1
271
     1
  0
XRECORD
  5
7641
102
{ACAD_REACTORS
330
763E
102
}
330
763E
100
AcDbXrecord
280
     1
270
     1
271
     1
  0
XRECORD
  5
7EEF
102
{ACAD_REACTORS
330
7636
102
}
330
7636
100
AcDbXrecord
280
     1
102
MATERIAL
148
0.0
149
0.0
149
0.0
 93
        0
 94
      127
282
     0
 72
     0
 77
     0
171
     0
175
     0
179
     0
273
     0
  0
XRECORD
  5
7638
102
{ACAD_REACTORS
330
7636
102
}
330
7636
100
AcDbXrecord
280
     1
270
     1
271
     1
  0
XRECORD
  5
7637
102
{ACAD_REACTORS
330
7636
102
}
330
7636
100
AcDbXrecord
280
     1
270
     1
271
     1
  0
XRECORD
  5
763B
102
{ACAD_REACTORS
330
7636
102
}
330
7636
100
AcDbXrecord
280
     1
270
     1
271
     1
  0
XRECORD
  5
763A
102
{ACAD_REACTORS
330
7636
102
}
330
7636
100
AcDbXrecord
280
     1
270
     1
271
     1
  0
XRECORD
  5
763C
102
{ACAD_REACTORS
330
7636
102
}
330
7636
100
AcDbXrecord
280
     1
270
     1
271
     1
  0
XRECORD
  5
7639
102
{ACAD_REACTORS
330
7636
102
}
330
7636
100
AcDbXrecord
280
     1
270
     1
271
     1
  0
XRECORD
  5
7EF1
102
{ACAD_REACTORS
330
7646
102
}
330
7646
100
AcDbXrecord
280
     1
102
MATERIAL
148
0.0
149
0.0
149
0.0
 93
        0
 94
      127
282
     0
 72
     0
 77
     0
171
     0
175
     0
179
     0
273
     0
  0
XRECORD
  5
7648
102
{ACAD_REACTORS
330
7646
102
}
330
7646
100
AcDbXrecord
280
     1
270
     1
271
     1
  0
XRECORD
  5
7647
102
{ACAD_REACTORS
330
7646
102
}
330
7646
100
AcDbXrecord
280
     1
270
     1
271
     1
  0
XRECORD
  5
764B
102
{ACAD_REACTORS
330
7646
102
}
330
7646
100
AcDbXrecord
280
     1
270
     1
271
     1
  0
XRECORD
  5
764A
102
{ACAD_REACTORS
330
7646
102
}
330
7646
100
AcDbXrecord
280
     1
270
     1
271
     1
  0
XRECORD
  5
764C
102
{ACAD_REACTORS
330
7646
102
}
330
7646
100
AcDbXrecord
280
     1
270
     1
271
     1
  0
XRECORD
  5
7649
102
{ACAD_REACTORS
330
7646
102
}
330
7646
100
AcDbXrecord
280
     1
270
     1
271
     1
  0
CELLSTYLEMAP
  5
7EE6
102
{ACAD_REACTORS
330
76B4
102
}
330
76B4
100
AcDbCellStyleMap
 90
        3
300
CELLSTYLE
  1
TABLEFORMAT_BEGIN
 90
        5
170
     1
 91
        0
 92
    32768
 62
   257
 93
        1
300
CONTENTFORMAT
  1
CONTENTFORMAT_BEGIN
 90
        0
 91
        0
 92
      512
 93
        0
300

 40
0.0
140
1.0
 94
        5
 62
     0
340
F
144
0.25
309
CONTENTFORMAT_END
171
     0
 94
        0
309
TABLEFORMAT_END
  1
CELLSTYLE_BEGIN
 90
        1
 91
        1
300
_TITLE
309
CELLSTYLE_END
300
CELLSTYLE
  1
TABLEFORMAT_BEGIN
 90
        5
170
     1
 91
        0
 92
        0
 62
   257
 93
        1
300
CONTENTFORMAT
  1
CONTENTFORMAT_BEGIN
 90
        0
 91
        0
 92
      512
 93
        0
300

 40
0.0
140
1.0
 94
        5
 62
     0
340
F
144
0.18
309
CONTENTFORMAT_END
171
     0
 94
        0
309
TABLEFORMAT_END
  1
CELLSTYLE_BEGIN
 90
        2
 91
        1
300
_HEADER
309
CELLSTYLE_END
300
CELLSTYLE
  1
TABLEFORMAT_BEGIN
 90
        5
170
     1
 91
        0
 92
        0
 62
   257
 93
        1
300
CONTENTFORMAT
  1
CONTENTFORMAT_BEGIN
 90
        0
 91
        0
 92
      512
 93
        0
300

 40
0.0
140
1.0
 94
        2
 62
     0
340
F
144
0.18
309
CONTENTFORMAT_END
171
     0
 94
        0
309
TABLEFORMAT_END
  1
CELLSTYLE_BEGIN
 90
        3
 91
        2
300
_DATA
309
CELLSTYLE_END
  0
XRECORD
  5
7F22
102
{ACAD_REACTORS
330
76B4
102
}
330
76B4
100
AcDbXrecord
280
     1
102
ACAD_ROUNDTRIP_PRE2007_TABLESTYLE
 90
      512
 91
        0
  1

 92
      512
 93
        0
  2

 94
      512
 95
        0
  3

  0
XRECORD
  5
7EFD
102
{ACAD_REACTORS
330
7EFC
102
}
330
7EFC
100
AcDbXrecord
280
     1
102
RTVSPropertyOp0
 70
     1
102
RTVSPropertyOp1
 70
     1
102
RTVSPropertyOp2
 70
     1
102
RTVSPropertyOp3
 70
     1
102
RTVSPropertyOp4
 70
     1
102
RTVSPropertyOp5
 70
     1
102
RTVSPropertyOp6
 70
     1
102
RTVSPropertyOp7
 70
     1
102
RTVSPropertyOp8
 70
     1
102
RTVSPropertyOp9
 70
     1
102
RTVSPropertyOp10
 70
     1
102
RTVSPropertyOp11
 70
     1
102
RTVSPropertyOp12
 70
     1
102
RTVSPropertyOp13
 70
     1
102
RTVSPropertyOp14
 70
     1
102
RTVSPropertyOp15
 70
     1
102
RTVSPropertyOp16
 70
     1
102
RTVSPropertyOp17
 70
     1
102
RTVSPropertyOp18
 70
     1
102
RTVSPropertyOp19
 70
     1
102
RTVSPropertyOp20
 70
     1
102
RTVSPropertyOp21
 70
     1
102
RTVSPropertyOp22
 70
     1
102
RTVSPropertyOp23
 70
     1
102
RTVSPropertyOp24
 70
     1
102
RTVSPropertyOp25
 70
     1
102
RTVSPropertyOp26
 70
     1
102
RTVSPropertyOp27
 70
     1
102
RTVSPropertyOp28
 70
     1
102
RTVSPropertyOp29
 70
     1
102
RTVSPropertyOp30
 70
     1
102
RTVSPropertyOp31
 70
     1
102
RTVSPropertyOp32
 70
     1
  0
XRECORD
  5
7F24
102
{ACAD_REACTORS
330
7F23
102
}
330
7F23
100
AcDbXrecord
280
     1
102
RTVSPropertyOp0
 70
     1
102
RTVSPropertyOp1
 70
     1
102
RTVSPropertyOp2
 70
     1
102
RTVSPropertyOp3
 70
     1
102
RTVSPropertyOp4
 70
     1
102
RTVSPropertyOp5
 70
     1
102
RTVSPropertyOp6
 70
     1
102
RTVSPropertyOp7
 70
     1
102
RTVSPropertyOp8
 70
     1
102
RTVSPropertyOp9
 70
     1
102
RTVSPropertyOp10
 70
     1
102
RTVSPropertyOp11
 70
     1
102
RTVSPropertyOp12
 70
     1
102
RTVSPropertyOp13
 70
     1
102
RTVSPropertyOp14
 70
     1
102
RTVSPropertyOp15
 70
     1
102
RTVSPropertyOp16
 70
     1
102
RTVSPropertyOp17
 70
     1
102
RTVSPropertyOp18
 70
     1
102
RTVSPropertyOp19
 70
     1
102
RTVSPropertyOp20
 70
     1
102
RTVSPropertyOp21
 70
     1
102
RTVSPropertyOp22
 70
     1
102
RTVSPropertyOp23
 70
     1
102
RTVSPropertyOp24
 70
     1
102
RTVSPropertyOp25
 70
     1
102
RTVSPropertyOp26
 70
     1
102
RTVSPropertyOp27
 70
     1
102
RTVSPropertyOp28
 70
     1
102
RTVSPropertyOp29
 70
     1
102
RTVSPropertyOp30
 70
     1
102
RTVSPropertyOp31
 70
     1
102
RTVSPropertyOp32
 70
     1
  0
XRECORD
  5
7F26
102
{ACAD_REACTORS
330
7F25
102
}
330
7F25
100
AcDbXrecord
280
     1
102
RTVSPropertyOp0
 70
     1
102
RTVSPropertyOp1
 70
     1
102
RTVSPropertyOp2
 70
     1
102
RTVSPropertyOp3
 70
     1
102
RTVSPropertyOp4
 70
     1
102
RTVSPropertyOp5
 70
     1
102
RTVSPropertyOp6
 70
     1
102
RTVSPropertyOp7
 70
     1
102
RTVSPropertyOp8
 70
     1
102
RTVSPropertyOp9
 70
     1
102
RTVSPropertyOp10
 70
     1
102
RTVSPropertyOp11
 70
     1
102
RTVSPropertyOp12
 70
     1
102
RTVSPropertyOp13
 70
     1
102
RTVSPropertyOp14
 70
     1
102
RTVSPropertyOp15
 70
     1
102
RTVSPropertyOp16
 70
     1
102
RTVSPropertyOp17
 70
     1
102
RTVSPropertyOp18
 70
     1
102
RTVSPropertyOp19
 70
     1
102
RTVSPropertyOp20
 70
     1
102
RTVSPropertyOp21
 70
     1
102
RTVSPropertyOp22
 70
     1
102
RTVSPropertyOp23
 70
     1
102
RTVSPropertyOp24
 70
     1
102
RTVSPropertyOp25
 70
     1
102
RTVSPropertyOp26
 70
     1
102
RTVSPropertyOp27
 70
     1
102
RTVSPropertyOp28
 70
     1
102
RTVSPropertyOp29
 70
     1
102
RTVSPropertyOp30
 70
     1
102
RTVSPropertyOp31
 70
     1
102
RTVSPropertyOp32
 70
     1
  0
XRECORD
  5
7EFB
102
{ACAD_REACTORS
330
7EFA
102
}
330
7EFA
100
AcDbXrecord
280
     1
102
RTVSPropertyOp0
 70
     1
102
RTVSPropertyOp1
 70
     1
102
RTVSPropertyOp2
 70
     1
102
RTVSPropertyOp3
 70
     1
102
RTVSPropertyOp4
 70
     1
102
RTVSPropertyOp5
 70
     1
102
RTVSPropertyOp6
 70
     1
102
RTVSPropertyOp7
 70
     1
102
RTVSPropertyOp8
 70
     1
102
RTVSPropertyOp9
 70
     1
102
RTVSPropertyOp10
 70
     1
102
RTVSPropertyOp11
 70
     1
102
RTVSPropertyOp12
 70
     1
102
RTVSPropertyOp13
 70
     1
102
RTVSPropertyOp14
 70
     1
102
RTVSPropertyOp15
 70
     1
102
RTVSPropertyOp16
 70
     1
102
RTVSPropertyOp17
 70
     1
102
RTVSPropertyOp18
 70
     1
102
RTVSPropertyOp19
 70
     1
102
RTVSPropertyOp20
 70
     1
102
RTVSPropertyOp21
 70
     1
102
RTVSPropertyOp22
 70
     1
102
RTVSPropertyOp23
 70
     1
102
RTVSPropertyOp24
 70
     1
102
RTVSPropertyOp25
 70
     1
102
RTVSPropertyOp26
 70
     1
102
RTVSPropertyOp27
 70
     1
102
RTVSPropertyOp28
 70
     1
102
RTVSPropertyOp29
 70
     1
102
RTVSPropertyOp30
 70
     1
102
RTVSPropertyOp31
 70
     1
102
RTVSPropertyOp32
 70
     1
  0
XRECORD
  5
7F09
102
{ACAD_REACTORS
330
7F08
102
}
330
7F08
100
AcDbXrecord
280
     1
102
RTVSPropertyOp0
 70
     1
102
RTVSPropertyOp1
 70
     1
102
RTVSPropertyOp2
 70
     1
102
RTVSPropertyOp3
 70
     1
102
RTVSPropertyOp4
 70
     1
102
RTVSPropertyOp5
 70
     1
102
RTVSPropertyOp6
 70
     1
102
RTVSPropertyOp7
 70
     1
102
RTVSPropertyOp8
 70
     1
102
RTVSPropertyOp9
 70
     1
102
RTVSPropertyOp10
 70
     1
102
RTVSPropertyOp11
 70
     1
102
RTVSPropertyOp12
 70
     1
102
RTVSPropertyOp13
 70
     1
102
RTVSPropertyOp14
 70
     1
102
RTVSPropertyOp15
 70
     1
102
RTVSPropertyOp16
 70
     1
102
RTVSPropertyOp17
 70
     1
102
RTVSPropertyOp18
 70
     1
102
RTVSPropertyOp19
 70
     1
102
RTVSPropertyOp20
 70
     1
102
RTVSPropertyOp21
 70
     1
102
RTVSPropertyOp22
 70
     1
102
RTVSPropertyOp23
 70
     1
102
RTVSPropertyOp24
 70
     1
102
RTVSPropertyOp25
 70
     1
102
RTVSPropertyOp26
 70
     1
102
RTVSPropertyOp27
 70
     1
102
RTVSPropertyOp28
 70
     1
102
RTVSPropertyOp29
 70
     1
102
RTVSPropertyOp30
 70
     1
102
RTVSPropertyOp31
 70
     1
102
RTVSPropertyOp32
 70
     1
  0
XRECORD
  5
7F11
102
{ACAD_REACTORS
330
7F10
102
}
330
7F10
100
AcDbXrecord
280
     1
102
RTVSPropertyOp0
 70
     1
102
RTVSPropertyOp1
 70
     1
102
RTVSPropertyOp2
 70
     1
102
RTVSPropertyOp3
 70
     1
102
RTVSPropertyOp4
 70
     1
102
RTVSPropertyOp5
 70
     1
102
RTVSPropertyOp6
 70
     1
102
RTVSPropertyOp7
 70
     1
102
RTVSPropertyOp8
 70
     1
102
RTVSPropertyOp9
 70
     1
102
RTVSPropertyOp10
 70
     1
102
RTVSPropertyOp11
 70
     1
102
RTVSPropertyOp12
 70
     1
102
RTVSPropertyOp13
 70
     1
102
RTVSPropertyOp14
 70
     1
102
RTVSPropertyOp15
 70
     1
102
RTVSPropertyOp16
 70
     1
102
RTVSPropertyOp17
 70
     1
102
RTVSPropertyOp18
 70
     1
102
RTVSPropertyOp19
 70
     1
102
RTVSPropertyOp20
 70
     1
102
RTVSPropertyOp21
 70
     1
102
RTVSPropertyOp22
 70
     1
102
RTVSPropertyOp23
 70
     1
102
RTVSPropertyOp24
 70
     1
102
RTVSPropertyOp25
 70
     1
102
RTVSPropertyOp26
 70
     1
102
RTVSPropertyOp27
 70
     1
102
RTVSPropertyOp28
 70
     1
102
RTVSPropertyOp29
 70
     1
102
RTVSPropertyOp30
 70
     1
102
RTVSPropertyOp31
 70
     1
102
RTVSPropertyOp32
 70
     1
  0
XRECORD
  5
7F03
102
{ACAD_REACTORS
330
7F02
102
}
330
7F02
100
AcDbXrecord
280
     1
102
RTVSPropertyOp0
 70
     1
102
RTVSPropertyOp1
 70
     1
102
RTVSPropertyOp2
 70
     1
102
RTVSPropertyOp3
 70
     1
102
RTVSPropertyOp4
 70
     1
102
RTVSPropertyOp5
 70
     1
102
RTVSPropertyOp6
 70
     1
102
RTVSPropertyOp7
 70
     1
102
RTVSPropertyOp8
 70
     1
102
RTVSPropertyOp9
 70
     1
102
RTVSPropertyOp10
 70
     1
102
RTVSPropertyOp11
 70
     1
102
RTVSPropertyOp12
 70
     1
102
RTVSPropertyOp13
 70
     1
102
RTVSPropertyOp14
 70
     1
102
RTVSPropertyOp15
 70
     1
102
RTVSPropertyOp16
 70
     1
102
RTVSPropertyOp17
 70
     1
102
RTVSPropertyOp18
 70
     1
102
RTVSPropertyOp19
 70
     1
102
RTVSPropertyOp20
 70
     1
102
RTVSPropertyOp21
 70
     1
102
RTVSPropertyOp22
 70
     1
102
RTVSPropertyOp23
 70
     1
102
RTVSPropertyOp24
 70
     1
102
RTVSPropertyOp25
 70
     1
102
RTVSPropertyOp26
 70
     1
102
RTVSPropertyOp27
 70
     1
102
RTVSPropertyOp28
 70
     1
102
RTVSPropertyOp29
 70
     1
102
RTVSPropertyOp30
 70
     1
102
RTVSPropertyOp31
 70
     1
102
RTVSPropertyOp32
 70
     1
  0
XRECORD
  5
7F07
102
{ACAD_REACTORS
330
7F06
102
}
330
7F06
100
AcDbXrecord
280
     1
102
RTVSPropertyOp0
 70
     1
102
RTVSPropertyOp1
 70
     1
102
RTVSPropertyOp2
 70
     1
102
RTVSPropertyOp3
 70
     1
102
RTVSPropertyOp4
 70
     1
102
RTVSPropertyOp5
 70
     1
102
RTVSPropertyOp6
 70
     1
102
RTVSPropertyOp7
 70
     1
102
RTVSPropertyOp8
 70
     1
102
RTVSPropertyOp9
 70
     1
102
RTVSPropertyOp10
 70
     1
102
RTVSPropertyOp11
 70
     1
102
RTVSPropertyOp12
 70
     1
102
RTVSPropertyOp13
 70
     1
102
RTVSPropertyOp14
 70
     1
102
RTVSPropertyOp15
 70
     1
102
RTVSPropertyOp16
 70
     1
102
RTVSPropertyOp17
 70
     1
102
RTVSPropertyOp18
 70
     1
102
RTVSPropertyOp19
 70
     1
102
RTVSPropertyOp20
 70
     1
102
RTVSPropertyOp21
 70
     1
102
RTVSPropertyOp22
 70
     1
102
RTVSPropertyOp23
 70
     1
102
RTVSPropertyOp24
 70
     1
102
RTVSPropertyOp25
 70
     1
102
RTVSPropertyOp26
 70
     1
102
RTVSPropertyOp27
 70
     1
102
RTVSPropertyOp28
 70
     1
102
RTVSPropertyOp29
 70
     1
102
RTVSPropertyOp30
 70
     1
102
RTVSPropertyOp31
 70
     1
102
RTVSPropertyOp32
 70
     1
  0
XRECORD
  5
7F21
102
{ACAD_REACTORS
330
7F20
102
}
330
7F20
100
AcDbXrecord
280
     1
102
RTVSPropertyOp0
 70
     0
102
RTVSPropertyOp1
 70
     0
102
RTVSPropertyOp2
 70
     0
102
RTVSPropertyOp3
 70
     0
102
RTVSPropertyOp4
 70
     0
102
RTVSPropertyOp5
 70
     0
102
RTVSPropertyOp6
 70
     0
102
RTVSPropertyOp7
 70
     0
102
RTVSPropertyOp8
 70
     0
102
RTVSPropertyOp9
 70
     0
102
RTVSPropertyOp10
 70
     0
102
RTVSPropertyOp11
 70
     0
102
RTVSPropertyOp12
 70
     0
102
RTVSPropertyOp13
 70
     0
102
RTVSPropertyOp14
 70
     2
102
RTVSPropertyOp15
 70
     0
102
RTVSPropertyOp16
 70
     0
102
RTVSPropertyOp17
 70
     0
102
RTVSPropertyOp18
 70
     0
102
RTVSPropertyOp19
 70
     0
102
RTVSPropertyOp20
 70
     0
102
RTVSPropertyOp21
 70
     0
102
RTVSPropertyOp22
 70
     0
102
RTVSPropertyOp23
 70
     0
102
RTVSPropertyOp24
 70
     0
102
RTVSPropertyOp25
 70
     0
102
RTVSPropertyOp26
 70
     0
102
RTVSPropertyOp27
 70
     0
102
RTVSPropertyOp28
 70
     1
102
RTVSPropertyOp29
 70
     1
102
RTVSPropertyOp30
 70
     1
102
RTVSPropertyOp31
 70
     1
102
RTVSPropertyOp32
 70
     1
  0
XRECORD
  5
7F0F
102
{ACAD_REACTORS
330
7F0E
102
}
330
7F0E
100
AcDbXrecord
280
     1
102
RTVSPropertyOp0
 70
     1
102
RTVSPropertyOp1
 70
     1
102
RTVSPropertyOp2
 70
     1
102
RTVSPropertyOp3
 70
     1
102
RTVSPropertyOp4
 70
     1
102
RTVSPropertyOp5
 70
     1
102
RTVSPropertyOp6
 70
     1
102
RTVSPropertyOp7
 70
     1
102
RTVSPropertyOp8
 70
     1
102
RTVSPropertyOp9
 70
     1
102
RTVSPropertyOp10
 70
     1
102
RTVSPropertyOp11
 70
     1
102
RTVSPropertyOp12
 70
     1
102
RTVSPropertyOp13
 70
     1
102
RTVSPropertyOp14
 70
     1
102
RTVSPropertyOp15
 70
     1
102
RTVSPropertyOp16
 70
     1
102
RTVSPropertyOp17
 70
     1
102
RTVSPropertyOp18
 70
     1
102
RTVSPropertyOp19
 70
     1
102
RTVSPropertyOp20
 70
     1
102
RTVSPropertyOp21
 70
     1
102
RTVSPropertyOp22
 70
     1
102
RTVSPropertyOp23
 70
     1
102
RTVSPropertyOp24
 70
     1
102
RTVSPropertyOp25
 70
     1
102
RTVSPropertyOp26
 70
     1
102
RTVSPropertyOp27
 70
     1
102
RTVSPropertyOp28
 70
     1
102
RTVSPropertyOp29
 70
     1
102
RTVSPropertyOp30
 70
     1
102
RTVSPropertyOp31
 70
     1
102
RTVSPropertyOp32
 70
     1
  0
XRECORD
  5
7EF3
102
{ACAD_REACTORS
330
7EF2
102
}
330
7EF2
100
AcDbXrecord
280
     1
102
RTVSPropertyOp0
 70
     1
102
RTVSPropertyOp1
 70
     1
102
RTVSPropertyOp2
 70
     1
102
RTVSPropertyOp3
 70
     1
102
RTVSPropertyOp4
 70
     1
102
RTVSPropertyOp5
 70
     1
102
RTVSPropertyOp6
 70
     1
102
RTVSPropertyOp7
 70
     1
102
RTVSPropertyOp8
 70
     1
102
RTVSPropertyOp9
 70
     1
102
RTVSPropertyOp10
 70
     1
102
RTVSPropertyOp11
 70
     1
102
RTVSPropertyOp12
 70
     1
102
RTVSPropertyOp13
 70
     1
102
RTVSPropertyOp14
 70
     1
102
RTVSPropertyOp15
 70
     1
102
RTVSPropertyOp16
 70
     1
102
RTVSPropertyOp17
 70
     1
102
RTVSPropertyOp18
 70
     1
102
RTVSPropertyOp19
 70
     1
102
RTVSPropertyOp20
 70
     1
102
RTVSPropertyOp21
 70
     1
102
RTVSPropertyOp22
 70
     1
102
RTVSPropertyOp23
 70
     1
102
RTVSPropertyOp24
 70
     1
102
RTVSPropertyOp25
 70
     1
102
RTVSPropertyOp26
 70
     1
102
RTVSPropertyOp27
 70
     1
102
RTVSPropertyOp28
 70
     1
102
RTVSPropertyOp29
 70
     1
102
RTVSPropertyOp30
 70
     1
102
RTVSPropertyOp31
 70
     1
102
RTVSPropertyOp32
 70
     1
  0
XRECORD
  5
7EF5
102
{ACAD_REACTORS
330
7EF4
102
}
330
7EF4
100
AcDbXrecord
280
     1
102
RTVSPropertyOp0
 70
     1
102
RTVSPropertyOp1
 70
     1
102
RTVSPropertyOp2
 70
     1
102
RTVSPropertyOp3
 70
     1
102
RTVSPropertyOp4
 70
     1
102
RTVSPropertyOp5
 70
     1
102
RTVSPropertyOp6
 70
     1
102
RTVSPropertyOp7
 70
     1
102
RTVSPropertyOp8
 70
     1
102
RTVSPropertyOp9
 70
     1
102
RTVSPropertyOp10
 70
     1
102
RTVSPropertyOp11
 70
     1
102
RTVSPropertyOp12
 70
     1
102
RTVSPropertyOp13
 70
     1
102
RTVSPropertyOp14
 70
     1
102
RTVSPropertyOp15
 70
     1
102
RTVSPropertyOp16
 70
     1
102
RTVSPropertyOp17
 70
     1
102
RTVSPropertyOp18
 70
     1
102
RTVSPropertyOp19
 70
     1
102
RTVSPropertyOp20
 70
     1
102
RTVSPropertyOp21
 70
     1
102
RTVSPropertyOp22
 70
     1
102
RTVSPropertyOp23
 70
     1
102
RTVSPropertyOp24
 70
     1
102
RTVSPropertyOp25
 70
     1
102
RTVSPropertyOp26
 70
     1
102
RTVSPropertyOp27
 70
     1
102
RTVSPropertyOp28
 70
     1
102
RTVSPropertyOp29
 70
     1
102
RTVSPropertyOp30
 70
     1
102
RTVSPropertyOp31
 70
     1
102
RTVSPropertyOp32
 70
     1
  0
XRECORD
  5
7EF7
102
{ACAD_REACTORS
330
7EF6
102
}
330
7EF6
100
AcDbXrecord
280
     1
102
RTVSPropertyOp0
 70
     1
102
RTVSPropertyOp1
 70
     1
102
RTVSPropertyOp2
 70
     1
102
RTVSPropertyOp3
 70
     1
102
RTVSPropertyOp4
 70
     1
102
RTVSPropertyOp5
 70
     1
102
RTVSPropertyOp6
 70
     1
102
RTVSPropertyOp7
 70
     1
102
RTVSPropertyOp8
 70
     1
102
RTVSPropertyOp9
 70
     1
102
RTVSPropertyOp10
 70
     1
102
RTVSPropertyOp11
 70
     1
102
RTVSPropertyOp12
 70
     1
102
RTVSPropertyOp13
 70
     1
102
RTVSPropertyOp14
 70
     1
102
RTVSPropertyOp15
 70
     1
102
RTVSPropertyOp16
 70
     1
102
RTVSPropertyOp17
 70
     1
102
RTVSPropertyOp18
 70
     1
102
RTVSPropertyOp19
 70
     1
102
RTVSPropertyOp20
 70
     1
102
RTVSPropertyOp21
 70
     1
102
RTVSPropertyOp22
 70
     1
102
RTVSPropertyOp23
 70
     1
102
RTVSPropertyOp24
 70
     1
102
RTVSPropertyOp25
 70
     1
102
RTVSPropertyOp26
 70
     1
102
RTVSPropertyOp27
 70
     1
102
RTVSPropertyOp28
 70
     1
102
RTVSPropertyOp29
 70
     1
102
RTVSPropertyOp30
 70
     1
102
RTVSPropertyOp31
 70
     1
102
RTVSPropertyOp32
 70
     1
  0
XRECORD
  5
7EF9
102
{ACAD_REACTORS
330
7EF8
102
}
330
7EF8
100
AcDbXrecord
280
     1
102
RTVSPropertyOp0
 70
     1
102
RTVSPropertyOp1
 70
     1
102
RTVSPropertyOp2
 70
     1
102
RTVSPropertyOp3
 70
     1
102
RTVSPropertyOp4
 70
     1
102
RTVSPropertyOp5
 70
     1
102
RTVSPropertyOp6
 70
     1
102
RTVSPropertyOp7
 70
     1
102
RTVSPropertyOp8
 70
     1
102
RTVSPropertyOp9
 70
     1
102
RTVSPropertyOp10
 70
     1
102
RTVSPropertyOp11
 70
     1
102
RTVSPropertyOp12
 70
     1
102
RTVSPropertyOp13
 70
     1
102
RTVSPropertyOp14
 70
     1
102
RTVSPropertyOp15
 70
     1
102
RTVSPropertyOp16
 70
     1
102
RTVSPropertyOp17
 70
     1
102
RTVSPropertyOp18
 70
     1
102
RTVSPropertyOp19
 70
     1
102
RTVSPropertyOp20
 70
     1
102
RTVSPropertyOp21
 70
     1
102
RTVSPropertyOp22
 70
     1
102
RTVSPropertyOp23
 70
     1
102
RTVSPropertyOp24
 70
     1
102
RTVSPropertyOp25
 70
     1
102
RTVSPropertyOp26
 70
     1
102
RTVSPropertyOp27
 70
     1
102
RTVSPropertyOp28
 70
     1
102
RTVSPropertyOp29
 70
     1
102
RTVSPropertyOp30
 70
     1
102
RTVSPropertyOp31
 70
     1
102
RTVSPropertyOp32
 70
     1
  0
XRECORD
  5
7F01
102
{ACAD_REACTORS
330
7F00
102
}
330
7F00
100
AcDbXrecord
280
     1
102
RTVSPropertyOp0
 70
     1
102
RTVSPropertyOp1
 70
     1
102
RTVSPropertyOp2
 70
     1
102
RTVSPropertyOp3
 70
     1
102
RTVSPropertyOp4
 70
     1
102
RTVSPropertyOp5
 70
     1
102
RTVSPropertyOp6
 70
     1
102
RTVSPropertyOp7
 70
     1
102
RTVSPropertyOp8
 70
     1
102
RTVSPropertyOp9
 70
     1
102
RTVSPropertyOp10
 70
     1
102
RTVSPropertyOp11
 70
     1
102
RTVSPropertyOp12
 70
     1
102
RTVSPropertyOp13
 70
     1
102
RTVSPropertyOp14
 70
     1
102
RTVSPropertyOp15
 70
     1
102
RTVSPropertyOp16
 70
     1
102
RTVSPropertyOp17
 70
     1
102
RTVSPropertyOp18
 70
     1
102
RTVSPropertyOp19
 70
     1
102
RTVSPropertyOp20
 70
     1
102
RTVSPropertyOp21
 70
     1
102
RTVSPropertyOp22
 70
     1
102
RTVSPropertyOp23
 70
     1
102
RTVSPropertyOp24
 70
     1
102
RTVSPropertyOp25
 70
     1
102
RTVSPropertyOp26
 70
     1
102
RTVSPropertyOp27
 70
     1
102
RTVSPropertyOp28
 70
     1
102
RTVSPropertyOp29
 70
     1
102
RTVSPropertyOp30
 70
     1
102
RTVSPropertyOp31
 70
     1
102
RTVSPropertyOp32
 70
     1
  0
XRECORD
  5
7F1D
102
{ACAD_REACTORS
330
7F1C
102
}
330
7F1C
100
AcDbXrecord
280
     1
102
RTVSPropertyOp0
 70
     0
102
RTVSPropertyOp1
 70
     0
102
RTVSPropertyOp2
 70
     0
102
RTVSPropertyOp3
 70
     0
102
RTVSPropertyOp4
 70
     0
102
RTVSPropertyOp5
 70
     0
102
RTVSPropertyOp6
 70
     0
102
RTVSPropertyOp7
 70
     0
102
RTVSPropertyOp8
 70
     0
102
RTVSPropertyOp9
 70
     0
102
RTVSPropertyOp10
 70
     0
102
RTVSPropertyOp11
 70
     0
102
RTVSPropertyOp12
 70
     0
102
RTVSPropertyOp13
 70
     0
102
RTVSPropertyOp14
 70
     2
102
RTVSPropertyOp15
 70
     0
102
RTVSPropertyOp16
 70
     0
102
RTVSPropertyOp17
 70
     0
102
RTVSPropertyOp18
 70
     0
102
RTVSPropertyOp19
 70
     0
102
RTVSPropertyOp20
 70
     0
102
RTVSPropertyOp21
 70
     0
102
RTVSPropertyOp22
 70
     0
102
RTVSPropertyOp23
 70
     0
102
RTVSPropertyOp24
 70
     0
102
RTVSPropertyOp25
 70
     0
102
RTVSPropertyOp26
 70
     0
102
RTVSPropertyOp27
 70
     0
102
RTVSPropertyOp28
 70
     1
102
RTVSPropertyOp29
 70
     1
102
RTVSPropertyOp30
 70
     1
102
RTVSPropertyOp31
 70
     1
102
RTVSPropertyOp32
 70
     1
  0
XRECORD
  5
7F0D
102
{ACAD_REACTORS
330
7F0C
102
}
330
7F0C
100
AcDbXrecord
280
     1
102
RTVSPropertyOp0
 70
     1
102
RTVSPropertyOp1
 70
     1
102
RTVSPropertyOp2
 70
     1
102
RTVSPropertyOp3
 70
     1
102
RTVSPropertyOp4
 70
     1
102
RTVSPropertyOp5
 70
     1
102
RTVSPropertyOp6
 70
     1
102
RTVSPropertyOp7
 70
     1
102
RTVSPropertyOp8
 70
     1
102
RTVSPropertyOp9
 70
     1
102
RTVSPropertyOp10
 70
     1
102
RTVSPropertyOp11
 70
     1
102
RTVSPropertyOp12
 70
     1
102
RTVSPropertyOp13
 70
     1
102
RTVSPropertyOp14
 70
     1
102
RTVSPropertyOp15
 70
     1
102
RTVSPropertyOp16
 70
     1
102
RTVSPropertyOp17
 70
     1
102
RTVSPropertyOp18
 70
     1
102
RTVSPropertyOp19
 70
     1
102
RTVSPropertyOp20
 70
     1
102
RTVSPropertyOp21
 70
     1
102
RTVSPropertyOp22
 70
     1
102
RTVSPropertyOp23
 70
     1
102
RTVSPropertyOp24
 70
     1
102
RTVSPropertyOp25
 70
     1
102
RTVSPropertyOp26
 70
     1
102
RTVSPropertyOp27
 70
     1
102
RTVSPropertyOp28
 70
     1
102
RTVSPropertyOp29
 70
     1
102
RTVSPropertyOp30
 70
     1
102
RTVSPropertyOp31
 70
     1
102
RTVSPropertyOp32
 70
     1
  0
XRECORD
  5
7F1F
102
{ACAD_REACTORS
330
7F1E
102
}
330
7F1E
100
AcDbXrecord
280
     1
102
RTVSPropertyOp0
 70
     0
102
RTVSPropertyOp1
 70
     0
102
RTVSPropertyOp2
 70
     0
102
RTVSPropertyOp3
 70
     0
102
RTVSPropertyOp4
 70
     0
102
RTVSPropertyOp5
 70
     0
102
RTVSPropertyOp6
 70
     0
102
RTVSPropertyOp7
 70
     0
102
RTVSPropertyOp8
 70
     0
102
RTVSPropertyOp9
 70
     0
102
RTVSPropertyOp10
 70
     0
102
RTVSPropertyOp11
 70
     0
102
RTVSPropertyOp12
 70
     0
102
RTVSPropertyOp13
 70
     0
102
RTVSPropertyOp14
 70
     2
102
RTVSPropertyOp15
 70
     0
102
RTVSPropertyOp16
 70
     0
102
RTVSPropertyOp17
 70
     0
102
RTVSPropertyOp18
 70
     0
102
RTVSPropertyOp19
 70
     0
102
RTVSPropertyOp20
 70
     0
102
RTVSPropertyOp21
 70
     0
102
RTVSPropertyOp22
 70
     0
102
RTVSPropertyOp23
 70
     0
102
RTVSPropertyOp24
 70
     0
102
RTVSPropertyOp25
 70
     0
102
RTVSPropertyOp26
 70
     0
102
RTVSPropertyOp27
 70
     0
102
RTVSPropertyOp28
 70
     1
102
RTVSPropertyOp29
 70
     1
102
RTVSPropertyOp30
 70
     1
102
RTVSPropertyOp31
 70
     1
102
RTVSPropertyOp32
 70
     1
  0
XRECORD
  5
7F05
102
{ACAD_REACTORS
330
7F04
102
}
330
7F04
100
AcDbXrecord
280
     1
102
RTVSPropertyOp0
 70
     1
102
RTVSPropertyOp1
 70
     1
102
RTVSPropertyOp2
 70
     1
102
RTVSPropertyOp3
 70
     1
102
RTVSPropertyOp4
 70
     1
102
RTVSPropertyOp5
 70
     1
102
RTVSPropertyOp6
 70
     1
102
RTVSPropertyOp7
 70
     1
102
RTVSPropertyOp8
 70
     1
102
RTVSPropertyOp9
 70
     1
102
RTVSPropertyOp10
 70
     1
102
RTVSPropertyOp11
 70
     1
102
RTVSPropertyOp12
 70
     1
102
RTVSPropertyOp13
 70
     1
102
RTVSPropertyOp14
 70
     1
102
RTVSPropertyOp15
 70
     1
102
RTVSPropertyOp16
 70
     1
102
RTVSPropertyOp17
 70
     1
102
RTVSPropertyOp18
 70
     1
102
RTVSPropertyOp19
 70
     1
102
RTVSPropertyOp20
 70
     1
102
RTVSPropertyOp21
 70
     1
102
RTVSPropertyOp22
 70
     1
102
RTVSPropertyOp23
 70
     1
102
RTVSPropertyOp24
 70
     1
102
RTVSPropertyOp25
 70
     1
102
RTVSPropertyOp26
 70
     1
102
RTVSPropertyOp27
 70
     1
102
RTVSPropertyOp28
 70
     1
102
RTVSPropertyOp29
 70
     1
102
RTVSPropertyOp30
 70
     1
102
RTVSPropertyOp31
 70
     1
102
RTVSPropertyOp32
 70
     1
  0
XRECORD
  5
7F1B
102
{ACAD_REACTORS
330
7F1A
102
}
330
7F1A
100
AcDbXrecord
280
     1
102
RTVSPropertyOp0
 70
     1
102
RTVSPropertyOp1
 70
     1
102
RTVSPropertyOp2
 70
     1
102
RTVSPropertyOp3
 70
     1
102
RTVSPropertyOp4
 70
     1
102
RTVSPropertyOp5
 70
     1
102
RTVSPropertyOp6
 70
     1
102
RTVSPropertyOp7
 70
     1
102
RTVSPropertyOp8
 70
     1
102
RTVSPropertyOp9
 70
     1
102
RTVSPropertyOp10
 70
     1
102
RTVSPropertyOp11
 70
     1
102
RTVSPropertyOp12
 70
     1
102
RTVSPropertyOp13
 70
     1
102
RTVSPropertyOp14
 70
     1
102
RTVSPropertyOp15
 70
     1
102
RTVSPropertyOp16
 70
     1
102
RTVSPropertyOp17
 70
     1
102
RTVSPropertyOp18
 70
     1
102
RTVSPropertyOp19
 70
     1
102
RTVSPropertyOp20
 70
     1
102
RTVSPropertyOp21
 70
     1
102
RTVSPropertyOp22
 70
     1
102
RTVSPropertyOp23
 70
     1
102
RTVSPropertyOp24
 70
     1
102
RTVSPropertyOp25
 70
     1
102
RTVSPropertyOp26
 70
     1
102
RTVSPropertyOp27
 70
     1
102
RTVSPropertyOp28
 70
     1
102
RTVSPropertyOp29
 70
     1
102
RTVSPropertyOp30
 70
     1
102
RTVSPropertyOp31
 70
     1
102
RTVSPropertyOp32
 70
     1
  0
XRECORD
  5
7F19
102
{ACAD_REACTORS
330
7F18
102
}
330
7F18
100
AcDbXrecord
280
     1
102
RTVSPropertyOp0
 70
     1
102
RTVSPropertyOp1
 70
     1
102
RTVSPropertyOp2
 70
     1
102
RTVSPropertyOp3
 70
     1
102
RTVSPropertyOp4
 70
     1
102
RTVSPropertyOp5
 70
     1
102
RTVSPropertyOp6
 70
     1
102
RTVSPropertyOp7
 70
     1
102
RTVSPropertyOp8
 70
     1
102
RTVSPropertyOp9
 70
     1
102
RTVSPropertyOp10
 70
     1
102
RTVSPropertyOp11
 70
     1
102
RTVSPropertyOp12
 70
     1
102
RTVSPropertyOp13
 70
     1
102
RTVSPropertyOp14
 70
     1
102
RTVSPropertyOp15
 70
     1
102
RTVSPropertyOp16
 70
     1
102
RTVSPropertyOp17
 70
     1
102
RTVSPropertyOp18
 70
     1
102
RTVSPropertyOp19
 70
     1
102
RTVSPropertyOp20
 70
     1
102
RTVSPropertyOp21
 70
     1
102
RTVSPropertyOp22
 70
     1
102
RTVSPropertyOp23
 70
     1
102
RTVSPropertyOp24
 70
     1
102
RTVSPropertyOp25
 70
     1
102
RTVSPropertyOp26
 70
     1
102
RTVSPropertyOp27
 70
     1
102
RTVSPropertyOp28
 70
     1
102
RTVSPropertyOp29
 70
     1
102
RTVSPropertyOp30
 70
     1
102
RTVSPropertyOp31
 70
     1
102
RTVSPropertyOp32
 70
     1
  0
XRECORD
  5
7F13
102
{ACAD_REACTORS
330
7F12
102
}
330
7F12
100
AcDbXrecord
280
     1
102
RTVSPropertyOp0
 70
     1
102
RTVSPropertyOp1
 70
     1
102
RTVSPropertyOp2
 70
     1
102
RTVSPropertyOp3
 70
     1
102
RTVSPropertyOp4
 70
     1
102
RTVSPropertyOp5
 70
     1
102
RTVSPropertyOp6
 70
     1
102
RTVSPropertyOp7
 70
     1
102
RTVSPropertyOp8
 70
     1
102
RTVSPropertyOp9
 70
     1
102
RTVSPropertyOp10
 70
     1
102
RTVSPropertyOp11
 70
     1
102
RTVSPropertyOp12
 70
     1
102
RTVSPropertyOp13
 70
     1
102
RTVSPropertyOp14
 70
     1
102
RTVSPropertyOp15
 70
     1
102
RTVSPropertyOp16
 70
     1
102
RTVSPropertyOp17
 70
     1
102
RTVSPropertyOp18
 70
     1
102
RTVSPropertyOp19
 70
     1
102
RTVSPropertyOp20
 70
     1
102
RTVSPropertyOp21
 70
     1
102
RTVSPropertyOp22
 70
     1
102
RTVSPropertyOp23
 70
     1
102
RTVSPropertyOp24
 70
     1
102
RTVSPropertyOp25
 70
     1
102
RTVSPropertyOp26
 70
     1
102
RTVSPropertyOp27
 70
     1
102
RTVSPropertyOp28
 70
     1
102
RTVSPropertyOp29
 70
     1
102
RTVSPropertyOp30
 70
     1
102
RTVSPropertyOp31
 70
     1
102
RTVSPropertyOp32
 70
     1
  0
XRECORD
  5
7F15
102
{ACAD_REACTORS
330
7F14
102
}
330
7F14
100
AcDbXrecord
280
     1
102
RTVSPropertyOp0
 70
     1
102
RTVSPropertyOp1
 70
     1
102
RTVSPropertyOp2
 70
     1
102
RTVSPropertyOp3
 70
     1
102
RTVSPropertyOp4
 70
     1
102
RTVSPropertyOp5
 70
     1
102
RTVSPropertyOp6
 70
     1
102
RTVSPropertyOp7
 70
     1
102
RTVSPropertyOp8
 70
     1
102
RTVSPropertyOp9
 70
     1
102
RTVSPropertyOp10
 70
     1
102
RTVSPropertyOp11
 70
     1
102
RTVSPropertyOp12
 70
     1
102
RTVSPropertyOp13
 70
     1
102
RTVSPropertyOp14
 70
     1
102
RTVSPropertyOp15
 70
     1
102
RTVSPropertyOp16
 70
     1
102
RTVSPropertyOp17
 70
     1
102
RTVSPropertyOp18
 70
     1
102
RTVSPropertyOp19
 70
     1
102
RTVSPropertyOp20
 70
     1
102
RTVSPropertyOp21
 70
     1
102
RTVSPropertyOp22
 70
     1
102
RTVSPropertyOp23
 70
     1
102
RTVSPropertyOp24
 70
     1
102
RTVSPropertyOp25
 70
     1
102
RTVSPropertyOp26
 70
     1
102
RTVSPropertyOp27
 70
     1
102
RTVSPropertyOp28
 70
     1
102
RTVSPropertyOp29
 70
     1
102
RTVSPropertyOp30
 70
     1
102
RTVSPropertyOp31
 70
     1
102
RTVSPropertyOp32
 70
     1
  0
XRECORD
  5
7F0B
102
{ACAD_REACTORS
330
7F0A
102
}
330
7F0A
100
AcDbXrecord
280
     1
102
RTVSPropertyOp0
 70
     1
102
RTVSPropertyOp1
 70
     1
102
RTVSPropertyOp2
 70
     1
102
RTVSPropertyOp3
 70
     1
102
RTVSPropertyOp4
 70
     1
102
RTVSPropertyOp5
 70
     1
102
RTVSPropertyOp6
 70
     1
102
RTVSPropertyOp7
 70
     1
102
RTVSPropertyOp8
 70
     1
102
RTVSPropertyOp9
 70
     1
102
RTVSPropertyOp10
 70
     1
102
RTVSPropertyOp11
 70
     1
102
RTVSPropertyOp12
 70
     1
102
RTVSPropertyOp13
 70
     1
102
RTVSPropertyOp14
 70
     1
102
RTVSPropertyOp15
 70
     1
102
RTVSPropertyOp16
 70
     1
102
RTVSPropertyOp17
 70
     1
102
RTVSPropertyOp18
 70
     1
102
RTVSPropertyOp19
 70
     1
102
RTVSPropertyOp20
 70
     1
102
RTVSPropertyOp21
 70
     1
102
RTVSPropertyOp22
 70
     1
102
RTVSPropertyOp23
 70
     1
102
RTVSPropertyOp24
 70
     1
102
RTVSPropertyOp25
 70
     1
102
RTVSPropertyOp26
 70
     1
102
RTVSPropertyOp27
 70
     1
102
RTVSPropertyOp28
 70
     1
102
RTVSPropertyOp29
 70
     1
102
RTVSPropertyOp30
 70
     1
102
RTVSPropertyOp31
 70
     1
102
RTVSPropertyOp32
 70
     1
  0
XRECORD
  5
7EFF
102
{ACAD_REACTORS
330
7EFE
102
}
330
7EFE
100
AcDbXrecord
280
     1
102
RTVSPropertyOp0
 70
     1
102
RTVSPropertyOp1
 70
     1
102
RTVSPropertyOp2
 70
     1
102
RTVSPropertyOp3
 70
     1
102
RTVSPropertyOp4
 70
     1
102
RTVSPropertyOp5
 70
     1
102
RTVSPropertyOp6
 70
     1
102
RTVSPropertyOp7
 70
     1
102
RTVSPropertyOp8
 70
     1
102
RTVSPropertyOp9
 70
     1
102
RTVSPropertyOp10
 70
     1
102
RTVSPropertyOp11
 70
     1
102
RTVSPropertyOp12
 70
     1
102
RTVSPropertyOp13
 70
     1
102
RTVSPropertyOp14
 70
     1
102
RTVSPropertyOp15
 70
     1
102
RTVSPropertyOp16
 70
     1
102
RTVSPropertyOp17
 70
     1
102
RTVSPropertyOp18
 70
     1
102
RTVSPropertyOp19
 70
     1
102
RTVSPropertyOp20
 70
     1
102
RTVSPropertyOp21
 70
     1
102
RTVSPropertyOp22
 70
     1
102
RTVSPropertyOp23
 70
     1
102
RTVSPropertyOp24
 70
     1
102
RTVSPropertyOp25
 70
     1
102
RTVSPropertyOp26
 70
     1
102
RTVSPropertyOp27
 70
     1
102
RTVSPropertyOp28
 70
     1
102
RTVSPropertyOp29
 70
     1
102
RTVSPropertyOp30
 70
     1
102
RTVSPropertyOp31
 70
     1
102
RTVSPropertyOp32
 70
     1
  0
XRECORD
  5
7F17
102
{ACAD_REACTORS
330
7F16
102
}
330
7F16
100
AcDbXrecord
280
     1
102
RTVSPropertyOp0
 70
     1
102
RTVSPropertyOp1
 70
     1
102
RTVSPropertyOp2
 70
     1
102
RTVSPropertyOp3
 70
     1
102
RTVSPropertyOp4
 70
     1
102
RTVSPropertyOp5
 70
     1
102
RTVSPropertyOp6
 70
     1
102
RTVSPropertyOp7
 70
     1
102
RTVSPropertyOp8
 70
     1
102
RTVSPropertyOp9
 70
     1
102
RTVSPropertyOp10
 70
     1
102
RTVSPropertyOp11
 70
     1
102
RTVSPropertyOp12
 70
     1
102
RTVSPropertyOp13
 70
     1
102
RTVSPropertyOp14
 70
     1
102
RTVSPropertyOp15
 70
     1
102
RTVSPropertyOp16
 70
     1
102
RTVSPropertyOp17
 70
     1
102
RTVSPropertyOp18
 70
     1
102
RTVSPropertyOp19
 70
     1
102
RTVSPropertyOp20
 70
     1
102
RTVSPropertyOp21
 70
     1
102
RTVSPropertyOp22
 70
     1
102
RTVSPropertyOp23
 70
     1
102
RTVSPropertyOp24
 70
     1
102
RTVSPropertyOp25
 70
     1
102
RTVSPropertyOp26
 70
     1
102
RTVSPropertyOp27
 70
     1
102
RTVSPropertyOp28
 70
     1
102
RTVSPropertyOp29
 70
     1
102
RTVSPropertyOp30
 70
     1
102
RTVSPropertyOp31
 70
     1
102
RTVSPropertyOp32
 70
     1
  0
ENDSEC
  0
EOF
