  0
SECTION
  2
HEADER
  9
$ACADVER
  1
AC1015
  9
$ACADMAINTVER
 70
    20
  9
$DWGCODEPAGE
  3
ANSI_1252
  9
$INSBASE
 10
0.0
 20
0.0
 30
0.0
  9
$EXTMIN
 10
-0.0000000410553014
 20
-0.0000000154741571
 30
0.0
  9
$EXTMAX
 10
64.2184980768819
 20
38.04025398121943
 30
0.0
  9
$LIMMIN
 10
0.0
 20
0.0
  9
$LIMMAX
 10
12.0
 20
9.0
  9
$ORTHOMODE
 70
     0
  9
$REGENMODE
 70
     1
  9
$FILLMODE
 70
     1
  9
$QTEXTMODE
 70
     0
  9
$MIRRTEXT
 70
     1
  9
$LTSCALE
 40
0.5
  9
$ATTMODE
 70
     1
  9
$TEXTSIZE
 40
0.25
  9
$TRACEWID
 40
0.05
  9
$TEXTSTYLE
  7
STANDARD
  9
$CLAYER
  8
0
  9
$CELTYPE
  6
BYLAYER
  9
$CECOLOR
 62
   256
  9
$CELTSCALE
 40
1.0
  9
$DISPSILH
 70
     0
  9
$DIMSCALE
 40
1.0
  9
$DIMASZ
 40
0.2
  9
$DIMEXO
 40
0.125
  9
$DIMDLI
 40
0.375
  9
$DIMRND
 40
0.0
  9
$DIMDLE
 40
0.0
  9
$DIMEXE
 40
0.125
  9
$DIMTP
 40
0.0
  9
$DIMTM
 40
0.0
  9
$DIMTXT
 40
0.25
  9
$DIMCEN
 40
0.0
  9
$DIMTSZ
 40
0.0
  9
$DIMTOL
 70
     0
  9
$DIMLIM
 70
     0
  9
$DIMTIH
 70
     0
  9
$DIMTOH
 70
     0
  9
$DIMSE1
 70
     0
  9
$DIMSE2
 70
     0
  9
$DIMTAD
 70
     1
  9
$DIMZIN
 70
     3
  9
$DIMBLK
  1

  9
$DIMASO
 70
     1
  9
$DIMSHO
 70
     1
  9
$DIMPOST
  1

  9
$DIMAPOST
  1

  9
$DIMALT
 70
     0
  9
$DIMALTD
 70
     2
  9
$DIMALTF
 40
25.4
  9
$DIMLFAC
 40
1.0
  9
$DIMTOFL
 70
     0
  9
$DIMTVP
 40
0.0
  9
$DIMTIX
 70
     0
  9
$DIMSOXD
 70
     0
  9
$DIMSAH
 70
     0
  9
$DIMBLK1
  1

  9
$DIMBLK2
  1

  9
$DIMSTYLE
  2
STANDARD
  9
$DIMCLRD
 70
     0
  9
$DIMCLRE
 70
     0
  9
$DIMCLRT
 70
     0
  9
$DIMTFAC
 40
1.0
  9
$DIMGAP
 40
0.125
  9
$DIMJUST
 70
     0
  9
$DIMSD1
 70
     0
  9
$DIMSD2
 70
     0
  9
$DIMTOLJ
 70
     1
  9
$DIMTZIN
 70
     3
  9
$DIMALTZ
 70
     3
  9
$DIMALTTZ
 70
     3
  9
$DIMUPT
 70
     0
  9
$DIMDEC
 70
     5
  9
$DIMTDEC
 70
     5
  9
$DIMALTU
 70
     4
  9
$DIMALTTD
 70
     2
  9
$DIMTXSTY
  7
STANDARD
  9
$DIMAUNIT
 70
     0
  9
$DIMADEC
 70
     0
  9
$DIMALTRND
 40
0.0
  9
$DIMAZIN
 70
     0
  9
$DIMDSEP
 70
    46
  9
$DIMATFIT
 70
     0
  9
$DIMFRAC
 70
     2
  9
$DIMLDRBLK
  1

  9
$DIMLUNIT
 70
     4
  9
$DIMLWD
 70
    -2
  9
$DIMLWE
 70
    -2
  9
$DIMTMOVE
 70
     0
  9
$LUNITS
 70
     2
  9
$LUPREC
 70
     5
  9
$SKETCHINC
 40
0.1
  9
$FILLETRAD
 40
0.0
  9
$AUNITS
 70
     0
  9
$AUPREC
 70
     0
  9
$MENU
  1
ACAD
  9
$ELEVATION
 40
0.0
  9
$PELEVATION
 40
0.0
  9
$THICKNESS
 40
0.0
  9
$LIMCHECK
 70
     0
  9
$CHAMFERA
 40
0.0
  9
$CHAMFERB
 40
0.0
  9
$CHAMFERC
 40
0.0
  9
$CHAMFERD
 40
0.0
  9
$SKPOLY
 70
     0
  9
$TDCREATE
 40
2450777.537570949
  9
$TDUCREATE
 40
2450777.745904282
  9
$TDUPDATE
 40
2457807.531257512
  9
$TDUUPDATE
 40
2457807.739590845
  9
$TDINDWG
 40
0.9924079282
  9
$TDUSRTIMER
 40
0.9924079282
  9
$USRTIMER
 70
     1
  9
$ANGBASE
 50
0.0
  9
$ANGDIR
 70
     0
  9
$PDMODE
 70
     0
  9
$PDSIZE
 40
0.0
  9
$PLINEWID
 40
0.0
  9
$SPLFRAME
 70
     0
  9
$SPLINETYPE
 70
     6
  9
$SPLINESEGS
 70
     8
  9
$HANDSEED
  5
8897
  9
$SURFTAB1
 70
     6
  9
$SURFTAB2
 70
     6
  9
$SURFTYPE
 70
     6
  9
$SURFU
 70
     6
  9
$SURFV
 70
     6
  9
$UCSBASE
  2

  9
$UCSNAME
  2

  9
$UCSORG
 10
0.0
 20
0.0
 30
0.0
  9
$UCSXDIR
 10
1.0
 20
0.0
 30
0.0
  9
$UCSYDIR
 10
0.0
 20
1.0
 30
0.0
  9
$UCSORTHOREF
  2

  9
$UCSORTHOVIEW
 70
     0
  9
$UCSORGTOP
 10
0.0
 20
0.0
 30
0.0
  9
$UCSORGBOTTOM
 10
0.0
 20
0.0
 30
0.0
  9
$UCSORGLEFT
 10
0.0
 20
0.0
 30
0.0
  9
$UCSORGRIGHT
 10
0.0
 20
0.0
 30
0.0
  9
$UCSORGFRONT
 10
0.0
 20
0.0
 30
0.0
  9
$UCSORGBACK
 10
0.0
 20
0.0
 30
0.0
  9
$PUCSBASE
  2

  9
$PUCSNAME
  2

  9
$PUCSORG
 10
0.0
 20
0.0
 30
0.0
  9
$PUCSXDIR
 10
1.0
 20
0.0
 30
0.0
  9
$PUCSYDIR
 10
0.0
 20
1.0
 30
0.0
  9
$PUCSORTHOREF
  2

  9
$PUCSORTHOVIEW
 70
     0
  9
$PUCSORGTOP
 10
0.0
 20
0.0
 30
0.0
  9
$PUCSORGBOTTOM
 10
0.0
 20
0.0
 30
0.0
  9
$PUCSORGLEFT
 10
0.0
 20
0.0
 30
0.0
  9
$PUCSORGRIGHT
 10
0.0
 20
0.0
 30
0.0
  9
$PUCSORGFRONT
 10
0.0
 20
0.0
 30
0.0
  9
$PUCSORGBACK
 10
0.0
 20
0.0
 30
0.0
  9
$USERI1
 70
     0
  9
$USERI2
 70
     0
  9
$USERI3
 70
     0
  9
$USERI4
 70
     0
  9
$USERI5
 70
     0
  9
$USERR1
 40
0.0
  9
$USERR2
 40
0.0
  9
$USERR3
 40
0.0
  9
$USERR4
 40
0.0
  9
$USERR5
 40
0.0
  9
$WORLDVIEW
 70
     1
  9
$SHADEDGE
 70
     3
  9
$SHADEDIF
 70
    70
  9
$TILEMODE
 70
     1
  9
$MAXACTVP
 70
    16
  9
$PINSBASE
 10
0.0
 20
0.0
 30
0.0
  9
$PLIMCHECK
 70
     0
  9
$PEXTMIN
 10
1.000000000000000E+20
 20
1.000000000000000E+20
 30
1.000000000000000E+20
  9
$PEXTMAX
 10
-1.000000000000000E+20
 20
-1.000000000000000E+20
 30
-1.000000000000000E+20
  9
$PLIMMIN
 10
0.0
 20
0.0
  9
$PLIMMAX
 10
12.0
 20
9.0
  9
$UNITMODE
 70
     0
  9
$VISRETAIN
 70
     0
  9
$PLINEGEN
 70
     0
  9
$PSLTSCALE
 70
     1
  9
$TREEDEPTH
 70
  3020
  9
$CMLSTYLE
  2
STANDARD
  9
$CMLJUST
 70
     0
  9
$CMLSCALE
 40
1.0
  9
$PROXYGRAPHICS
 70
     1
  9
$MEASUREMENT
 70
     0
  9
$CELWEIGHT
370
    -1
  9
$ENDCAPS
280
     0
  9
$JOINSTYLE
280
     0
  9
$LWDISPLAY
290
     0
  9
$INSUNITS
 70
     0
  9
$HYPERLINKBASE
  1

  9
$STYLESHEET
  1
monochrome.ctb
  9
$XEDIT
290
     1
  9
$CEPSNTYPE
380
     0
  9
$PSTYLEMODE
290
     1
  9
$FINGERPRINTGUID
  2
{AFB9463B-F323-4607-850C-DC68DBB64F67}
  9
$VERSIONGUID
  2
{B730E143-ADAC-4BB4-BB1D-5061275B7B01}
  9
$EXTNAMES
290
     1
  9
$PSVPSCALE
 40
0.0
  9
$OLESTARTUP
290
     0
  0
ENDSEC
  0
SECTION
  2
CLASSES
  0
CLASS
  1
DICTIONARYVAR
  2
AcDbDictionaryVar
  3
ObjectDBX Classes
 90
        0
280
     0
281
     0
  0
CLASS
  1
ACDBDICTIONARYWDFLT
  2
AcDbDictionaryWithDefault
  3
ObjectDBX Classes
 90
        0
280
     0
281
     0
  0
CLASS
  1
ACDBPLACEHOLDER
  2
AcDbPlaceHolder
  3
ObjectDBX Classes
 90
        0
280
     0
281
     0
  0
CLASS
  1
LAYOUT
  2
AcDbLayout
  3
ObjectDBX Classes
 90
        0
280
     0
281
     0
  0
CLASS
  1
MATERIAL
  2
AcDbMaterial
  3
ObjectDBX Classes
 90
     1153
280
     0
281
     0
  0
CLASS
  1
VISUALSTYLE
  2
AcDbVisualStyle
  3
ObjectDBX Classes
 90
     4095
280
     0
281
     0
  0
CLASS
  1
TABLESTYLE
  2
AcDbTableStyle
  3
ObjectDBX Classes
 90
     4095
280
     0
281
     0
  0
CLASS
  1
SCALE
  2
AcDbScale
  3
ObjectDBX Classes
 90
     1153
280
     0
281
     0
  0
CLASS
  1
MLEADERSTYLE
  2
AcDbMLeaderStyle
  3
ACDB_MLEADERSTYLE_CLASS
 90
     4095
280
     0
281
     0
  0
CLASS
  1
SORTENTSTABLE
  2
AcDbSortentsTable
  3
ObjectDBX Classes
 90
        0
280
     0
281
     0
  0
CLASS
  1
CELLSTYLEMAP
  2
AcDbCellStyleMap
  3
ObjectDBX Classes
 90
     1152
280
     0
281
     0
  0
CLASS
  1
EXACXREFPANELOBJECT
  2
ExAcXREFPanelObject
  3
EXAC_ESW
 90
     1025
280
     0
281
     0
  0
CLASS
  1
NPOCOLLECTION
  2
AcDbImpNonPersistentObjectsCollection
  3
ObjectDBX Classes
 90
     1153
280
     0
281
     0
  0
CLASS
  1
FIELD
  2
AcDbField
  3
ObjectDBX Classes
 90
    33920
280
     0
281
     0
  0
CLASS
  1
FIELDLIST
  2
AcDbFieldList
  3
ObjectDBX Classes
 90
     1152
280
     0
281
     0
  0
ENDSEC
  0
SECTION
  2
TABLES
  0
TABLE
  2
VPORT
  5
8
102
{ACAD_XDICTIONARY
360
82AF
102
}
330
0
100
AcDbSymbolTable
 70
     1
  0
VPORT
  5
81FD
330
8
100
AcDbSymbolTableRecord
100
AcDbViewportTableRecord
  2
*Active
 70
     0
 10
0.0
 20
0.0
 11
1.0
 21
1.0
 12
44.03057101500825
 22
19.02012724859695
 13
0.0
 23
0.0
 14
1.0
 24
1.0
 15
0.0
 25
0.0
 16
0.0
 26
0.0
 36
1.0
 17
0.0
 27
0.0
 37
0.0
 40
38.3131914187512
 41
2.681260945709281
 42
50.0
 43
0.0
 44
0.0
 50
0.0
 51
0.0
 71
     0
 72
  2000
 73
     1
 74
     0
 75
     0
 76
     0
 77
     0
 78
     0
281
     0
 65
     1
110
0.0
120
0.0
130
0.0
111
1.0
121
0.0
131
0.0
112
0.0
122
1.0
132
0.0
 79
     0
146
0.0
1001
ACAD_NAV_VCDISPLAY
1070
     3
  0
ENDTAB
  0
TABLE
  2
LTYPE
  5
5
330
0
100
AcDbSymbolTable
 70
     6
  0
LTYPE
  5
11
330
5
100
AcDbSymbolTableRecord
100
AcDbLinetypeTableRecord
  2
BYBLOCK
 70
     0
  3

 72
    65
 73
     0
 40
0.0
  0
LTYPE
  5
12
330
5
100
AcDbSymbolTableRecord
100
AcDbLinetypeTableRecord
  2
BYLAYER
 70
     0
  3

 72
    65
 73
     0
 40
0.0
  0
LTYPE
  5
13
330
5
100
AcDbSymbolTableRecord
100
AcDbLinetypeTableRecord
  2
CONTINUOUS
 70
     0
  3
Solid line
 72
    65
 73
     0
 40
0.0
  0
LTYPE
  5
7213
330
5
100
AcDbSymbolTableRecord
100
AcDbLinetypeTableRecord
  2
CENTER
 70
     0
  3
CENTER LINE
 72
    65
 73
     4
 40
2.0
 49
1.25
 74
     0
 49
-0.25
 74
     0
 49
0.25
 74
     0
 49
-0.25
 74
     0
  0
LTYPE
  5
7214
330
5
100
AcDbSymbolTableRecord
100
AcDbLinetypeTableRecord
  2
HIDDEN2
 70
     0
  3
Hidden (.5x) _ _ _ _ _ _ _ _ _ _ _ _ _ _ _ _ _
 72
    65
 73
     2
 40
0.1875
 49
0.125
 74
     0
 49
-0.0625
 74
     0
  0
LTYPE
  5
74C5
330
5
100
AcDbSymbolTableRecord
100
AcDbLinetypeTableRecord
  2
HIDDEN
 70
     0
  3
__ __ __ __ __ __ __ __ __ __ __ __ __ __ __ __
 72
    65
 73
     2
 40
0.375
 49
0.25
 74
     0
 49
-0.125
 74
     0
  0
LTYPE
  5
87A6
330
5
100
AcDbSymbolTableRecord
100
AcDbLinetypeTableRecord
  2
DASHED
 70
     0
  3
Dashed __ __ __ __ __ __ __ __ __ __ __ __ __ _
 72
    65
 73
     2
 40
0.75
 49
0.5
 74
     0
 49
-0.25
 74
     0
  0
LTYPE
  5
87A7
330
5
100
AcDbSymbolTableRecord
100
AcDbLinetypeTableRecord
  2
DOT
 70
     0
  3
Dot . . . . . . . . . . . . . . . . . . . . . .
 72
    65
 73
     2
 40
0.25
 49
0.0
 74
     0
 49
-0.25
 74
     0
  0
ENDTAB
  0
TABLE
  2
LAYER
  5
2
102
{ACAD_XDICTIONARY
360
828E
102
}
330
0
100
AcDbSymbolTable
 70
     8
  0
LAYER
  5
E
102
{ACAD_XDICTIONARY
360
829E
102
}
330
2
100
AcDbSymbolTableRecord
100
AcDbLayerTableRecord
  2
0
 70
     0
 62
     7
  6
CONTINUOUS
370
    -3
390
485B
  0
LAYER
  5
273
102
{ACAD_XDICTIONARY
360
82A0
102
}
330
2
100
AcDbSymbolTableRecord
100
AcDbLayerTableRecord
  2
R-SWTS-DET1
 70
     0
 62
     1
  6
CONTINUOUS
370
    -3
390
485B
  0
LAYER
  5
42D
102
{ACAD_XDICTIONARY
360
82A2
102
}
330
2
100
AcDbSymbolTableRecord
100
AcDbLayerTableRecord
  2
R-SWTS-DET2
 70
     0
 62
     4
  6
CONTINUOUS
370
    -3
390
485B
  0
LAYER
  5
42E
102
{ACAD_XDICTIONARY
360
82A4
102
}
330
2
100
AcDbSymbolTableRecord
100
AcDbLayerTableRecord
  2
R-SWTS-DET3
 70
     0
 62
     5
  6
CONTINUOUS
370
    -3
390
485B
  0
LAYER
  5
71BB
102
{ACAD_XDICTIONARY
360
82A6
102
}
330
2
100
AcDbSymbolTableRecord
100
AcDbLayerTableRecord
  2
PART_NUMBERS
 70
     0
 62
     6
  6
CONTINUOUS
370
    -3
390
485B
  0
LAYER
  5
731F
102
{ACAD_XDICTIONARY
360
82A8
102
}
330
2
100
AcDbSymbolTableRecord
100
AcDbLayerTableRecord
  2
R-ANNO-DIMS
 70
     0
 62
     3
  6
CONTINUOUS
370
    -3
390
485B
  0
LAYER
  5
8307
102
{ACAD_XDICTIONARY
360
8308
102
}
330
2
100
AcDbSymbolTableRecord
100
AcDbLayerTableRecord
  2
TEXT
 70
     0
 62
     3
  6
CONTINUOUS
370
    -3
390
485B
  0
LAYER
  5
87A8
330
2
100
AcDbSymbolTableRecord
100
AcDbLayerTableRecord
  2
Kawneer Logo-English
 70
     0
 62
     7
  6
CONTINUOUS
370
    -3
390
485B
1001
AcAecLayerStandard
1000

1000

1001
AcCmTransparency
1071
        0
  0
ENDTAB
  0
TABLE
  2
STYLE
  5
3
330
0
100
AcDbSymbolTable
 70
     1
  0
STYLE
  5
F
330
3
100
AcDbSymbolTableRecord
100
AcDbTextStyleTableRecord
  2
STANDARD
 70
     0
 40
0.0
 41
1.0
 50
0.0
 71
     0
 42
0.25
  3
arial.ttf
  4

1001
ACAD
1000
Arial
1071
       34
  0
ENDTAB
  0
TABLE
  2
VIEW
  5
6
330
0
100
AcDbSymbolTable
 70
     0
  0
ENDTAB
  0
TABLE
  2
UCS
  5
7
330
0
100
AcDbSymbolTable
 70
     0
  0
ENDTAB
  0
TABLE
  2
APPID
  5
9
330
0
100
AcDbSymbolTable
 70
    15
  0
APPID
  5
10
330
9
100
AcDbSymbolTableRecord
100
AcDbRegAppTableRecord
  2
ACAD
 70
     0
  0
APPID
  5
830B
330
9
100
AcDbSymbolTableRecord
100
AcDbRegAppTableRecord
  2
ACAD_NAV_VCDISPLAY
 70
     0
  0
APPID
  5
87A9
330
9
100
AcDbSymbolTableRecord
100
AcDbRegAppTableRecord
  2
ACAD_EXEMPT_FROM_CAD_STANDARDS
 70
     0
  0
APPID
  5
87AA
330
9
100
AcDbSymbolTableRecord
100
AcDbRegAppTableRecord
  2
GradientColor1ACI
 70
     0
  0
APPID
  5
87AB
330
9
100
AcDbSymbolTableRecord
100
AcDbRegAppTableRecord
  2
GradientColor2ACI
 70
     0
  0
APPID
  5
87AC
330
9
100
AcDbSymbolTableRecord
100
AcDbRegAppTableRecord
  2
ACAD_MLEADERVER
 70
     0
  0
APPID
  5
87AD
330
9
100
AcDbSymbolTableRecord
100
AcDbRegAppTableRecord
  2
ACAD_PSEXT
 70
     0
  0
APPID
  5
87AE
330
9
100
AcDbSymbolTableRecord
100
AcDbRegAppTableRecord
  2
ACAD_DSTYLE_DIMJAG
 70
     0
  0
APPID
  5
87AF
330
9
100
AcDbSymbolTableRecord
100
AcDbRegAppTableRecord
  2
ACAD_DSTYLE_DIMTALN
 70
     0
  0
APPID
  5
87B0
330
9
100
AcDbSymbolTableRecord
100
AcDbRegAppTableRecord
  2
ACAD_DSTYLE_DIMBREAK
 70
     0
  0
APPID
  5
87B1
330
9
100
AcDbSymbolTableRecord
100
AcDbRegAppTableRecord
  2
AcDbDynamicBlockGUID
 70
     0
  0
APPID
  5
87B2
330
9
100
AcDbSymbolTableRecord
100
AcDbRegAppTableRecord
  2
ACAUTHENVIRON
 70
     0
  0
APPID
  5
87B3
330
9
100
AcDbSymbolTableRecord
100
AcDbRegAppTableRecord
  2
AcDbDynamicBlockTrueName
 70
     0
  0
APPID
  5
87B4
330
9
100
AcDbSymbolTableRecord
100
AcDbRegAppTableRecord
  2
AcAecLayerStandard
 70
     0
  0
APPID
  5
87B5
330
9
100
AcDbSymbolTableRecord
100
AcDbRegAppTableRecord
  2
AcCmTransparency
 70
     0
  0
ENDTAB
  0
TABLE
  2
DIMSTYLE
  5
A
330
0
100
AcDbSymbolTable
 70
     1
100
AcDbDimStyleTable
 71
     0
  0
DIMSTYLE
105
26C
330
A
100
AcDbSymbolTableRecord
100
AcDbDimStyleTableRecord
  2
STANDARD
 70
     0
340
F
  0
ENDTAB
  0
TABLE
  2
BLOCK_RECORD
  5
1
330
0
100
AcDbSymbolTable
 70
     1
  0
BLOCK_RECORD
  5
17
102
{ACAD_XDICTIONARY
360
4A11
102
}
330
1
100
AcDbSymbolTableRecord
100
AcDbBlockTableRecord
  2
*MODEL_SPACE
340
485E
  0
BLOCK_RECORD
  5
14
102
{ACAD_XDICTIONARY
360
4A0F
102
}
330
1
100
AcDbSymbolTableRecord
100
AcDbBlockTableRecord
  2
*PAPER_SPACE
340
485F
  0
BLOCK_RECORD
  5
87B8
102
{ACAD_XDICTIONARY
360
87C2
102
}
330
1
100
AcDbSymbolTableRecord
100
AcDbBlockTableRecord
  2
Kawneer Logo English
340
0
102
{BLKREFS
331
87C6
102
}
1001
ACAD
1000
DesignCenter Data
1002
{
1070
     1
1070
     1
1002
}
  0
ENDTAB
  0
ENDSEC
  0
SECTION
  2
BLOCKS
  0
BLOCK
  5
3C
330
17
100
AcDbEntity
  8
0
100
AcDbBlockBegin
  2
*MODEL_SPACE
 70
     0
 10
0.0
 20
0.0
 30
0.0
  3
*MODEL_SPACE
  1

  0
ENDBLK
  5
3D
330
17
100
AcDbEntity
  8
0
100
AcDbBlockEnd
  0
BLOCK
  5
3A
330
14
100
AcDbEntity
 67
     1
  8
0
100
AcDbBlockBegin
  2
*PAPER_SPACE
 70
     0
 10
0.0
 20
0.0
 30
0.0
  3
*PAPER_SPACE
  1

  0
ENDBLK
  5
3B
330
14
100
AcDbEntity
 67
     1
  8
0
100
AcDbBlockEnd
  0
BLOCK
  5
87C4
330
87B8
100
AcDbEntity
  8
0
100
AcDbBlockBegin
  2
Kawneer Logo English
 70
     0
 10
0.0
 20
0.0
 30
0.0
  3
Kawneer Logo English
  1

  0
MTEXT
  5
87B9
102
{ACAD_XDICTIONARY
360
8857
102
}
330
87B8
100
AcDbEntity
  8
Kawneer Logo-English
100
AcDbMText
 10
1.510096758583198
 20
0.0372523876656778
 30
0.0
 40
0.036
 41
0.6125900866323382
 71
     3
 72
     5
  1
{\fArial TUR|b0|i0|c0|p34;\T1.05;AN ARCONIC COMPANY}
 73
     1
 44
1.0
1001
ACAD
1000
ACAD_MTEXT_COLUMN_INFO_BEGIN
1070
    75
1070
     2
1070
    79
1070
     0
1070
    76
1070
     1
1070
    78
1070
     0
1070
    48
1040
0.6125900866323382
1070
    49
1040
1.0
1070
    50
1070
     1
1040
0.0
1000
ACAD_MTEXT_COLUMN_INFO_END
1000
MTEXTBEGIN
1070
    73
1070
     1
1070
    44
1040
1.0
1070
    74
1070
     0
1000
MTEXTEND
  0
HATCH
  5
87BA
330
87B8
100
AcDbEntity
  8
Kawneer Logo-English
100
AcDbHatch
 10
0.0
 20
0.0
 30
0.0
210
0.0
220
0.0
230
1.0
  2
SOLID
 70
     1
 71
     0
 91
        1
 92
        1
 93
       81
 72
     1
 10
0.2706169776412204
 20
0.0336337282279411
 11
0.2687512969786691
 21
0.0350329887248546
 72
     1
 10
0.2687512969786696
 20
0.0350329887248547
 11
0.2633408230572721
 21
0.039137486182467
 72
     1
 10
0.2633408230572729
 20
0.0391374861824669
 11
0.2550385441089194
 21
0.0453875164020133
 72
     1
 10
0.2550385441089191
 20
0.0453875164020132
 11
0.2442175962661241
 21
0.053596511317238
 72
     1
 10
0.2442175962661235
 20
0.0535965113172379
 11
0.2314376837276472
 21
0.0632980507625037
 72
     1
 10
0.2314376837276479
 20
0.0632980507625037
 11
0.2172585106922595
 21
0.0741189986052996
 72
     1
 10
0.2172585106922598
 20
0.0741189986052996
 11
0.2019599292593419
 21
0.0856862187131167
 72
     1
 10
0.201959929259341
 20
0.0856862187131167
 11
0.1862882116939105
 21
0.0976265749534437
 72
     1
 10
0.1862882116939102
 20
0.0976265749534437
 11
0.1706164941284813
 21
0.1095669311937706
 72
     1
 10
0.1706164941284811
 20
0.1095669311937709
 11
0.1553179126955632
 21
0.1211341513015875
 72
     1
 10
0.1553179126955642
 20
0.1211341513015876
 11
0.1411387396601757
 21
0.131955099144384
 72
     1
 10
0.1411387396601755
 20
0.1319550991443839
 11
0.1284521111548274
 21
0.141749922622777
 72
     1
 10
0.1284521111548278
 20
0.1417499226227768
 11
0.117631163312031
 21
0.1499589175380016
 72
     1
 10
0.1176311633120304
 20
0.1499589175380017
 11
0.1094221683968068
 21
0.1563022317906752
 72
     1
 10
0.1094221683968062
 20
0.1563022317906754
 11
0.1041049785085351
 21
0.1604067292482882
 72
     1
 10
0.1041049785085351
 20
0.1604067292482878
 11
0.1023325818791119
 21
0.1618992737783286
 72
     1
 10
0.1023325818791116
 20
0.1618992737783289
 11
0.1043848306079176
 21
0.1636716704077524
 72
     1
 10
0.1043848306079194
 20
0.1636716704077524
 11
0.1100751566286996
 21
0.1683358720641301
 72
     1
 10
0.1100751566286986
 20
0.1683358720641301
 11
0.1189371397758159
 21
0.1757053106812067
 72
     1
 10
0.1189371397758161
 20
0.1757053106812067
 11
0.1304110758505067
 21
0.1851269980270901
 72
     1
 10
0.1304110758505059
 20
0.1851269980270902
 11
0.1439372606540007
 21
0.1963210820023967
 72
     1
 10
0.1439372606540017
 20
0.1963210820023967
 11
0.1589559899875385
 21
0.2087278584083611
 72
     1
 10
0.1589559899875379
 20
0.2087278584083611
 11
0.1750941277186041
 21
0.2220674751456017
 72
     1
 10
0.1750941277186047
 20
0.2220674751456017
 11
0.19169868561531
 21
0.2358735120484796
 72
     1
 10
0.1916986856153105
 20
0.2358735120484796
 11
0.208303243512014
 21
0.2495862649182301
 72
     1
 10
0.2083032435120131
 20
0.2495862649182304
 11
0.2244413812430811
 21
0.2628325976223432
 72
     1
 10
0.2244413812430812
 20
0.2628325976223429
 11
0.239460110576618
 21
0.2753326580614352
 72
     1
 10
0.2394601105766174
 20
0.2753326580614351
 11
0.2529862953801122
 21
0.2864334580036143
 72
     1
 10
0.2529862953801132
 20
0.2864334580036143
 11
0.2643669474216756
 21
0.2958551453494973
 72
     1
 10
0.2643669474216757
 20
0.2958551453494973
 11
0.2731356465356649
 21
0.3031312999334466
 72
     1
 10
0.273135646535664
 20
0.3031312999334466
 11
0.2788259725564443
 21
0.3077955015898243
 72
     1
 10
0.278825972556445
 20
0.3077955015898246
 11
0.2807849372521245
 21
0.3094746141861208
 72
     1
 10
0.2807849372521249
 20
0.3094746141861205
 11
0.2798520969208501
 21
0.3094746141861205
 72
     1
 10
0.2798520969208496
 20
0.3094746141861205
 11
0.2769602918938953
 21
0.3095678982192478
 72
     1
 10
0.2769602918938943
 20
0.3095678982192481
 11
0.2724826583037715
 21
0.3095678982192481
 72
     1
 10
0.2724826583037729
 20
0.3095678982192481
 11
0.2666057642167363
 21
0.3095678982192481
 72
     1
 10
0.266605764216735
 20
0.3095678982192481
 11
0.2597027457652953
 21
0.3095678982192481
 72
     1
 10
0.2597027457652956
 20
0.3095678982192481
 11
0.2519601710157094
 21
0.3095678982192481
 72
     1
 10
0.2519601710157104
 20
0.3095678982192481
 11
0.2437511761004851
 21
0.3095678982192481
 72
     1
 10
0.243751176100484
 20
0.3095678982192481
 11
0.2351690450527495
 21
0.3095678982192481
 72
     1
 10
0.2351690450527495
 20
0.3095678982192481
 11
0.2266801980381413
 21
0.3095678982192481
 72
     1
 10
0.2266801980381423
 20
0.3095678982192481
 11
0.2183779190897905
 21
0.3094746141861208
 72
     1
 10
0.2183779190897899
 20
0.3094746141861205
 11
0.2106353443402037
 21
0.3094746141861205
 72
     1
 10
0.2106353443402029
 20
0.3094746141861205
 11
0.2037323258887632
 21
0.3094746141861205
 72
     1
 10
0.203732325888764
 20
0.3094746141861205
 11
0.1978554318017273
 21
0.3094746141861205
 72
     1
 10
0.1978554318017278
 20
0.3094746141861205
 11
0.1932845141784786
 21
0.3094746141861205
 72
     1
 10
0.1932845141784787
 20
0.3094746141861205
 11
0.1903927091515244
 21
0.3094746141861205
 72
     1
 10
0.1903927091515234
 20
0.3094746141861205
 11
0.1893665847871204
 21
0.3094746141861205
 72
     1
 10
0.1893665847871206
 20
0.3094746141861205
 11
0.1879673242902067
 21
0.3077955015898243
 72
     1
 10
0.1879673242902076
 20
0.3077955015898246
 11
0.1841426789319786
 21
0.3030380159003196
 72
     1
 10
0.1841426789319787
 20
0.3030380159003192
 11
0.1780792167786874
 21
0.29576186131637
 72
     1
 10
0.1780792167786873
 20
0.29576186131637
 11
0.170243357995973
 21
0.2862468899373593
 72
     1
 10
0.170243357995973
 20
0.2862468899373593
 11
0.1610082387163447
 21
0.2750528059620528
 72
     1
 10
0.1610082387163438
 20
0.2750528059620528
 11
0.1507469950723126
 21
0.2624594614898328
 72
     1
 10
0.1507469950723133
 20
0.2624594614898328
 11
0.1396461951301336
 21
0.2491198447525922
 72
     1
 10
0.1396461951301333
 20
0.2491198447525922
 11
0.1282655430885727
 21
0.2352205238165866
 72
     1
 10
0.1282655430885726
 20
0.2352205238165868
 11
0.1168848910470102
 21
0.2214144869137089
 72
     1
 10
0.1168848910470102
 20
0.2214144869137087
 11
0.1058773751379587
 21
0.2079815861433408
 72
     1
 10
0.105877375137958
 20
0.2079815861433408
 11
0.0955228474608004
 21
0.1954815257042486
 72
     1
 10
0.0955228474608019
 20
0.1954815257042488
 11
0.0862877281811736
 21
0.1842874417289424
 72
     1
 10
0.0862877281811727
 20
0.1842874417289424
 11
0.0784518693984583
 21
0.1747724703499316
 72
     1
 10
0.0784518693984584
 20
0.1747724703499314
 11
0.0723884072451672
 21
0.1674963157659821
 72
     1
 10
0.0723884072451671
 20
0.1674963157659822
 11
0.0685637618869363
 21
0.1627388300764767
 72
     1
 10
0.0685637618869364
 20
0.1627388300764767
 11
0.0671645013900242
 21
0.1611530015133082
 72
     1
 10
0.0671645013900251
 20
0.1611530015133082
 11
0.0680040576881734
 21
0.1596604569832674
 72
     1
 10
0.0680040576881726
 20
0.1596604569832674
 11
0.0704294425494878
 21
0.1556492435587824
 72
     1
 10
0.0704294425494871
 20
0.1556492435587824
 11
0.0742540879077179
 21
0.1493059293061089
 72
     1
 10
0.0742540879077192
 20
0.1493059293061089
 11
0.0791048576303511
 21
0.1411902184240116
 72
     1
 10
0.0791048576303508
 20
0.1411902184240116
 11
0.0848884676842594
 21
0.1314886789787458
 72
     1
 10
0.0848884676842596
 20
0.1314886789787459
 11
0.0913250659700619
 21
0.1207610151690772
 72
     1
 10
0.0913250659700613
 20
0.1207610151690775
 11
0.0982280844214992
 21
0.1091937950612604
 72
     1
 10
0.0982280844214985
 20
0.1091937950612603
 11
0.1053176709391927
 21
0.0973467228540611
 72
     1
 10
0.105317670939193
 20
0.0973467228540612
 11
0.1124072574568872
 21
0.0854996506468619
 72
     1
 10
0.1124072574568871
 20
0.0854996506468617
 11
0.1193102759083267
 21
0.0739324305390446
 72
     1
 10
0.1193102759083278
 20
0.0739324305390448
 11
0.1257468741941283
 21
0.0632047667293762
 72
     1
 10
0.1257468741941277
 20
0.063204766729376
 11
0.1315304842480362
 21
0.0535032272841102
 72
     1
 10
0.1315304842480365
 20
0.0535032272841104
 11
0.1363812539706702
 21
0.0453875164020132
 72
     1
 10
0.1363812539706699
 20
0.0453875164020132
 11
0.1402058993288989
 21
0.0391374861824667
 72
     1
 10
0.1402058993288988
 20
0.0391374861824669
 11
0.1426312841902157
 21
0.0350329887248546
 72
     1
 10
0.1426312841902164
 20
0.0350329887248547
 11
0.1434708404883648
 21
0.0336337282279412
 72
     1
 10
0.143470840488364
 20
0.0336337282279411
 11
0.2706169776412211
 21
0.0336337282279411
 97
        0
 75
     0
 76
     1
 98
        1
 10
-0.3743130907707726
 20
-0.2500502867693841
1001
ACAD
1010
0.0
1020
0.0
1030
0.0
  0
HATCH
  5
87BB
330
87B8
100
AcDbEntity
  8
Kawneer Logo-English
100
AcDbHatch
 10
0.0
 20
0.0
 30
0.0
210
0.0
220
0.0
230
1.0
  2
SOLID
 70
     1
 71
     0
 91
        1
 92
        1
 93
       18
 72
     1
 10
0.0001865656044393
 20
0.2563959993365415
 11
-0.0000000024618153
 21
0.113671428651383
 72
     1
 10
-0.0000000024618159
 20
0.1136714286513832
 11
0.0012126899688416
 21
0.1152572572145516
 72
     1
 10
0.0012126899688421
 20
0.1152572572145516
 11
0.0045709151614355
 21
0.1197348908046738
 72
     1
 10
0.004570915161435
 20
0.119734890804674
 11
0.0098881050497044
 21
0.1268244773223682
 72
     1
 10
0.0098881050497044
 20
0.1268244773223682
 11
0.0166978394680158
 21
0.1359663125688683
 72
     1
 10
0.016697839468016
 20
0.1359663125688683
 11
0.0248135503501131
 21
0.1467872604116651
 72
     1
 10
0.024813550350113
 20
0.1467872604116652
 11
0.0338621015634867
 21
0.1588209006851195
 72
     1
 10
0.0338621015634872
 20
0.1588209006851194
 11
0.0434703569756247
 21
0.1716940972567221
 72
     1
 10
0.0434703569756247
 20
0.1716940972567224
 11
0.0534517485202732
 21
0.1850337139939626
 72
     1
 10
0.0534517485202724
 20
0.1850337139939624
 11
0.0634331400649208
 21
0.1983733307312025
 72
     1
 10
0.0634331400649222
 20
0.1983733307312024
 11
0.0730413954770597
 21
0.2112465273028051
 72
     1
 10
0.0730413954770595
 20
0.2112465273028053
 11
0.0820899466904331
 21
0.2233734516093873
 72
     1
 10
0.0820899466904321
 20
0.2233734516093873
 11
0.0902056575725293
 21
0.2341943994521837
 72
     1
 10
0.0902056575725308
 20
0.2341943994521837
 11
0.0970153919908422
 21
0.2433362346986839
 72
     1
 10
0.0970153919908405
 20
0.2433362346986839
 11
0.1022392978459834
 21
0.2503325371832507
 72
     1
 10
0.1022392978459843
 20
0.2503325371832508
 11
0.1056908070717041
 21
0.2549034548065008
 72
     1
 10
0.1056908070717046
 20
0.254903454806501
 11
0.1069034995023621
 21
0.2564892833696694
 72
     1
 10
0.1069034995023625
 20
0.2564892833696695
 11
0.0001865656044399
 21
0.2563959993365418
 97
        0
 75
     0
 76
     1
 98
        1
 10
-0.3743130907707726
 20
-0.2500502867693841
1001
ACAD
1010
0.0
1020
0.0
1030
0.0
  0
HATCH
  5
87BC
330
87B8
100
AcDbEntity
  8
Kawneer Logo-English
100
AcDbHatch
 10
0.0
 20
0.0
 30
0.0
210
0.0
220
0.0
230
1.0
  2
SOLID
 70
     1
 71
     0
 91
        2
 92
       16
 93
       76
 72
     1
 10
1.358402087941634
 20
0.1650709309046659
 11
1.358402087941634
 21
0.16796273593162
 72
     1
 10
1.358402087941634
 20
0.1679627359316202
 11
1.358402087941634
 21
0.1729067896873803
 72
     1
 10
1.358402087941634
 20
0.1729067896873803
 11
1.358402087941634
 21
0.1791568199069267
 72
     1
 10
1.358402087941634
 20
0.1791568199069267
 11
1.358402087941634
 21
0.1861531223914932
 72
     1
 10
1.358402087941634
 20
0.186153122391493
 11
1.358402087941634
 21
0.1931494248760595
 72
     1
 10
1.358402087941634
 20
0.1931494248760596
 11
1.358402087941634
 21
0.1994927391287338
 72
     1
 10
1.358402087941634
 20
0.1994927391287336
 11
1.358402087941634
 21
0.2044367928844937
 72
     1
 10
1.358402087941634
 20
0.2044367928844937
 11
1.358402087941634
 21
0.2072353138783208
 72
     1
 10
1.358402087941634
 20
0.2072353138783208
 11
1.359894632471676
 21
0.2072353138783208
 72
     1
 10
1.359894632471676
 20
0.2072353138783208
 11
1.362693153465502
 21
0.2072353138783208
 72
     1
 10
1.362693153465502
 20
0.2072353138783208
 11
1.366424514790605
 21
0.2072353138783208
 72
     1
 10
1.366424514790606
 20
0.2072353138783208
 11
1.371088716446983
 21
0.2072353138783208
 72
     1
 10
1.371088716446982
 20
0.2072353138783208
 11
1.376405906335254
 21
0.2072353138783208
 72
     1
 10
1.376405906335254
 20
0.2072353138783208
 11
1.382282800422289
 21
0.2072353138783208
 72
     1
 10
1.38228280042229
 20
0.2072353138783208
 11
1.388346262575581
 21
0.2072353138783208
 72
     1
 10
1.388346262575579
 20
0.2072353138783208
 11
1.394596292795125
 21
0.2072353138783208
 72
     1
 10
1.394596292795125
 20
0.2072353138783208
 11
1.400753038981545
 21
0.2072353138783208
 72
     1
 10
1.400753038981546
 20
0.2072353138783208
 11
1.406723217101709
 21
0.2072353138783208
 72
     1
 10
1.406723217101708
 20
0.2072353138783208
 11
1.412320259089362
 21
0.2072353138783208
 72
     1
 10
1.412320259089362
 20
0.2072353138783208
 11
1.417264312845122
 21
0.2072353138783208
 72
     1
 10
1.417264312845123
 20
0.2072353138783208
 11
1.421368810302735
 21
0.2072353138783208
 72
     1
 10
1.421368810302734
 20
0.2072353138783208
 11
1.424540467429071
 21
0.2072353138783208
 72
     1
 10
1.424540467429072
 20
0.2072353138783208
 11
1.426592716157878
 21
0.2072353138783208
 72
     1
 10
1.426592716157878
 20
0.2072353138783208
 11
1.427338988422898
 21
0.2072353138783208
 72
     1
 10
1.427338988422898
 20
0.2072353138783208
 11
1.430977065714873
 21
0.207142029845193
 72
     1
 10
1.430977065714872
 20
0.207142029845193
 11
1.434335290907465
 21
0.2068621777458102
 72
     1
 10
1.434335290907465
 20
0.2068621777458102
 11
1.435921119470633
 21
0.2066756096795552
 72
     1
 10
1.435921119470633
 20
0.206675609679555
 11
1.437413664000673
 21
0.2063957575801723
 72
     1
 10
1.437413664000674
 20
0.2063957575801723
 11
1.438906208530714
 21
0.2061159054807895
 72
     1
 10
1.438906208530714
 20
0.2061159054807898
 11
1.440398753060756
 21
0.2056494853151523
 72
     1
 10
1.440398753060756
 20
0.2056494853151521
 11
1.441704729524542
 21
0.2050897811163865
 72
     1
 10
1.441704729524542
 20
0.2050897811163866
 11
1.443010705988328
 21
0.204530076917621
 72
     1
 10
1.443010705988329
 20
0.204530076917621
 11
1.444223398418986
 21
0.2036905206194736
 72
     1
 10
1.444223398418985
 20
0.2036905206194736
 11
1.445436090849643
 21
0.2028509643213252
 72
     1
 10
1.445436090849643
 20
0.2028509643213252
 11
1.446555499247174
 21
0.2018248399569224
 72
     1
 10
1.446555499247173
 20
0.2018248399569223
 11
1.447581623611576
 21
0.2007054315593917
 72
     1
 10
1.447581623611578
 20
0.2007054315593915
 11
1.448607747975981
 21
0.1993061710624781
 72
     1
 10
1.448607747975981
 20
0.1993061710624781
 11
1.449540588307258
 21
0.1978136265324374
 72
     1
 10
1.449540588307256
 20
0.1978136265324373
 11
1.450380144605403
 21
0.1961345139361415
 72
     1
 10
1.450380144605404
 20
0.1961345139361415
 11
1.451126416870426
 21
0.1944554013398453
 72
     1
 10
1.451126416870426
 20
0.1944554013398454
 11
1.451592837036063
 21
0.1929628568098046
 72
     1
 10
1.451592837036062
 20
0.1929628568098046
 11
1.451965973168573
 21
0.1913770282466361
 72
     1
 10
1.451965973168574
 20
0.1913770282466361
 11
1.452245825267955
 21
0.1899777677497231
 72
     1
 10
1.452245825267954
 20
0.1899777677497231
 11
1.452432393334211
 21
0.188671791285937
 72
     1
 10
1.452432393334211
 20
0.1886717912859369
 11
1.452432393334211
 21
0.1874590988552789
 72
     1
 10
1.452432393334211
 20
0.1874590988552789
 11
1.452525677367338
 21
0.1863396904577482
 72
     1
 10
1.452525677367337
 20
0.1863396904577481
 11
1.452432393334211
 21
0.1844740097951972
 72
     1
 10
1.452432393334211
 20
0.1844740097951974
 11
1.452245825267955
 21
0.1827948971989012
 72
     1
 10
1.452245825267954
 20
0.1827948971989009
 11
1.451872689135445
 21
0.1810225005694773
 72
     1
 10
1.451872689135446
 20
0.1810225005694774
 11
1.451406268969809
 21
0.1794366720063093
 72
     1
 10
1.451406268969809
 20
0.1794366720063094
 11
1.450846564771043
 21
0.1779441274762682
 72
     1
 10
1.450846564771041
 20
0.1779441274762681
 11
1.450100292506021
 21
0.1764515829462274
 72
     1
 10
1.450100292506023
 20
0.1764515829462275
 11
1.449260736207875
 21
0.1750523224493141
 72
     1
 10
1.449260736207873
 20
0.1750523224493139
 11
1.448327895876597
 21
0.1737463459855283
 72
     1
 10
1.448327895876596
 20
0.1737463459855281
 11
1.44702191941281
 21
0.1723470854886151
 72
     1
 10
1.447021919412811
 20
0.1723470854886151
 11
1.445715942949025
 21
0.1711343930579568
 72
     1
 10
1.445715942949026
 20
0.1711343930579568
 11
1.444316682452114
 21
0.1700149846604262
 72
     1
 10
1.444316682452114
 20
0.1700149846604259
 11
1.442824137922072
 21
0.168988860296023
 72
     1
 10
1.442824137922072
 20
0.168988860296023
 11
1.441238309358904
 21
0.1682425880310024
 72
     1
 10
1.441238309358902
 20
0.1682425880310024
 11
1.439559196762608
 21
0.1674963157659821
 72
     1
 10
1.439559196762608
 20
0.1674963157659822
 11
1.437880084166311
 21
0.1669366115672166
 72
     1
 10
1.437880084166311
 20
0.1669366115672167
 11
1.436107687536888
 21
0.1664701914015788
 72
     1
 10
1.436107687536888
 20
0.1664701914015789
 11
1.434242006874337
 21
0.166003771235941
 72
     1
 10
1.434242006874337
 20
0.1660037712359412
 11
1.432376326211786
 21
0.1657239191365588
 72
     1
 10
1.432376326211785
 20
0.1657239191365585
 11
1.430417361516107
 21
0.1655373510703035
 72
     1
 10
1.430417361516108
 20
0.1655373510703037
 11
1.428458396820429
 21
0.1653507830040482
 72
     1
 10
1.428458396820428
 20
0.1653507830040482
 11
1.424353899362817
 21
0.1651642149377932
 72
     1
 10
1.424353899362817
 20
0.1651642149377932
 11
1.420156117872077
 21
0.1650709309046658
 72
     1
 10
1.420156117872076
 20
0.1650709309046659
 11
1.41773073301076
 21
0.1650709309046659
 72
     1
 10
1.417730733010761
 20
0.1650709309046659
 11
1.411107566658704
 21
0.1650709309046659
 72
     1
 10
1.411107566658702
 20
0.1650709309046659
 11
1.401779163345947
 21
0.1650709309046659
 72
     1
 10
1.401779163345949
 20
0.1650709309046659
 11
1.390958215503152
 21
0.1650709309046659
 72
     1
 10
1.390958215503152
 20
0.1650709309046659
 11
1.379950699594101
 21
0.1650709309046659
 72
     1
 10
1.379950699594099
 20
0.1650709309046659
 11
1.369969308049451
 21
0.1650709309046659
 72
     1
 10
1.369969308049451
 20
0.1650709309046659
 11
1.362320017332992
 21
0.1650709309046659
 72
     1
 10
1.362320017332992
 20
0.1650709309046659
 11
1.358402087941635
 21
0.1650709309046659
 97
        0
 92
        1
 93
      107
 72
     1
 10
1.443756978253348
 20
0.1485596570410883
 11
1.446928635379685
 21
0.1492126452729816
 72
     1
 10
1.446928635379685
 20
0.1492126452729817
 11
1.449540588307256
 21
0.1498656335048746
 72
     1
 10
1.449540588307256
 20
0.1498656335048745
 11
1.451872689135445
 21
0.1506119057698948
 72
     1
 10
1.451872689135446
 20
0.1506119057698946
 11
1.45401822189738
 21
0.1514514620680426
 72
     1
 10
1.45401822189738
 20
0.1514514620680425
 11
1.455883902559929
 21
0.1521977343330632
 72
     1
 10
1.455883902559929
 20
0.1521977343330631
 11
1.457563015156225
 21
0.1530372906312111
 72
     1
 10
1.457563015156225
 20
0.1530372906312111
 11
1.459148843719394
 21
0.1539701309624869
 72
     1
 10
1.459148843719394
 20
0.1539701309624866
 11
1.460641388249434
 21
0.1549029712937624
 72
     1
 10
1.460641388249434
 20
0.1549029712937622
 11
1.462133932779476
 21
0.155835811625038
 72
     1
 10
1.462133932779476
 20
0.155835811625038
 11
1.463439909243262
 21
0.1568619359894408
 72
     1
 10
1.463439909243262
 20
0.1568619359894408
 11
1.464745885707048
 21
0.1579813443869714
 72
     1
 10
1.464745885707047
 20
0.1579813443869716
 11
1.465865294104579
 21
0.1591007527845022
 72
     1
 10
1.465865294104579
 20
0.1591007527845025
 11
1.466984702502109
 21
0.1602201611820331
 72
     1
 10
1.466984702502108
 20
0.1602201611820328
 11
1.468010826866511
 21
0.1613395695795634
 72
     1
 10
1.468010826866511
 20
0.1613395695795637
 11
1.468943667197788
 21
0.1625522620102216
 72
     1
 10
1.468943667197788
 20
0.1625522620102216
 11
1.469876507529063
 21
0.1636716704077522
 72
     1
 10
1.469876507529063
 20
0.1636716704077524
 11
1.470622779794084
 21
0.1648843628384107
 72
     1
 10
1.470622779794084
 20
0.1648843628384107
 11
1.471462336092232
 21
0.1661903393021964
 72
     1
 10
1.471462336092232
 20
0.1661903393021967
 11
1.472115324324125
 21
0.1674030317328546
 72
     1
 10
1.472115324324124
 20
0.1674030317328546
 11
1.472768312556016
 21
0.1686157241635125
 72
     1
 10
1.472768312556017
 20
0.1686157241635125
 11
1.473328016754783
 21
0.1699217006272986
 72
     1
 10
1.473328016754782
 20
0.1699217006272989
 11
1.47379443692042
 21
0.1711343930579568
 72
     1
 10
1.47379443692042
 20
0.1711343930579568
 11
1.474260857086057
 21
0.1724403695217425
 72
     1
 10
1.474260857086058
 20
0.1724403695217424
 11
1.474727277251697
 21
0.1736530619524008
 72
     1
 10
1.474727277251697
 20
0.173653061952401
 11
1.475380265483589
 21
0.1760784468137175
 72
     1
 10
1.475380265483588
 20
0.1760784468137173
 11
1.475846685649225
 21
0.1785038316750338
 72
     1
 10
1.475846685649226
 20
0.1785038316750335
 11
1.476219821781737
 21
0.1808359325032223
 72
     1
 10
1.476219821781738
 20
0.1808359325032223
 11
1.47649967388112
 21
0.1830747492982838
 72
     1
 10
1.47649967388112
 20
0.1830747492982838
 11
1.476592957914248
 21
0.1851269980270901
 72
     1
 10
1.476592957914248
 20
0.1851269980270902
 11
1.476686241947374
 21
0.1870859627227688
 72
     1
 10
1.476686241947375
 20
0.1870859627227687
 11
1.476592957914249
 21
0.1888583593521923
 72
     1
 10
1.476592957914248
 20
0.1888583593521922
 11
1.476499673881119
 21
0.1906307559816158
 72
     1
 10
1.47649967388112
 20
0.1906307559816159
 11
1.476406389847991
 21
0.1924031526110394
 72
     1
 10
1.476406389847991
 20
0.1924031526110394
 11
1.476126537748608
 21
0.1940822652073352
 72
     1
 10
1.476126537748608
 20
0.1940822652073352
 11
1.475846685649226
 21
0.195761377803631
 72
     1
 10
1.475846685649226
 20
0.1957613778036309
 11
1.475566833549843
 21
0.1974404903999272
 72
     1
 10
1.475566833549843
 20
0.1974404903999272
 11
1.475100413384206
 21
0.1990263189630953
 72
     1
 10
1.475100413384205
 20
0.1990263189630952
 11
1.474633993218568
 21
0.2006121475262637
 72
     1
 10
1.474633993218568
 20
0.2006121475262639
 11
1.47416757305293
 21
0.2021046920563051
 72
     1
 10
1.474167573052932
 20
0.2021046920563049
 11
1.473514584821038
 21
0.2035972365863457
 72
     1
 10
1.473514584821037
 20
0.2035972365863459
 11
1.472954880622271
 21
0.2050897811163867
 72
     1
 10
1.472954880622272
 20
0.2050897811163866
 11
1.472208608357252
 21
0.2064890416133
 72
     1
 10
1.472208608357252
 20
0.2064890416133001
 11
1.471462336092232
 21
0.2078883021102135
 72
     1
 10
1.471462336092232
 20
0.2078883021102136
 11
1.470622779794083
 21
0.2091942785739993
 72
     1
 10
1.470622779794084
 20
0.2091942785739991
 11
1.469783223495935
 21
0.2105002550377848
 72
     1
 10
1.469783223495934
 20
0.2105002550377851
 11
1.468850383164659
 21
0.2118062315015707
 72
     1
 10
1.468850383164661
 20
0.2118062315015709
 11
1.467917542833386
 21
0.2130189239322288
 72
     1
 10
1.467917542833385
 20
0.2130189239322289
 11
1.466891418468982
 21
0.2141383323297595
 72
     1
 10
1.466891418468982
 20
0.2141383323297595
 11
1.465772010071451
 21
0.2153510247604178
 72
     1
 10
1.46577201007145
 20
0.215351024760418
 11
1.464652601673919
 21
0.2163771491248209
 72
     1
 10
1.46465260167392
 20
0.2163771491248209
 11
1.463533193276389
 21
0.2174032734892238
 72
     1
 10
1.463533193276389
 20
0.2174032734892238
 11
1.462227216812603
 21
0.2184293978536266
 72
     1
 10
1.462227216812602
 20
0.2184293978536266
 11
1.461014524381945
 21
0.2193622381849024
 72
     1
 10
1.461014524381946
 20
0.2193622381849023
 11
1.459615263885032
 21
0.2202950785161781
 72
     1
 10
1.459615263885031
 20
0.2202950785161782
 11
1.458309287421245
 21
0.2211346348143262
 72
     1
 10
1.458309287421246
 20
0.221134634814326
 11
1.456816742891206
 21
0.221974191112474
 72
     1
 10
1.456816742891206
 20
0.2219741911124738
 11
1.455417482394292
 21
0.2227204633774945
 72
     1
 10
1.455417482394291
 20
0.2227204633774944
 11
1.453831653831122
 21
0.2233734516093874
 72
     1
 10
1.453831653831123
 20
0.2233734516093873
 11
1.452339109301082
 21
0.2240264398412803
 72
     1
 10
1.452339109301082
 20
0.2240264398412803
 11
1.450659996704785
 21
0.2245861440400459
 72
     1
 10
1.450659996704787
 20
0.2245861440400457
 11
1.44907416814162
 21
0.2251458482388108
 72
     1
 10
1.449074168141619
 20
0.2251458482388109
 11
1.447301771512194
 21
0.2256122684044489
 72
     1
 10
1.447301771512194
 20
0.2256122684044488
 11
1.445249522783388
 21
0.2261719726032139
 72
     1
 10
1.445249522783388
 20
0.226171972603214
 11
1.44329055808771
 21
0.2265451087357246
 72
     1
 10
1.443290558087712
 20
0.2265451087357244
 11
1.441145025325778
 21
0.2269182448682345
 72
     1
 10
1.441145025325776
 20
0.2269182448682345
 11
1.438906208530714
 21
0.2271980969676173
 72
     1
 10
1.438906208530714
 20
0.2271980969676173
 11
1.436387539636271
 21
0.2273846650338724
 72
     1
 10
1.436387539636271
 20
0.2273846650338724
 11
1.433495734609316
 21
0.2275712331001274
 72
     1
 10
1.433495734609317
 20
0.2275712331001274
 11
1.430044225383597
 21
0.2276645171332552
 72
     1
 10
1.430044225383597
 20
0.2276645171332549
 11
1.42612629599224
 21
0.2277578011663822
 72
     1
 10
1.42612629599224
 20
0.2277578011663825
 11
1.426033011959112
 21
0.2277578011663825
 72
     1
 10
1.426033011959111
 20
0.2277578011663825
 11
1.33489451159349
 21
0.2277578011663825
 72
     1
 10
1.334894511593491
 20
0.2277578011663825
 11
1.334894511593491
 21
0.0926825211976832
 72
     1
 10
1.334894511593491
 20
0.0926825211976832
 11
1.358588656007891
 21
0.0926825211976832
 72
     1
 10
1.358588656007891
 20
0.0926825211976832
 11
1.358588656007891
 21
0.0947347699264896
 72
     1
 10
1.358588656007891
 20
0.0947347699264896
 11
1.358588656007891
 21
0.1001452438478876
 72
     1
 10
1.358588656007891
 20
0.1001452438478875
 11
1.358588656007891
 21
0.1079811026306024
 72
     1
 10
1.358588656007891
 20
0.1079811026306024
 11
1.358588656007891
 21
0.1170296538439752
 72
     1
 10
1.358588656007891
 20
0.1170296538439753
 11
1.358588656007891
 21
0.1262647731236032
 72
     1
 10
1.358588656007891
 20
0.1262647731236031
 11
1.358588656007891
 21
0.1347536201382103
 72
     1
 10
1.358588656007891
 20
0.1347536201382104
 11
1.358588656007891
 21
0.1412835024571394
 72
     1
 10
1.358588656007891
 20
0.1412835024571393
 11
1.358588656007891
 21
0.1448282957159864
 72
     1
 10
1.358588656007891
 20
0.1448282957159865
 11
1.362320017332992
 21
0.1448282957159865
 72
     1
 10
1.362320017332992
 20
0.1448282957159865
 11
1.369409603850688
 21
0.1448282957159865
 72
     1
 10
1.369409603850688
 20
0.1448282957159865
 11
1.378738007163443
 21
0.1448282957159865
 72
     1
 10
1.378738007163443
 20
0.1448282957159865
 11
1.388999250807475
 21
0.1448282957159865
 72
     1
 10
1.388999250807473
 20
0.1448282957159865
 11
1.399260494451505
 21
0.1448282957159865
 72
     1
 10
1.399260494451506
 20
0.1448282957159865
 11
1.408215761631749
 21
0.1448282957159865
 72
     1
 10
1.408215761631748
 20
0.1448282957159865
 11
1.414745643950677
 21
0.1448282957159865
 72
     1
 10
1.414745643950678
 20
0.1448282957159865
 11
1.41773073301076
 21
0.1448282957159865
 72
     1
 10
1.417730733010761
 20
0.1448282957159865
 11
1.420062833838949
 21
0.1420297747221594
 72
     1
 10
1.420062833838949
 20
0.1420297747221597
 11
1.425193455660966
 21
0.1359663125688683
 72
     1
 10
1.425193455660965
 20
0.1359663125688683
 11
1.432283042178659
 21
0.1275707495873888
 72
     1
 10
1.432283042178659
 20
0.1275707495873886
 11
1.440305469027628
 21
0.1180557782083779
 72
     1
 10
1.440305469027629
 20
0.1180557782083781
 11
1.448234611843471
 21
0.1087273748956225
 72
     1
 10
1.448234611843471
 20
0.1087273748956225
 11
1.455044346261782
 21
0.1006116640135252
 72
     1
 10
1.455044346261782
 20
0.1006116640135252
 11
1.459895115984414
 21
0.0948280539596167
 72
     1
 10
1.459895115984414
 20
0.0948280539596169
 11
1.461760796646965
 21
0.0926825211976832
 72
     1
 10
1.461760796646967
 20
0.0926825211976832
 11
1.49254452757906
 21
0.0926825211976832
 72
     1
 10
1.492544527579059
 20
0.0926825211976832
 11
1.490678846916508
 21
0.0948280539596169
 72
     1
 10
1.490678846916508
 20
0.0948280539596169
 11
1.48564150912762
 21
0.100518379980398
 72
     1
 10
1.48564150912762
 20
0.1005183799803981
 11
1.478458638576797
 21
0.1088206589287502
 72
     1
 10
1.478458638576798
 20
0.1088206589287502
 11
1.470063075595318
 21
0.1183356303077609
 72
     1
 10
1.470063075595317
 20
0.118335630307761
 11
1.461480944547582
 21
0.1282237378192818
 72
     1
 10
1.461480944547582
 20
0.1282237378192818
 11
1.453551801731739
 21
0.1372722890326546
 72
     1
 10
1.45355180173174
 20
0.1372722890326546
 11
1.447395055545323
 21
0.1444551595834761
 72
     1
 10
1.447395055545323
 20
0.1444551595834759
 11
1.443756978253349
 21
0.1485596570410882
 97
        0
 75
     0
 76
     1
 98
        1
 10
-0.3743130907707726
 20
-0.2500502867693841
1001
ACAD
1010
0.0
1020
0.0
1030
0.0
  0
HATCH
  5
87BD
330
87B8
100
AcDbEntity
  8
Kawneer Logo-English
100
AcDbHatch
 10
0.0
 20
0.0
 30
0.0
210
0.0
220
0.0
230
1.0
  2
SOLID
 70
     1
 71
     0
 91
        1
 92
        1
 93
       87
 72
     1
 10
1.205602841678699
 20
0.1525708704655737
 11
1.207468522341251
 21
0.1525708704655737
 72
     1
 10
1.207468522341252
 20
0.1525708704655737
 11
1.211199883666355
 21
0.1525708704655737
 72
     1
 10
1.211199883666355
 20
0.1525708704655737
 11
1.216517073554626
 21
0.1525708704655737
 72
     1
 10
1.216517073554626
 20
0.1525708704655737
 11
1.223046955873555
 21
0.1525708704655737
 72
     1
 10
1.223046955873553
 20
0.1525708704655737
 11
1.230602962556885
 21
0.1525708704655737
 72
     1
 10
1.230602962556885
 20
0.1525708704655737
 11
1.238998525538365
 21
0.1525708704655737
 72
     1
 10
1.238998525538365
 20
0.1525708704655737
 11
1.247767224652354
 21
0.1525708704655737
 72
     1
 10
1.247767224652355
 20
0.1525708704655737
 11
1.256815775865728
 21
0.1525708704655737
 72
     1
 10
1.256815775865729
 20
0.1525708704655737
 11
1.265771043045974
 21
0.1525708704655737
 72
     1
 10
1.265771043045973
 20
0.1525708704655737
 11
1.274446458126836
 21
0.1525708704655737
 72
     1
 10
1.274446458126837
 20
0.1525708704655737
 11
1.282562169008935
 21
0.1525708704655737
 72
     1
 10
1.282562169008935
 20
0.1525708704655737
 11
1.289745039559756
 21
0.1525708704655737
 72
     1
 10
1.289745039559755
 20
0.1525708704655737
 11
1.295808501713046
 21
0.1525708704655737
 72
     1
 10
1.295808501713046
 20
0.1525708704655737
 11
1.300472703369423
 21
0.1525708704655737
 72
     1
 10
1.300472703369423
 20
0.1525708704655737
 11
1.303457792429505
 21
0.1525708704655737
 72
     1
 10
1.303457792429505
 20
0.1525708704655737
 11
1.304483916793908
 21
0.1525708704655737
 72
     1
 10
1.304483916793908
 20
0.1525708704655737
 11
1.304483916793908
 21
0.1730000737205081
 72
     1
 10
1.304483916793908
 20
0.1730000737205078
 11
1.303457792429505
 21
0.1730000737205078
 72
     1
 10
1.303457792429505
 20
0.1730000737205078
 11
1.300472703369423
 21
0.1730000737205078
 72
     1
 10
1.300472703369423
 20
0.1730000737205078
 11
1.295808501713045
 21
0.1730000737205078
 72
     1
 10
1.295808501713046
 20
0.1730000737205078
 11
1.289745039559754
 21
0.1730000737205078
 72
     1
 10
1.289745039559755
 20
0.1730000737205078
 11
1.282562169008934
 21
0.1730000737205078
 72
     1
 10
1.282562169008935
 20
0.1730000737205078
 11
1.274446458126837
 21
0.1730000737205078
 72
     1
 10
1.274446458126837
 20
0.1730000737205078
 11
1.265771043045975
 21
0.1730000737205078
 72
     1
 10
1.265771043045973
 20
0.1730000737205078
 11
1.256815775865728
 21
0.1730000737205078
 72
     1
 10
1.256815775865729
 20
0.1730000737205078
 11
1.247767224652355
 21
0.1730000737205078
 72
     1
 10
1.247767224652355
 20
0.1730000737205078
 11
1.238998525538365
 21
0.1730000737205078
 72
     1
 10
1.238998525538365
 20
0.1730000737205078
 11
1.230602962556885
 21
0.1730000737205078
 72
     1
 10
1.230602962556885
 20
0.1730000737205078
 11
1.223046955873553
 21
0.1730000737205078
 72
     1
 10
1.223046955873553
 20
0.1730000737205078
 11
1.216517073554625
 21
0.1730000737205078
 72
     1
 10
1.216517073554626
 20
0.1730000737205078
 11
1.211199883666355
 21
0.1730000737205078
 72
     1
 10
1.211199883666355
 20
0.1730000737205078
 11
1.207468522341252
 21
0.1730000737205078
 72
     1
 10
1.207468522341252
 20
0.1730000737205078
 11
1.205602841678701
 21
0.1730000737205078
 72
     1
 10
1.205602841678699
 20
0.1730000737205078
 11
1.205602841678699
 21
0.1754254585818243
 72
     1
 10
1.205602841678699
 20
0.1754254585818245
 11
1.205602841678699
 21
0.1794366720063095
 72
     1
 10
1.205602841678699
 20
0.1794366720063094
 11
1.205602841678699
 21
0.1843807257620694
 72
     1
 10
1.205602841678699
 20
0.1843807257620694
 11
1.205602841678699
 21
0.1898844837165951
 72
     1
 10
1.205602841678699
 20
0.1898844837165951
 11
1.205602841678699
 21
0.1952949576379935
 72
     1
 10
1.205602841678699
 20
0.1952949576379937
 11
1.205602841678699
 21
0.2003322954268815
 72
     1
 10
1.205602841678699
 20
0.2003322954268814
 11
1.205602841678699
 21
0.2042502248182386
 72
     1
 10
1.205602841678699
 20
0.2042502248182386
 11
1.205602841678699
 21
0.206675609679555
 72
     1
 10
1.205602841678699
 20
0.206675609679555
 11
1.207468522341251
 21
0.206675609679555
 72
     1
 10
1.207468522341252
 20
0.206675609679555
 11
1.211293167699483
 21
0.206675609679555
 72
     1
 10
1.211293167699483
 20
0.206675609679555
 11
1.21670364162088
 21
0.206675609679555
 72
     1
 10
1.216703641620879
 20
0.206675609679555
 11
1.223420092006063
 21
0.206675609679555
 72
     1
 10
1.223420092006064
 20
0.206675609679555
 11
1.231255950788778
 21
0.206675609679555
 72
     1
 10
1.231255950788778
 20
0.206675609679555
 11
1.239744797803386
 21
0.206675609679555
 72
     1
 10
1.239744797803385
 20
0.206675609679555
 11
1.248886633049885
 21
0.206675609679555
 72
     1
 10
1.248886633049885
 20
0.206675609679555
 11
1.258121752329513
 21
0.206675609679555
 72
     1
 10
1.258121752329514
 20
0.206675609679555
 11
1.267356871609143
 21
0.206675609679555
 72
     1
 10
1.267356871609142
 20
0.206675609679555
 11
1.276218854756259
 21
0.206675609679555
 72
     1
 10
1.276218854756259
 20
0.206675609679555
 11
1.284521133704611
 21
0.206675609679555
 72
     1
 10
1.284521133704611
 20
0.206675609679555
 11
1.291890572321688
 21
0.206675609679555
 72
     1
 10
1.291890572321688
 20
0.206675609679555
 11
1.298140602541234
 21
0.206675609679555
 72
     1
 10
1.298140602541234
 20
0.206675609679555
 11
1.30289808823074
 21
0.206675609679555
 72
     1
 10
1.30289808823074
 20
0.206675609679555
 11
1.305976461323949
 21
0.206675609679555
 72
     1
 10
1.305976461323949
 20
0.206675609679555
 11
1.30709586972148
 21
0.206675609679555
 72
     1
 10
1.307095869721479
 20
0.206675609679555
 11
1.307095869721479
 21
0.2277578011663822
 72
     1
 10
1.307095869721479
 20
0.2277578011663825
 11
1.304577200827036
 21
0.2277578011663825
 72
     1
 10
1.304577200827037
 20
0.2277578011663825
 11
1.182188549363684
 21
0.2277578011663825
 72
     1
 10
1.182188549363684
 20
0.2277578011663825
 11
1.182188549363684
 21
0.0926825211976832
 72
     1
 10
1.182188549363684
 20
0.0926825211976832
 11
1.311853355410986
 21
0.0926825211976832
 72
     1
 10
1.311853355410985
 20
0.0926825211976832
 11
1.311853355410985
 21
0.113671428651383
 72
     1
 10
1.311853355410985
 20
0.1136714286513832
 11
1.310733947013454
 21
0.1136714286513832
 72
     1
 10
1.310733947013455
 20
0.1136714286513832
 11
1.307469005853991
 21
0.1136714286513832
 72
     1
 10
1.307469005853991
 20
0.1136714286513832
 11
1.302431668065102
 21
0.1136714286513832
 72
     1
 10
1.302431668065103
 20
0.1136714286513832
 11
1.295901785746174
 21
0.1136714286513832
 72
     1
 10
1.295901785746174
 20
0.1136714286513832
 11
1.288159210996586
 21
0.1136714286513832
 72
     1
 10
1.288159210996587
 20
0.1136714286513832
 11
1.279483795915724
 21
0.1136714286513832
 72
     1
 10
1.279483795915723
 20
0.1136714286513832
 11
1.270155392602968
 21
0.1136714286513832
 72
     1
 10
1.270155392602969
 20
0.1136714286513832
 11
1.260547137190832
 21
0.1136714286513832
 72
     1
 10
1.260547137190831
 20
0.1136714286513832
 11
1.250752313712437
 21
0.1136714286513832
 72
     1
 10
1.250752313712437
 20
0.1136714286513832
 11
1.241330626366554
 21
0.1136714286513832
 72
     1
 10
1.241330626366555
 20
0.1136714286513832
 11
1.23237535918631
 21
0.1136714286513832
 72
     1
 10
1.232375359186308
 20
0.1136714286513832
 11
1.224166364271082
 21
0.1136714286513832
 72
     1
 10
1.224166364271083
 20
0.1136714286513832
 11
1.217170061786517
 21
0.1136714286513832
 72
     1
 10
1.217170061786517
 20
0.1136714286513832
 11
1.211479735765737
 21
0.1136714286513832
 72
     1
 10
1.211479735765737
 20
0.1136714286513832
 11
1.20756180637438
 21
0.1136714286513832
 72
     1
 10
1.207561806374379
 20
0.1136714286513832
 11
1.2056028416787
 21
0.1136714286513832
 72
     1
 10
1.205602841678699
 20
0.1136714286513832
 11
1.205602841678699
 21
0.1163766656120825
 72
     1
 10
1.205602841678699
 20
0.1163766656120823
 11
1.205602841678699
 21
0.1209475832353323
 72
     1
 10
1.205602841678699
 20
0.1209475832353325
 11
1.205602841678699
 21
0.1267311932892411
 72
     1
 10
1.205602841678699
 20
0.1267311932892408
 11
1.205602841678699
 21
0.1330745075419143
 72
     1
 10
1.205602841678699
 20
0.1330745075419144
 11
1.205602841678699
 21
0.1395111058277156
 72
     1
 10
1.205602841678699
 20
0.1395111058277158
 11
1.205602841678699
 21
0.1452947158816239
 72
     1
 10
1.205602841678699
 20
0.145294715881624
 11
1.205602841678699
 21
0.1498656335048746
 72
     1
 10
1.205602841678699
 20
0.1498656335048745
 11
1.205602841678699
 21
0.1525708704655738
 97
        0
 75
     0
 76
     1
 98
        1
 10
-0.3743130907707726
 20
-0.2500502867693841
1001
ACAD
1010
0.0
1020
0.0
1030
0.0
  0
HATCH
  5
87BE
330
87B8
100
AcDbEntity
  8
Kawneer Logo-English
100
AcDbHatch
 10
0.0
 20
0.0
 30
0.0
210
0.0
220
0.0
230
1.0
  2
SOLID
 70
     1
 71
     0
 91
        1
 92
        1
 93
       87
 72
     1
 10
1.049352086190046
 20
0.1525708704655737
 11
1.051217766852597
 21
0.1525708704655737
 72
     1
 10
1.051217766852596
 20
0.1525708704655737
 11
1.054949128177699
 21
0.1525708704655737
 72
     1
 10
1.0549491281777
 20
0.1525708704655737
 11
1.060173034032843
 21
0.1525708704655737
 72
     1
 10
1.060173034032843
 20
0.1525708704655737
 11
1.0667962003849
 21
0.1525708704655737
 72
     1
 10
1.0667962003849
 20
0.1525708704655737
 11
1.074352207068231
 21
0.1525708704655737
 72
     1
 10
1.074352207068232
 20
0.1525708704655737
 11
1.082747770049711
 21
0.1525708704655737
 72
     1
 10
1.082747770049711
 20
0.1525708704655737
 11
1.0915164691637
 21
0.1525708704655737
 72
     1
 10
1.091516469163701
 20
0.1525708704655737
 11
1.100565020377075
 21
0.1525708704655737
 72
     1
 10
1.100565020377073
 20
0.1525708704655737
 11
1.109520287557319
 21
0.1525708704655737
 72
     1
 10
1.10952028755732
 20
0.1525708704655737
 11
1.118195702638183
 21
0.1525708704655737
 72
     1
 10
1.118195702638182
 20
0.1525708704655737
 11
1.126218129487151
 21
0.1525708704655737
 72
     1
 10
1.126218129487152
 20
0.1525708704655737
 11
1.133401000037974
 21
0.1525708704655737
 72
     1
 10
1.133401000037974
 20
0.1525708704655737
 11
1.139557746224391
 21
0.1525708704655737
 72
     1
 10
1.139557746224392
 20
0.1525708704655737
 11
1.14422194788077
 21
0.1525708704655737
 72
     1
 10
1.144221947880769
 20
0.1525708704655737
 11
1.147207036940851
 21
0.1525708704655737
 72
     1
 10
1.147207036940852
 20
0.1525708704655737
 11
1.148233161305255
 21
0.1525708704655737
 72
     1
 10
1.148233161305255
 20
0.1525708704655737
 11
1.148233161305255
 21
0.1730000737205081
 72
     1
 10
1.148233161305255
 20
0.1730000737205078
 11
1.147207036940852
 21
0.1730000737205078
 72
     1
 10
1.147207036940852
 20
0.1730000737205078
 11
1.14422194788077
 21
0.1730000737205078
 72
     1
 10
1.144221947880769
 20
0.1730000737205078
 11
1.139557746224391
 21
0.1730000737205078
 72
     1
 10
1.139557746224392
 20
0.1730000737205078
 11
1.133494284071101
 21
0.1730000737205078
 72
     1
 10
1.133494284071101
 20
0.1730000737205078
 11
1.126218129487152
 21
0.1730000737205078
 72
     1
 10
1.126218129487152
 20
0.1730000737205078
 11
1.118195702638183
 21
0.1730000737205078
 72
     1
 10
1.118195702638182
 20
0.1730000737205078
 11
1.10952028755732
 21
0.1730000737205078
 72
     1
 10
1.10952028755732
 20
0.1730000737205078
 11
1.100565020377074
 21
0.1730000737205078
 72
     1
 10
1.100565020377073
 20
0.1730000737205078
 11
1.0915164691637
 21
0.1730000737205078
 72
     1
 10
1.091516469163701
 20
0.1730000737205078
 11
1.082747770049712
 21
0.1730000737205078
 72
     1
 10
1.082747770049711
 20
0.1730000737205078
 11
1.074352207068231
 21
0.1730000737205078
 72
     1
 10
1.074352207068232
 20
0.1730000737205078
 11
1.0667962003849
 21
0.1730000737205078
 72
     1
 10
1.0667962003849
 20
0.1730000737205078
 11
1.060173034032843
 21
0.1730000737205078
 72
     1
 10
1.060173034032843
 20
0.1730000737205078
 11
1.054949128177701
 21
0.1730000737205078
 72
     1
 10
1.0549491281777
 20
0.1730000737205078
 11
1.051217766852597
 21
0.1730000737205078
 72
     1
 10
1.051217766852596
 20
0.1730000737205078
 11
1.049352086190045
 21
0.1730000737205078
 72
     1
 10
1.049352086190046
 20
0.1730000737205078
 11
1.049352086190046
 21
0.1754254585818243
 72
     1
 10
1.049352086190046
 20
0.1754254585818245
 11
1.049352086190046
 21
0.1794366720063095
 72
     1
 10
1.049352086190046
 20
0.1794366720063094
 11
1.049352086190046
 21
0.1843807257620694
 72
     1
 10
1.049352086190046
 20
0.1843807257620694
 11
1.049352086190046
 21
0.1898844837165951
 72
     1
 10
1.049352086190046
 20
0.1898844837165951
 11
1.049352086190046
 21
0.1952949576379935
 72
     1
 10
1.049352086190046
 20
0.1952949576379937
 11
1.049352086190046
 21
0.2003322954268815
 72
     1
 10
1.049352086190046
 20
0.2003322954268814
 11
1.049352086190046
 21
0.2042502248182386
 72
     1
 10
1.049352086190046
 20
0.2042502248182386
 11
1.049352086190046
 21
0.206675609679555
 72
     1
 10
1.049352086190046
 20
0.206675609679555
 11
1.051217766852597
 21
0.206675609679555
 72
     1
 10
1.051217766852596
 20
0.206675609679555
 11
1.055042412210825
 21
0.206675609679555
 72
     1
 10
1.055042412210827
 20
0.206675609679555
 11
1.060452886132226
 21
0.206675609679555
 72
     1
 10
1.060452886132225
 20
0.206675609679555
 11
1.067169336517409
 21
0.206675609679555
 72
     1
 10
1.06716933651741
 20
0.206675609679555
 11
1.075005195300124
 21
0.206675609679555
 72
     1
 10
1.075005195300123
 20
0.206675609679555
 11
1.083494042314731
 21
0.206675609679555
 72
     1
 10
1.083494042314732
 20
0.206675609679555
 11
1.092542593528105
 21
0.206675609679555
 72
     1
 10
1.092542593528106
 20
0.206675609679555
 11
1.10187099684086
 21
0.206675609679555
 72
     1
 10
1.101870996840861
 20
0.206675609679555
 11
1.111106116120489
 21
0.206675609679555
 72
     1
 10
1.111106116120488
 20
0.206675609679555
 11
1.119968099267605
 21
0.206675609679555
 72
     1
 10
1.119968099267605
 20
0.206675609679555
 11
1.128270378215957
 21
0.206675609679555
 72
     1
 10
1.128270378215957
 20
0.206675609679555
 11
1.135639816833034
 21
0.206675609679555
 72
     1
 10
1.135639816833034
 20
0.206675609679555
 11
1.14188984705258
 21
0.206675609679555
 72
     1
 10
1.141889847052581
 20
0.206675609679555
 11
1.146647332742086
 21
0.206675609679555
 72
     1
 10
1.146647332742086
 20
0.206675609679555
 11
1.149725705835295
 21
0.206675609679555
 72
     1
 10
1.149725705835296
 20
0.206675609679555
 11
1.150845114232827
 21
0.206675609679555
 72
     1
 10
1.150845114232826
 20
0.206675609679555
 11
1.150845114232826
 21
0.2277578011663822
 72
     1
 10
1.150845114232826
 20
0.2277578011663825
 11
1.148326445338383
 21
0.2277578011663825
 72
     1
 10
1.148326445338383
 20
0.2277578011663825
 11
1.025937793875031
 21
0.2277578011663825
 72
     1
 10
1.025937793875032
 20
0.2277578011663825
 11
1.025937793875032
 21
0.0926825211976832
 72
     1
 10
1.025937793875032
 20
0.0926825211976832
 11
1.155602599922332
 21
0.0926825211976832
 72
     1
 10
1.155602599922332
 20
0.0926825211976832
 11
1.155602599922332
 21
0.113671428651383
 72
     1
 10
1.155602599922332
 20
0.1136714286513832
 11
1.154483191524801
 21
0.1136714286513832
 72
     1
 10
1.154483191524799
 20
0.1136714286513832
 11
1.151218250365336
 21
0.1136714286513832
 72
     1
 10
1.151218250365338
 20
0.1136714286513832
 11
1.146180912576449
 21
0.1136714286513832
 72
     1
 10
1.146180912576449
 20
0.1136714286513832
 11
1.13965103025752
 21
0.1136714286513832
 72
     1
 10
1.13965103025752
 20
0.1136714286513832
 11
1.131908455507932
 21
0.1136714286513832
 72
     1
 10
1.131908455507931
 20
0.1136714286513832
 11
1.12323304042707
 21
0.1136714286513832
 72
     1
 10
1.123233040427071
 20
0.1136714286513832
 11
1.113904637114314
 21
0.1136714286513832
 72
     1
 10
1.113904637114314
 20
0.1136714286513832
 11
1.104296381702177
 21
0.1136714286513832
 72
     1
 10
1.104296381702177
 20
0.1136714286513832
 11
1.094501558223783
 21
0.1136714286513832
 72
     1
 10
1.094501558223784
 20
0.1136714286513832
 11
1.085079870877901
 21
0.1136714286513832
 72
     1
 10
1.085079870877899
 20
0.1136714286513832
 11
1.076124603697654
 21
0.1136714286513832
 72
     1
 10
1.076124603697655
 20
0.1136714286513832
 11
1.067915608782429
 21
0.1136714286513832
 72
     1
 10
1.067915608782429
 20
0.1136714286513832
 11
1.060919306297863
 21
0.1136714286513832
 72
     1
 10
1.060919306297863
 20
0.1136714286513832
 11
1.055228980277083
 21
0.1136714286513832
 72
     1
 10
1.055228980277082
 20
0.1136714286513832
 11
1.051311050885725
 21
0.1136714286513832
 72
     1
 10
1.051311050885726
 20
0.1136714286513832
 11
1.049352086190046
 21
0.1136714286513832
 72
     1
 10
1.049352086190046
 20
0.1136714286513832
 11
1.049352086190046
 21
0.1163766656120825
 72
     1
 10
1.049352086190046
 20
0.1163766656120823
 11
1.049352086190046
 21
0.1209475832353323
 72
     1
 10
1.049352086190046
 20
0.1209475832353325
 11
1.049352086190046
 21
0.1267311932892411
 72
     1
 10
1.049352086190046
 20
0.1267311932892408
 11
1.049352086190046
 21
0.1330745075419143
 72
     1
 10
1.049352086190046
 20
0.1330745075419144
 11
1.049352086190046
 21
0.1395111058277156
 72
     1
 10
1.049352086190046
 20
0.1395111058277158
 11
1.049352086190046
 21
0.1452947158816239
 72
     1
 10
1.049352086190046
 20
0.145294715881624
 11
1.049352086190046
 21
0.1498656335048746
 72
     1
 10
1.049352086190046
 20
0.1498656335048745
 11
1.049352086190046
 21
0.1525708704655738
 97
        0
 75
     0
 76
     1
 98
        1
 10
-0.3743130907707726
 20
-0.2500502867693841
1001
ACAD
1010
0.0
1020
0.0
1030
0.0
  0
HATCH
  5
87BF
330
87B8
100
AcDbEntity
  8
Kawneer Logo-English
100
AcDbHatch
 10
0.0
 20
0.0
 30
0.0
210
0.0
220
0.0
230
1.0
  2
SOLID
 70
     1
 71
     0
 91
        1
 92
        1
 93
       42
 72
     1
 10
0.9725793269260698
 20
0.2277578011663825
 11
0.9725793269260698
 21
0.1354998924032311
 72
     1
 10
0.9725793269260698
 20
0.1354998924032311
 11
0.9729524630585808
 21
0.1264513411898582
 72
     1
 10
0.9729524630585796
 20
0.1264513411898583
 11
0.9729524630585796
 21
0.1255185008585825
 72
     1
 10
0.9729524630585796
 20
0.1255185008585824
 11
0.9731390311248343
 21
0.1238393882622866
 72
     1
 10
0.9731390311248349
 20
0.1238393882622866
 11
0.9717397706279211
 21
0.1254252168254551
 72
     1
 10
0.97173977062792
 20
0.1254252168254551
 11
0.9710867823960281
 21
0.1262647731236031
 72
     1
 10
0.9710867823960294
 20
0.1262647731236031
 11
0.9641837639445897
 21
0.1339140638400625
 72
     1
 10
0.9641837639445899
 20
0.1339140638400624
 11
0.8755639324734129
 21
0.2277578011663823
 72
     1
 10
0.8755639324734115
 20
0.2277578011663825
 11
0.8529891964565429
 21
0.2277578011663825
 72
     1
 10
0.8529891964565434
 20
0.2277578011663825
 11
0.8529891964565434
 21
0.0926825211976832
 72
     1
 10
0.8529891964565434
 20
0.0926825211976832
 11
0.8756572165065401
 21
0.0926825211976832
 72
     1
 10
0.875657216506541
 20
0.0926825211976832
 11
0.875657216506541
 21
0.1927762887435495
 72
     1
 10
0.875657216506541
 20
0.1927762887435495
 11
0.875657216506541
 21
0.1931494248760597
 72
     1
 10
0.875657216506541
 20
0.1931494248760596
 11
0.8755639324734129
 21
0.193988981174208
 72
     1
 10
0.8755639324734115
 20
0.1939889811742079
 11
0.8754706484402849
 21
0.1952949576379935
 72
     1
 10
0.8754706484402859
 20
0.1952949576379937
 11
0.8753773644071577
 21
0.1967875021680344
 72
     1
 10
0.875377364407158
 20
0.1967875021680343
 11
0.8755639324734126
 21
0.1965076500686515
 72
     1
 10
0.8755639324734115
 20
0.1965076500686517
 11
0.8756572165065396
 21
0.1963210820023967
 72
     1
 10
0.875657216506541
 20
0.1963210820023967
 11
0.8764967728046894
 21
0.1954815257042487
 72
     1
 10
0.8764967728046887
 20
0.1954815257042488
 11
0.8781758854009835
 21
0.1936158450416976
 72
     1
 10
0.8781758854009842
 20
0.1936158450416973
 11
0.8797617139641527
 21
0.1917501643791464
 72
     1
 10
0.879761713964152
 20
0.1917501643791466
 11
0.8805079862291723
 21
0.1909106080809982
 72
     1
 10
0.8805079862291727
 20
0.190910608080998
 11
0.8816273946267036
 21
0.1897911996834678
 72
     1
 10
0.8816273946267028
 20
0.1897911996834681
 11
0.884519199653657
 21
0.1867128265902584
 72
     1
 10
0.8845191996536581
 20
0.1867128265902582
 11
0.8891834013100353
 21
0.1818620568676254
 72
     1
 10
0.889183401310035
 20
0.1818620568676252
 11
0.8951535794301982
 21
0.1756120266480794
 72
     1
 10
0.8951535794301985
 20
0.1756120266480794
 11
0.9021498819147662
 21
0.1681493039978751
 72
     1
 10
0.9021498819147669
 20
0.1681493039978752
 11
0.9099857406974814
 21
0.1598470250495227
 72
     1
 10
0.9099857406974813
 20
0.1598470250495225
 11
0.9183813036789613
 21
0.1509850419024051
 72
     1
 10
0.9183813036789612
 20
0.1509850419024052
 11
0.9271500027929521
 21
0.1418432066559046
 72
     1
 10
0.9271500027929509
 20
0.1418432066559046
 11
0.9358254178738118
 21
0.1326080873762767
 72
     1
 10
0.9358254178738132
 20
0.1326080873762767
 11
0.9442209808552931
 21
0.1237461042291589
 72
     1
 10
0.9442209808552931
 20
0.1237461042291589
 11
0.9520568396380092
 21
0.1154438252808068
 72
     1
 10
0.9520568396380092
 20
0.1154438252808068
 11
0.9590531421225751
 21
0.1079811026306025
 72
     1
 10
0.959053142122574
 20
0.1079811026306024
 11
0.9650233202427372
 21
0.101731072411056
 72
     1
 10
0.9650233202427376
 20
0.101731072411056
 11
0.9695942378659868
 21
0.0968803026884232
 72
     1
 10
0.9695942378659871
 20
0.096880302688423
 11
0.9725793269260696
 21
0.0938019295952138
 72
     1
 10
0.9725793269260698
 20
0.093801929595214
 11
0.9736054512904727
 21
0.0926825211976834
 72
     1
 10
0.9736054512904726
 20
0.0926825211976832
 11
0.9952473469760661
 21
0.0926825211976832
 72
     1
 10
0.9952473469760651
 20
0.0926825211976832
 11
0.9952473469760651
 21
0.2277578011663825
 72
     1
 10
0.9952473469760651
 20
0.2277578011663825
 11
0.9927286780816201
 21
0.2277578011663825
 72
     1
 10
0.9927286780816203
 20
0.2277578011663825
 11
0.9725793269260686
 21
0.2277578011663825
 97
        0
 75
     0
 76
     1
 98
        1
 10
-0.3743130907707726
 20
-0.2500502867693841
1001
ACAD
1010
0.0
1020
0.0
1030
0.0
  0
HATCH
  5
87C0
330
87B8
100
AcDbEntity
  8
Kawneer Logo-English
100
AcDbHatch
 10
0.0
 20
0.0
 30
0.0
210
0.0
220
0.0
230
1.0
  2
SOLID
 70
     1
 71
     0
 91
        2
 92
       16
 93
       32
 72
     1
 10
0.5269615006757409
 20
0.144641727649731
 11
0.5290137494045469
 21
0.148652941074216
 72
     1
 10
0.5290137494045464
 20
0.1486529410742159
 11
0.5322786905640116
 21
0.1551828233931449
 72
     1
 10
0.532278690564012
 20
0.1551828233931452
 11
0.5364764720547521
 21
0.1633918183083696
 72
     1
 10
0.5364764720547526
 20
0.1633918183083696
 11
0.5409541056448736
 21
0.1722538014554874
 72
     1
 10
0.5409541056448726
 20
0.1722538014554873
 11
0.545338455201869
 21
0.1808359325032223
 72
     1
 10
0.5453384552018701
 20
0.1808359325032223
 11
0.5490698165269726
 21
0.1882053711202994
 72
     1
 10
0.549069816526973
 20
0.1882053711202996
 11
0.5515884854214162
 21
0.1932427089091875
 72
     1
 10
0.5515884854214148
 20
0.1932427089091872
 11
0.5526146097858177
 21
0.1952016736048658
 72
     1
 10
0.5526146097858194
 20
0.1952016736048658
 11
0.552801177852074
 21
0.195761377803631
 72
     1
 10
0.5528011778520723
 20
0.1957613778036309
 11
0.5533608820508379
 21
0.1970673542674166
 72
     1
 10
0.5533608820508378
 20
0.1970673542674169
 11
0.5542004383489863
 21
0.1990263189630955
 72
     1
 10
0.5542004383489872
 20
0.1990263189630952
 11
0.5550399946471356
 21
0.2012651357581567
 72
     1
 10
0.5550399946471352
 20
0.2012651357581567
 11
0.5555064148127727
 21
0.2001457273606265
 72
     1
 10
0.5555064148127729
 20
0.2001457273606264
 11
0.5560661190115385
 21
0.198933034929968
 72
     1
 10
0.5560661190115379
 20
0.198933034929968
 11
0.5567191072434298
 21
0.197533774433055
 72
     1
 10
0.5567191072434304
 20
0.197533774433055
 11
0.5574653795084506
 21
0.1959479458698865
 72
     1
 10
0.557465379508451
 20
0.1959479458698865
 11
0.5583049358065995
 21
0.1942688332735902
 72
     1
 10
0.5583049358065986
 20
0.1942688332735903
 11
0.5606370366347874
 21
0.1896046316172126
 72
     1
 10
0.5606370366347871
 20
0.1896046316172126
 11
0.5639952618273804
 21
0.1828881812320289
 72
     1
 10
0.5639952618273814
 20
0.1828881812320287
 11
0.5680064752518651
 21
0.1748657543830587
 72
     1
 10
0.5680064752518637
 20
0.1748657543830589
 11
0.57239082480886
 21
0.1661903393021966
 72
     1
 10
0.5723908248088612
 20
0.1661903393021967
 11
0.5765886062996012
 21
0.1577947763207168
 72
     1
 10
0.5765886062996
 20
0.1577947763207165
 11
0.5803199676247008
 21
0.1503320536705122
 72
     1
 10
0.5803199676247015
 20
0.1503320536705122
 11
0.5831184886185295
 21
0.144641727649731
 72
     1
 10
0.5831184886185295
 20
0.144641727649731
 11
0.5791072751940441
 21
0.144641727649731
 72
     1
 10
0.5791072751940436
 20
0.144641727649731
 11
0.5724841088419869
 21
0.144641727649731
 72
     1
 10
0.5724841088419872
 20
0.144641727649731
 11
0.5641818298936356
 21
0.144641727649731
 72
     1
 10
0.5641818298936352
 20
0.144641727649731
 11
0.5550399946471351
 21
0.144641727649731
 72
     1
 10
0.5550399946471352
 20
0.144641727649731
 11
0.5458981594006351
 21
0.144641727649731
 72
     1
 10
0.5458981594006352
 20
0.144641727649731
 11
0.5375958804522815
 21
0.144641727649731
 72
     1
 10
0.5375958804522814
 20
0.144641727649731
 11
0.5310659981333528
 21
0.144641727649731
 72
     1
 10
0.5310659981333524
 20
0.144641727649731
 11
0.5269615006757405
 21
0.144641727649731
 97
        0
 92
        1
 93
      141
 72
     1
 10
0.5656743744236757
 20
0.2277578011663825
 11
0.544405614870593
 21
0.2277578011663825
 72
     1
 10
0.544405614870593
 20
0.2277578011663825
 11
0.4748157261574382
 21
0.0934287934627039
 72
     1
 10
0.4748157261574378
 20
0.0934287934627039
 11
0.4729500454948865
 21
0.0955743262246376
 72
     1
 10
0.4729500454948874
 20
0.0955743262246376
 11
0.4699649564348049
 21
0.0991191194834847
 72
     1
 10
0.4699649564348043
 20
0.0991191194834847
 11
0.4661403110765752
 21
0.1036900371067346
 72
     1
 10
0.4661403110765754
 20
0.1036900371067347
 11
0.4615693934533244
 21
0.1091005110281331
 72
     1
 10
0.461569393453325
 20
0.109100511028133
 11
0.456345487598182
 21
0.1152572572145517
 72
     1
 10
0.4563454875981812
 20
0.1152572572145516
 11
0.4506551615774008
 21
0.1219737075997353
 72
     1
 10
0.4506551615774015
 20
0.1219737075997354
 11
0.4447782674903648
 21
0.1290632941174296
 72
     1
 10
0.4447782674903636
 20
0.1290632941174296
 11
0.4387148053370722
 21
0.1362461646682511
 72
     1
 10
0.4387148053370727
 20
0.1362461646682512
 11
0.4326513431837832
 21
0.1433357511859454
 72
     1
 10
0.4326513431837844
 20
0.1433357511859453
 11
0.4268677331298759
 21
0.1502387696373844
 72
     1
 10
0.4268677331298756
 20
0.1502387696373844
 11
0.4214572592084763
 21
0.1566753679231857
 72
     1
 10
0.4214572592084754
 20
0.1566753679231858
 11
0.4165132054527153
 21
0.1625522620102216
 72
     1
 10
0.4165132054527163
 20
0.1625522620102216
 11
0.4123154239619763
 21
0.1674963157659821
 72
     1
 10
0.4123154239619753
 20
0.1674963157659822
 11
0.4088639147362555
 21
0.1715075291904667
 72
     1
 10
0.4088639147362568
 20
0.1715075291904669
 11
0.4065318139080681
 21
0.1743993342174211
 72
     1
 10
0.4065318139080665
 20
0.1743993342174211
 11
0.405319121477409
 21
0.1757985947143345
 72
     1
 10
0.4053191214774104
 20
0.1757985947143345
 11
0.4067183819743243
 21
0.1769180031118651
 72
     1
 10
0.4067183819743235
 20
0.1769180031118651
 11
0.4094236189350213
 21
0.1788769678075437
 72
     1
 10
0.4094236189350218
 20
0.1788769678075437
 11
0.4132482642932526
 21
0.1816754888013702
 72
     1
 10
0.4132482642932525
 20
0.1816754888013703
 11
0.4179124659496298
 21
0.1852202820602174
 72
     1
 10
0.417912465949629
 20
0.1852202820602174
 11
0.4232296558379
 21
0.189138211451575
 72
     1
 10
0.4232296558379001
 20
0.1891382114515751
 11
0.4291065499249351
 21
0.1935225610085696
 72
     1
 10
0.4291065499249367
 20
0.1935225610085698
 11
0.4352632961113562
 21
0.1981867626649482
 72
     1
 10
0.4352632961113554
 20
0.1981867626649479
 11
0.4416066103640296
 21
0.2028509643213252
 72
     1
 10
0.4416066103640293
 20
0.2028509643213252
 11
0.4479499246167016
 21
0.2076084500108307
 72
     1
 10
0.4479499246167018
 20
0.2076084500108307
 11
0.4540133867699932
 21
0.2120860836009535
 72
     1
 10
0.4540133867699927
 20
0.2120860836009535
 11
0.4596104287576467
 21
0.2162838650916932
 72
     1
 10
0.4596104287576468
 20
0.216283865091693
 11
0.4646477665465351
 21
0.2200152264167952
 72
     1
 10
0.464647766546535
 20
0.2200152264167951
 11
0.4689388320704013
 21
0.223186883543132
 72
     1
 10
0.4689388320704016
 20
0.2231868835431323
 11
0.4721104891967386
 21
0.2256122684044488
 72
     1
 10
0.4721104891967376
 20
0.2256122684044488
 11
0.4742560219586717
 21
0.2271980969676172
 72
     1
 10
0.4742560219586727
 20
0.2271980969676173
 11
0.475002294223693
 21
0.2277578011663825
 72
     1
 10
0.4750022942236929
 20
0.2277578011663825
 11
0.4674462875403612
 21
0.2277578011663825
 72
     1
 10
0.4674462875403611
 20
0.2277578011663825
 11
0.4395543616352215
 21
0.2277578011663825
 72
     1
 10
0.439554361635222
 20
0.2277578011663825
 11
0.4386215213039473
 21
0.2270115289013622
 72
     1
 10
0.4386215213039466
 20
0.2270115289013622
 11
0.4359162843432469
 21
0.2250525642056836
 72
     1
 10
0.4359162843432465
 20
0.2250525642056836
 11
0.4318117868856346
 21
0.2220674751456017
 72
     1
 10
0.4318117868856351
 20
0.2220674751456017
 11
0.4264013129642376
 21
0.2180562617211167
 72
     1
 10
0.4264013129642379
 20
0.2180562617211168
 11
0.4200579987115638
 21
0.2132987760316117
 72
     1
 10
0.4200579987115641
 20
0.2132987760316114
 11
0.4128751281607416
 21
0.2079815861433408
 72
     1
 10
0.4128751281607408
 20
0.2079815861433408
 11
0.4051325534111546
 21
0.20229126012256
 72
     1
 10
0.4051325534111552
 20
0.20229126012256
 11
0.397016842529058
 21
0.1963210820023964
 72
     1
 10
0.3970168425290583
 20
0.1963210820023967
 11
0.3889011316469611
 21
0.1903509038822331
 72
     1
 10
0.3889011316469611
 20
0.190350903882233
 11
0.3808787047979902
 21
0.1844740097951972
 72
     1
 10
0.3808787047979898
 20
0.1844740097951974
 11
0.3733226981146581
 21
0.1787836837744166
 72
     1
 10
0.373322698114658
 20
0.1787836837744166
 11
0.3663263956300919
 21
0.173653061952401
 72
     1
 10
0.3663263956300931
 20
0.173653061952401
 11
0.3601696494436735
 21
0.169082144329151
 72
     1
 10
0.3601696494436726
 20
0.1690821443291508
 11
0.3550390276216579
 21
0.1653507830040483
 72
     1
 10
0.3550390276216584
 20
0.1653507830040482
 11
0.3513076662965558
 21
0.1625522620102218
 72
     1
 10
0.3513076662965551
 20
0.1625522620102216
 11
0.3490688495014928
 21
0.1609664334470531
 72
     1
 10
0.3490688495014926
 20
0.1609664334470531
 11
0.3490688495014926
 21
0.1631119662089868
 72
     1
 10
0.3490688495014926
 20
0.1631119662089868
 11
0.3490688495014926
 21
0.1662836233353237
 72
     1
 10
0.3490688495014926
 20
0.1662836233353238
 11
0.3490688495014926
 21
0.1702948367598088
 72
     1
 10
0.3490688495014926
 20
0.1702948367598088
 11
0.3490688495014926
 21
0.1749590384161865
 72
     1
 10
0.3490688495014926
 20
0.1749590384161865
 11
0.3490688495014926
 21
0.1801829442713294
 72
     1
 10
0.3490688495014926
 20
0.1801829442713296
 11
0.3490688495014926
 21
0.185779986258983
 72
     1
 10
0.3490688495014926
 20
0.1857799862589829
 11
0.3490688495014926
 21
0.1916568803460187
 72
     1
 10
0.3490688495014926
 20
0.1916568803460186
 11
0.3490688495014926
 21
0.1975337744330549
 72
     1
 10
0.3490688495014926
 20
0.197533774433055
 11
0.3490688495014926
 21
0.2033173844869632
 72
     1
 10
0.3490688495014926
 20
0.2033173844869631
 11
0.3490688495014926
 21
0.2088211424414888
 72
     1
 10
0.3490688495014926
 20
0.2088211424414888
 11
0.3490688495014926
 21
0.2139517642635044
 72
     1
 10
0.3490688495014926
 20
0.2139517642635044
 11
0.3490688495014926
 21
0.2185226818867544
 72
     1
 10
0.3490688495014926
 20
0.2185226818867545
 11
0.3490688495014926
 21
0.2222540432118567
 72
     1
 10
0.3490688495014926
 20
0.2222540432118567
 11
0.3490688495014926
 21
0.2252391322719387
 72
     1
 10
0.3490688495014926
 20
0.2252391322719387
 11
0.3490688495014926
 21
0.2271048129344895
 72
     1
 10
0.3490688495014926
 20
0.2271048129344895
 11
0.3490688495014926
 21
0.2277578011663825
 72
     1
 10
0.3490688495014926
 20
0.2277578011663825
 11
0.3258411252527322
 21
0.2277578011663825
 72
     1
 10
0.3258411252527336
 20
0.2277578011663825
 11
0.3258411252527336
 21
0.0926825211976832
 72
     1
 10
0.3258411252527336
 20
0.0926825211976832
 11
0.3486957133689848
 21
0.0926825211976832
 72
     1
 10
0.3486957133689845
 20
0.0926825211976832
 11
0.3486957133689845
 21
0.0943616337939795
 72
     1
 10
0.3486957133689845
 20
0.0943616337939795
 11
0.3486957133689845
 21
0.0988392673841017
 72
     1
 10
0.3486957133689845
 20
0.0988392673841017
 11
0.3486957133689845
 21
0.1051825816367752
 72
     1
 10
0.3486957133689845
 20
0.1051825816367753
 11
0.3486957133689845
 21
0.1125520202538523
 72
     1
 10
0.3486957133689845
 20
0.1125520202538524
 11
0.3486957133689845
 21
0.1200147429040567
 72
     1
 10
0.3486957133689845
 20
0.1200147429040567
 11
0.3486957133689845
 21
0.1267311932892408
 72
     1
 10
0.3486957133689845
 20
0.1267311932892408
 11
0.3486957133689845
 21
0.1317685310781287
 72
     1
 10
0.3486957133689845
 20
0.1317685310781289
 11
0.3486957133689845
 21
0.1342871999725727
 72
     1
 10
0.3486957133689845
 20
0.1342871999725725
 11
0.3507479620977905
 21
0.1356864604694859
 72
     1
 10
0.35074796209779
 20
0.1356864604694859
 11
0.3548524595554018
 21
0.1387648335626952
 72
     1
 10
0.3548524595554015
 20
0.1387648335626952
 11
0.3605427855761835
 21
0.1428693310203079
 72
     1
 10
0.3605427855761842
 20
0.1428693310203079
 11
0.3668860998288565
 21
0.1476268167098129
 72
     1
 10
0.3668860998288568
 20
0.1476268167098129
 11
0.373322698114659
 21
0.1522910183661906
 72
     1
 10
0.373322698114658
 20
0.1522910183661908
 11
0.3791995922016947
 21
0.1565820838900582
 72
     1
 10
0.3791995922016946
 20
0.1565820838900582
 11
0.3836772257918156
 21
0.1599403090826502
 72
     1
 10
0.3836772257918159
 20
0.1599403090826503
 11
0.386195894686261
 21
0.1618059897452011
 72
     1
 10
0.3861958946862609
 20
0.1618059897452011
 11
0.3873153030837921
 21
0.1604067292482882
 72
     1
 10
0.3873153030837915
 20
0.1604067292482878
 11
0.3894608358457238
 21
0.1577947763207163
 72
     1
 10
0.3894608358457248
 20
0.1577947763207165
 11
0.3925392089389353
 21
0.1541566990287417
 72
     1
 10
0.3925392089389348
 20
0.1541566990287417
 11
0.396457138330292
 21
0.149492497372364
 72
     1
 10
0.3964571383302933
 20
0.149492497372364
 11
0.4009347719204161
 21
0.1442685915172211
 72
     1
 10
0.4009347719204146
 20
0.1442685915172209
 11
0.4057855416430466
 21
0.138391697430185
 72
     1
 10
0.4057855416430463
 20
0.1383916974301853
 11
0.4109161634650628
 21
0.1322349512437666
 72
     1
 10
0.410916163465064
 20
0.1322349512437666
 11
0.4162333533533335
 21
0.1259849210242201
 72
     1
 10
0.4162333533533334
 20
0.1259849210242201
 11
0.4215505432416044
 21
0.1196416067715466
 72
     1
 10
0.4215505432416045
 20
0.1196416067715466
 11
0.4265878810304927
 21
0.113671428651383
 72
     1
 10
0.4265878810304931
 20
0.1136714286513832
 11
0.4312520826868704
 21
0.1079811026306024
 72
     1
 10
0.4312520826868696
 20
0.1079811026306024
 11
0.4355431482107378
 21
0.1029437648417141
 72
     1
 10
0.435543148210738
 20
0.1029437648417139
 11
0.4390879414695842
 21
0.0987459833509739
 72
     1
 10
0.4390879414695843
 20
0.0987459833509741
 11
0.4417931784302841
 21
0.0954810421915098
 72
     1
 10
0.4417931784302845
 20
0.0954810421915096
 11
0.4435655750597076
 21
0.0934287934627037
 72
     1
 10
0.4435655750597074
 20
0.0934287934627039
 11
0.4442185632915993
 21
0.0926825211976832
 72
     1
 10
0.4442185632915985
 20
0.0926825211976832
 11
0.4743493059918004
 21
0.0926825211976832
 72
     1
 10
0.4743493059918001
 20
0.0926825211976832
 11
0.4753754303562029
 21
0.0926825211976832
 72
     1
 10
0.4753754303562033
 20
0.0926825211976832
 11
0.5008419714000258
 21
0.0926825211976832
 72
     1
 10
0.5008419714000265
 20
0.0926825211976832
 11
0.5014949596319184
 21
0.0939884976614689
 72
     1
 10
0.501494959631919
 20
0.0939884976614688
 11
0.5031740722282155
 21
0.0973467228540609
 72
     1
 10
0.503174072228215
 20
0.0973467228540612
 11
0.5055061730564038
 21
0.1021042085435666
 72
     1
 10
0.505506173056403
 20
0.1021042085435665
 11
0.5083046940502291
 21
0.1077012505312196
 72
     1
 10
0.5083046940502292
 20
0.1077012505312194
 11
0.5111032150440553
 21
0.1134848605851279
 72
     1
 10
0.5111032150440549
 20
0.1134848605851281
 11
0.5137151679716264
 21
0.1186154824071433
 72
     1
 10
0.5137151679716277
 20
0.1186154824071433
 11
0.5156741326673071
 21
0.1226266958316283
 72
     1
 10
0.5156741326673076
 20
0.122626695831628
 11
0.5167002570317104
 21
0.1247722285935621
 72
     1
 10
0.5167002570317103
 20
0.1247722285935622
 11
0.5180062334954961
 21
0.1247722285935622
 72
     1
 10
0.5180062334954961
 20
0.1247722285935622
 11
0.5207114704561957
 21
0.1247722285935622
 72
     1
 10
0.5207114704561944
 20
0.1247722285935622
 11
0.5246293998475517
 21
0.1247722285935622
 72
     1
 10
0.5246293998475525
 20
0.1247722285935622
 11
0.5295734536033125
 21
0.1247722285935622
 72
     1
 10
0.5295734536033115
 20
0.1247722285935622
 11
0.5352637796240919
 21
0.1247722285935622
 72
     1
 10
0.5352637796240929
 20
0.1247722285935622
 11
0.5415138098436386
 21
0.1247722285935622
 72
     1
 10
0.5415138098436394
 20
0.1247722285935622
 11
0.5482302602288245
 21
0.1247722285935622
 72
     1
 10
0.5482302602288236
 20
0.1247722285935622
 11
0.5551332786802616
 21
0.1247722285935622
 72
     1
 10
0.5551332786802608
 20
0.1247722285935622
 11
0.5620362971317004
 21
0.1247722285935622
 72
     1
 10
0.5620362971317015
 20
0.1247722285935622
 11
0.5687527475168847
 21
0.1247722285935622
 72
     1
 10
0.5687527475168839
 20
0.1247722285935622
 11
0.5750027777364317
 21
0.1247722285935622
 72
     1
 10
0.5750027777364322
 20
0.1247722285935622
 11
0.5806931037572126
 21
0.1247722285935622
 72
     1
 10
0.5806931037572119
 20
0.1247722285935622
 11
0.585637157512972
 21
0.1247722285935622
 72
     1
 10
0.5856371575129727
 20
0.1247722285935622
 11
0.5895550869043299
 21
0.1247722285935622
 72
     1
 10
0.5895550869043289
 20
0.1247722285935622
 11
0.5922603238650286
 21
0.1247722285935622
 72
     1
 10
0.5922603238650291
 20
0.1247722285935622
 11
0.5935663003288148
 21
0.1247722285935622
 72
     1
 10
0.5935663003288148
 20
0.1247722285935622
 11
0.5945924246932176
 21
0.1226266958316281
 72
     1
 10
0.5945924246932175
 20
0.122626695831628
 11
0.5965513893888953
 21
0.1186154824071431
 72
     1
 10
0.5965513893888957
 20
0.1186154824071433
 11
0.5991633423164672
 21
0.1134848605851281
 72
     1
 10
0.5991633423164667
 20
0.1134848605851281
 11
0.6019618633102946
 21
0.1077012505312196
 72
     1
 10
0.6019618633102959
 20
0.1077012505312194
 11
0.604760384304122
 21
0.1021042085435664
 72
     1
 10
0.6047603843041221
 20
0.1021042085435665
 11
0.6070924851323109
 21
0.0973467228540611
 72
     1
 10
0.6070924851323101
 20
0.0973467228540612
 11
0.6087715977286067
 21
0.0939884976614691
 72
     1
 10
0.6087715977286062
 20
0.0939884976614688
 11
0.609424585960498
 21
0.0926825211976832
 72
     1
 10
0.6094245859604986
 20
0.0926825211976832
 11
0.6363836715343633
 21
0.0926825211976832
 72
     1
 10
0.6363836715343641
 20
0.0926825211976832
 11
0.5671669189537184
 21
0.2277578011663825
 72
     1
 10
0.5671669189537179
 20
0.2277578011663825
 11
0.5656743744236758
 21
0.2277578011663825
 97
        0
 75
     0
 76
     1
 98
        1
 10
-0.3743130907707726
 20
-0.2500502867693841
1001
ACAD
1010
0.0
1020
0.0
1030
0.0
  0
HATCH
  5
87C1
330
87B8
100
AcDbEntity
  8
Kawneer Logo-English
100
AcDbHatch
 10
0.0
 20
0.0
 30
0.0
210
0.0
220
0.0
230
1.0
  2
SOLID
 70
     1
 71
     0
 91
        1
 92
        1
 93
       69
 72
     1
 10
0.8092389849197205
 20
0.2277578011663825
 11
0.778921674153266
 21
0.1309289747799811
 72
     1
 10
0.778921674153267
 20
0.1309289747799809
 11
0.7781754018882468
 21
0.1287834420180468
 72
     1
 10
0.7781754018882468
 20
0.1287834420180467
 11
0.7776156976894812
 21
0.1270110453886236
 72
     1
 10
0.7776156976894813
 20
0.1270110453886237
 11
0.7771492775238438
 21
0.1253319327923275
 72
     1
 10
0.7771492775238436
 20
0.1253319327923274
 11
0.7766828573582045
 21
0.1238393882622867
 72
     1
 10
0.7766828573582046
 20
0.1238393882622866
 11
0.7764030052588217
 21
0.1248655126266895
 72
     1
 10
0.776403005258822
 20
0.1248655126266896
 11
0.7761231531594392
 21
0.1259849210242202
 72
     1
 10
0.7761231531594391
 20
0.1259849210242201
 11
0.7759365850931844
 21
0.1268244773223681
 72
     1
 10
0.7759365850931843
 20
0.1268244773223682
 11
0.7758433010600562
 21
0.1271976134548783
 72
     1
 10
0.7758433010600552
 20
0.1271976134548783
 11
0.7755634489606744
 21
0.1280371697530267
 72
     1
 10
0.775563448960674
 20
0.1280371697530267
 11
0.7750970287950349
 21
0.1291565781505569
 72
     1
 10
0.7750970287950363
 20
0.1291565781505568
 11
0.773977620397507
 21
0.1323282352768938
 72
     1
 10
0.7739776203975062
 20
0.1323282352768939
 11
0.7721119397349549
 21
0.1372722890326544
 72
     1
 10
0.7721119397349554
 20
0.1372722890326546
 11
0.7697798389067666
 21
0.1436156032853281
 72
     1
 10
0.769779838906767
 20
0.1436156032853281
 11
0.7670746019460673
 21
0.1511716099686602
 72
     1
 10
0.7670746019460668
 20
0.15117160996866
 11
0.7639962288528581
 21
0.1595671729501399
 72
     1
 10
0.7639962288528582
 20
0.15956717295014
 11
0.7606380036602665
 21
0.1686157241635125
 72
     1
 10
0.7606380036602652
 20
0.1686157241635125
 11
0.7572797784676718
 21
0.1778508434431408
 72
     1
 10
0.7572797784676726
 20
0.1778508434431408
 11
0.753921553275081
 21
0.187179246755896
 72
     1
 10
0.7539215532750814
 20
0.1871792467558961
 11
0.7505633280824898
 21
0.1962277979692689
 72
     1
 10
0.7505633280824902
 20
0.1962277979692689
 11
0.7474849549892814
 21
0.2046233609507488
 72
     1
 10
0.7474849549892797
 20
0.2046233609507488
 11
0.74477971802858
 21
0.2121793676340809
 72
     1
 10
0.7447797180285814
 20
0.2121793676340809
 11
0.7424476172003926
 21
0.2185226818867544
 72
     1
 10
0.7424476172003929
 20
0.2185226818867545
 11
0.7405819365378416
 21
0.2234667356425151
 72
     1
 10
0.7405819365378408
 20
0.2234667356425151
 11
0.7394625281403098
 21
0.2266383927688516
 72
     1
 10
0.7394625281403103
 20
0.2266383927688516
 11
0.7390893920078009
 21
0.2277578011663822
 72
     1
 10
0.7390893920078004
 20
0.2277578011663825
 11
0.7191266089185034
 21
0.2277578011663825
 72
     1
 10
0.7191266089185029
 20
0.2277578011663825
 11
0.6843316645619254
 21
0.1336342117406798
 72
     1
 10
0.6843316645619267
 20
0.1336342117406795
 11
0.6832122561643957
 21
0.130649122680598
 72
     1
 10
0.6832122561643961
 20
0.1306491226805981
 11
0.6823726998662476
 21
0.1282237378192816
 72
     1
 10
0.6823726998662468
 20
0.1282237378192818
 11
0.6817197116343549
 21
0.1260782050573481
 72
     1
 10
0.6817197116343552
 20
0.1260782050573481
 11
0.6811600074355896
 21
0.1241192403616695
 72
     1
 10
0.6811600074355884
 20
0.1241192403616695
 11
0.6808801553362055
 21
0.1250520806929446
 72
     1
 10
0.6808801553362059
 20
0.1250520806929445
 11
0.6805070192036949
 21
0.1261714890904751
 72
     1
 10
0.680507019203696
 20
0.1261714890904752
 11
0.6802271671043131
 21
0.1272908974880058
 72
     1
 10
0.680227167104313
 20
0.1272908974880061
 11
0.6798540309718037
 21
0.1286901579849195
 72
     1
 10
0.6798540309718031
 20
0.1286901579849194
 11
0.6794808948392922
 21
0.12980956638245
 72
     1
 10
0.6794808948392932
 20
0.1298095663824503
 11
0.6784547704748904
 21
0.1328879394756595
 72
     1
 10
0.67845477047489
 20
0.1328879394756595
 11
0.6769622259448497
 21
0.1378319932314196
 72
     1
 10
0.6769622259448496
 20
0.1378319932314196
 11
0.6750032612491701
 21
0.1441753074840938
 72
     1
 10
0.6750032612491697
 20
0.1441753074840937
 11
0.6725778763878547
 21
0.1516380301342981
 72
     1
 10
0.6725778763878556
 20
0.1516380301342981
 11
0.6699659234602841
 21
0.160033593115778
 72
     1
 10
0.6699659234602829
 20
0.160033593115778
 11
0.6671674024664549
 21
0.168988860296023
 72
     1
 10
0.6671674024664554
 20
0.168988860296023
 11
0.6642755974395012
 21
0.1782239795756509
 72
     1
 10
0.6642755974395019
 20
0.178223979575651
 11
0.6613837924125477
 21
0.1874590988552789
 72
     1
 10
0.6613837924125466
 20
0.1874590988552789
 11
0.6585852714187205
 21
0.1964143660355239
 72
     1
 10
0.6585852714187204
 20
0.1964143660355237
 11
0.6559733184911489
 21
0.2047166449838762
 72
     1
 10
0.6559733184911494
 20
0.2047166449838765
 11
0.6536412176629606
 21
0.2122726516672082
 72
     1
 10
0.6536412176629614
 20
0.2122726516672082
 11
0.6515889689341538
 21
0.2186159659198823
 72
     1
 10
0.6515889689341537
 20
0.2186159659198821
 11
0.6500964244041133
 21
0.2234667356425149
 72
     1
 10
0.6500964244041132
 20
0.2234667356425151
 11
0.6490703000397104
 21
0.2266383927688516
 72
     1
 10
0.6490703000397105
 20
0.2266383927688516
 11
0.6487904479403276
 21
0.2277578011663822
 72
     1
 10
0.648790447940328
 20
0.2277578011663825
 11
0.6237903270621445
 21
0.2277578011663825
 72
     1
 10
0.6237903270621437
 20
0.2277578011663825
 11
0.6676338226320932
 21
0.0926825211976832
 72
     1
 10
0.6676338226320926
 20
0.0926825211976832
 11
0.6922608073777669
 21
0.0926825211976832
 72
     1
 10
0.6922608073777666
 20
0.0926825211976832
 11
0.726029627369941
 21
0.1855001341596003
 72
     1
 10
0.7260296273699423
 20
0.1855001341596003
 11
0.7269624677012189
 21
0.1882986551534267
 72
     1
 10
0.7269624677012177
 20
0.1882986551534266
 11
0.7278020239993661
 21
0.1906307559816158
 72
     1
 10
0.727802023999367
 20
0.1906307559816159
 11
0.7284550122312589
 21
0.1927762887435496
 72
     1
 10
0.7284550122312581
 20
0.1927762887435495
 11
0.7290147164300237
 21
0.1947352534392281
 72
     1
 10
0.7290147164300232
 20
0.1947352534392282
 11
0.7298542727281716
 21
0.192216584544784
 72
     1
 10
0.729854272728173
 20
0.1922165845447839
 11
0.7306938290263214
 21
0.1894180635509575
 72
     1
 10
0.7306938290263206
 20
0.1894180635509575
 11
0.7318132374238499
 21
0.1863396904577483
 72
     1
 10
0.7318132374238511
 20
0.1863396904577481
 11
0.7331192138876387
 21
0.1827016131657736
 72
     1
 10
0.7331192138876382
 20
0.1827016131657737
 11
0.7654887733828987
 21
0.0926825211976834
 72
     1
 10
0.7654887733828986
 20
0.0926825211976832
 11
0.7895560539298075
 21
0.0926825211976832
 72
     1
 10
0.7895560539298075
 20
0.0926825211976832
 11
0.8341458217647785
 21
0.2277578011663825
 72
     1
 10
0.8341458217647783
 20
0.2277578011663825
 11
0.830601028505932
 21
0.2277578011663825
 72
     1
 10
0.8306010285059324
 20
0.2277578011663825
 11
0.8092389849197216
 21
0.2277578011663825
 97
        0
 75
     0
 76
     1
 98
        1
 10
-0.3743130907707726
 20
-0.2500502867693841
1001
ACAD
1010
0.0
1020
0.0
1030
0.0
  0
ENDBLK
  5
87C5
330
87B8
100
AcDbEntity
  8
0
100
AcDbBlockEnd
  0
ENDSEC
  0
SECTION
  2
ENTITIES
  0
LINE
  5
5BA1
330
17
100
AcDbEntity
  8
0
100
AcDbLine
 10
-0.0000000410553014
 20
-0.0000000154741571
 30
0.0
 11
64.2184980768819
 21
-0.0000000154741571
 31
0.0
  0
LINE
  5
5BA2
330
17
100
AcDbEntity
  8
0
100
AcDbLine
 10
-0.0000000410553014
 20
-0.0000000154741571
 30
0.0
 11
-0.0000000410553014
 21
38.04025398121943
 31
0.0
  0
MTEXT
  5
5BA3
330
17
100
AcDbEntity
  8
0
 62
     2
100
AcDbMText
 10
36.76257372866701
 20
5.022165527593344
 30
0.0
 40
0.5
 41
26.78125
 71
     2
 72
     5
  1
TRIFAB™ VG 450 FRAMING SYSTEM 2" SIGHTLINE \PFRONT SET - STICK ASSEMBLY\PSTOOL TRIMS and BRAKE METAL ADAPTOR
 73
     1
 44
1.0
1001
ACAD
1000
MTEXTBEGIN
1070
    73
1070
     1
1070
    44
1040
1.0
1070
    74
1070
     0
1000
MTEXTEND
  0
MTEXT
  5
5BA5
330
17
100
AcDbEntity
  8
0
 62
     2
100
AcDbMText
 10
36.70901299546449
 20
1.53902731145709
 30
0.0
 40
0.375
 41
9.6875
 71
     2
 72
     5
  1
DETAIL SCALE: 1" = 1"
 73
     1
 44
1.0
1001
ACAD
1000
MTEXTBEGIN
1070
    73
1070
     1
1070
    44
1040
1.0
1070
    74
1070
     0
1000
MTEXTEND
  0
MTEXT
  5
65CA
330
17
100
AcDbEntity
  8
0
 62
     7
100
AcDbMText
 10
15.70702002654144
 20
26.47993763610895
 30
0.0
 40
0.375
 41
11.9375
 71
     2
 72
     5
  1
STOOL TRIM ADAPTOR\PFOR UNEQUAL OR EQUAL LEG \PRECEPTOR
 73
     1
 44
1.0
1001
ACAD
1000
MTEXTBEGIN
1070
    73
1070
     1
1070
    44
1040
1.0
1070
    74
1070
     0
1000
MTEXTEND
  0
LWPOLYLINE
  5
765F
330
17
100
AcDbEntity
  8
R-SWTS-DET1
100
AcDbPolyline
 90
       22
 70
     1
 43
0.0
 10
17.48894459754752
 20
21.49800539788484
 10
17.48894459754752
 20
21.40800539788484
 10
17.48894459754752
 20
21.49800539788484
 10
21.73889459754752
 20
21.49800539788484
 10
21.73889459754752
 20
20.49800539788484
 10
21.64889459754752
 20
20.49800539788484
 10
21.64889459754752
 20
21.40800539788484
 10
20.96194459754752
 20
21.40800539788484
 10
20.96194459754752
 20
19.74800539788484
 10
20.87194459754752
 20
19.74800539788484
 10
20.87194459754752
 20
21.40800539788484
 10
17.76894459754752
 20
21.40800539788484
 10
17.76894459754752
 20
21.24000539788484
 10
17.80894459754752
 20
21.24000539788484
 10
17.73493062001423
 20
21.11198122052996
 42
-0.7670963001465942
 10
17.70694459754752
 20
21.11948876476853
 10
17.70694459754752
 20
21.40800539788484
 10
17.57894459754752
 20
21.40800539788484
 10
17.57894459754752
 20
21.33800539788484
 10
17.52894459754752
 20
21.33800539788484
 10
17.52894459754752
 20
21.40800539788484
 10
17.48894459754752
 20
21.40800539788484
  0
LWPOLYLINE
  5
7660
330
17
100
AcDbEntity
  8
R-SWTS-DET1
100
AcDbPolyline
 90
       20
 70
     1
 43
0.0
 10
17.44057382845378
 20
13.6850781870313
 10
17.44057382845378
 20
13.9735948201476
 10
17.31257382845378
 20
13.9735948201476
 10
17.31257382845378
 20
13.9035948201476
 10
17.26257382845377
 20
13.9035948201476
 10
17.26257382845377
 20
13.9735948201476
 10
17.22257382845377
 20
13.9735948201476
 10
17.22257382845377
 20
14.0635948201476
 10
23.34757382845378
 20
14.0635948201476
 10
23.34757382845378
 20
12.6885948201476
 10
23.25757382845378
 20
12.6885948201476
 10
23.25757382845378
 20
13.9735948201476
 10
22.57057382845378
 20
13.9735948201476
 10
22.57057382845378
 20
12.0635948201476
 10
22.48057382845378
 20
12.0635948201476
 10
22.48057382845378
 20
13.9735948201476
 10
17.50257382845378
 20
13.9735948201476
 10
17.50257382845378
 20
13.8055948201476
 10
17.54257382845377
 20
13.8055948201476
 10
17.46855985092049
 20
13.67757064279273
 42
-0.7670963001465966
  0
LWPOLYLINE
  5
7661
330
17
100
AcDbEntity
  8
R-SWTS-DET1
100
AcDbPolyline
 90
       20
 70
     1
 43
0.0
 10
13.1786395534029
 20
6.615449948351132
 10
13.1786395534029
 20
6.903966581467443
 10
13.0506395534029
 20
6.903966581467443
 10
13.0506395534029
 20
6.833966581467443
 10
13.0006395534029
 20
6.833966581467443
 10
13.0006395534029
 20
6.903966581467443
 10
12.9606395534029
 20
6.903966581467443
 10
12.9606395534029
 20
6.993966581467443
 10
19.7106395534029
 20
6.993966581467443
 10
19.7106395534029
 20
5.743966581467443
 10
19.6206395534029
 20
5.743966581467443
 10
19.6206395534029
 20
6.903966581467443
 10
18.9486395534029
 20
6.903966581467443
 10
18.9486395534029
 20
4.993966581467443
 10
18.8586395534029
 20
4.993966581467443
 10
18.8586395534029
 20
6.903966581467443
 10
13.2406395534029
 20
6.903966581467443
 10
13.2406395534029
 20
6.735966581467444
 10
13.2806395534029
 20
6.735966581467444
 10
13.20662557586961
 20
6.607942404112565
 42
-0.7670963001465966
  0
LWPOLYLINE
  5
7662
330
17
100
AcDbEntity
  8
R-SWTS-DET1
100
AcDbPolyline
 90
       20
 70
     1
 43
0.0
 10
7.922658081862055
 20
13.55199217660105
 10
7.922658081862055
 20
13.84050880971736
 10
7.794658081862056
 20
13.84050880971736
 10
7.794658081862056
 20
13.77050880971736
 10
7.744658081862056
 20
13.77050880971736
 10
7.744658081862056
 20
13.84050880971736
 10
7.704658081862056
 20
13.84050880971736
 10
7.704658081862056
 20
13.93050880971736
 10
12.70460808186205
 20
13.93050880971736
 10
12.70460808186205
 20
12.68050880971736
 10
12.61460808186205
 20
12.68050880971736
 10
12.61460808186205
 20
13.84050880971736
 10
11.94260808186205
 20
13.84050880971736
 10
11.94260808186205
 20
11.93050880971736
 10
11.85260808186205
 20
11.93050880971736
 10
11.85260808186205
 20
13.84050880971736
 10
7.984658081862056
 20
13.84050880971736
 10
7.984658081862056
 20
13.67250880971736
 10
8.024658081862055
 20
13.67250880971736
 10
7.950644104328766
 20
13.54448463236248
 42
-0.7670963001465942
  0
LWPOLYLINE
  5
7663
330
17
100
AcDbEntity
  8
R-SWTS-DET1
100
AcDbPolyline
 90
       34
 70
     1
 43
0.0
 10
11.2718833790919
 20
21.27491931184277
 42
0.4142135623730951
 10
11.2558833790919
 20
21.25891931184276
 10
11.2558833790919
 20
19.71541931184276
 10
11.1978833790919
 20
19.61491931184276
 10
11.1658833790919
 20
19.61491931184276
 10
11.1658833790919
 20
21.25891931184276
 42
0.4142135623730951
 10
11.1498833790919
 20
21.27491931184276
 10
9.582883379091907
 20
21.27491931184276
 10
9.582883379091907
 20
21.10691931184276
 10
9.622883379091906
 20
21.10691931184276
 10
9.588092006001977
 20
21.04641257603419
 42
-0.7680280789598953
 10
9.520883379091905
 20
21.06435753650748
 10
9.520883379091905
 20
21.27491931184276
 10
9.392883379091905
 20
21.27491931184276
 10
9.392883379091905
 20
21.20491931184277
 10
9.342883379091905
 20
21.20491931184277
 10
9.342883379091905
 20
21.27491931184276
 10
9.302883379091905
 20
21.27491931184276
 10
9.302883379091905
 20
21.36491931184276
 10
12.0528833790919
 20
21.36491931184276
 10
12.0528833790919
 20
20.13091931184276
 42
-0.4142135623730951
 10
12.0368833790919
 20
20.11491931184276
 10
11.9278833790919
 20
20.11491931184276
 10
11.9278833790919
 20
20.17691931184276
 10
11.9468833790919
 20
20.17691931184276
 42
0.4142135623730951
 10
11.9628833790919
 20
20.19291931184277
 10
11.9628833790919
 20
20.72391931184276
 42
0.4142135623730951
 10
11.9468833790919
 20
20.73991931184276
 10
11.9278833790919
 20
20.73991931184276
 10
11.9278833790919
 20
20.80191931184276
 10
11.9468833790919
 20
20.80191931184276
 42
0.4142135623730951
 10
11.9628833790919
 20
20.81791931184277
 10
11.9628833790919
 20
21.25891931184276
 42
0.4142135623730951
 10
11.9468833790919
 20
21.27491931184276
  0
TEXT
  5
7664
330
17
100
AcDbEntity
  8
PART_NUMBERS
100
AcDbText
 10
9.263523086308449
 20
21.74987447417363
 30
0.0
 40
0.25
  1
069264 STOOL TRIM
100
AcDbText
  0
MTEXT
  5
7665
330
17
100
AcDbEntity
  8
0
 62
     7
100
AcDbMText
 10
10.71445057709317
 20
19.24178380435921
 30
0.0
 40
0.375
 41
5.162073192826355
 71
     2
 72
     5
  1
2-3/4"\PSTOOL TRIM
 73
     1
 44
1.0
1001
ACAD
1000
MTEXTBEGIN
1070
    73
1070
     1
1070
    44
1040
1.0
1070
    74
1070
     0
1000
MTEXTEND
  0
MTEXT
  5
7666
330
17
100
AcDbEntity
  8
0
 62
     7
100
AcDbMText
 10
19.69962452070229
 20
19.24178380435921
 30
0.0
 40
0.375
 41
5.15625
 71
     2
 72
     5
  1
4-1/4"\PSTOOL TRIM
 73
     1
 44
1.0
1001
ACAD
1000
MTEXTBEGIN
1070
    73
1070
     1
1070
    44
1040
1.0
1070
    74
1070
     0
1000
MTEXTEND
  0
TEXT
  5
7667
330
17
100
AcDbEntity
  8
PART_NUMBERS
100
AcDbText
 10
17.58276971854763
 20
21.74987447417363
 30
0.0
 40
0.25
  1
069265 STOOL TRIM
100
AcDbText
  0
MTEXT
  5
7668
330
17
100
AcDbEntity
  8
0
 62
     7
100
AcDbMText
 10
10.24830159002597
 20
11.75700225625619
 30
0.0
 40
0.375
 41
5.15625
 71
     2
 72
     5
  1
5"\PSTOOL TRIM
 73
     1
 44
1.0
1001
ACAD
1000
MTEXTBEGIN
1070
    73
1070
     1
1070
    44
1040
1.0
1070
    74
1070
     0
1000
MTEXTEND
  0
TEXT
  5
7669
330
17
100
AcDbEntity
  8
PART_NUMBERS
100
AcDbText
 10
7.865075979671555
 20
14.26509292607061
 30
0.0
 40
0.25
  1
069266 STOOL TRIM
100
AcDbText
  0
TEXT
  5
766A
330
17
100
AcDbEntity
  8
PART_NUMBERS
100
AcDbText
 10
17.91573344695027
 20
14.26509292607061
 30
0.0
 40
0.25
  1
069267 STOOL TRIM
100
AcDbText
  0
MTEXT
  5
766B
330
17
100
AcDbEntity
  8
0
 62
     7
100
AcDbMText
 10
20.29895905730469
 20
11.75700225625619
 30
0.0
 40
0.375
 41
5.15625
 71
     2
 72
     5
  1
6-1/8"\PSTOOL TRIM
 73
     1
 44
1.0
1001
ACAD
1000
MTEXTBEGIN
1070
    73
1070
     1
1070
    44
1040
1.0
1070
    74
1070
     0
1000
MTEXTEND
  0
TEXT
  5
766C
330
17
100
AcDbEntity
  8
PART_NUMBERS
100
AcDbText
 10
14.05335541913632
 20
7.262007654515365
 30
0.0
 40
0.25
  1
069268 STOOL TRIM
100
AcDbText
  0
MTEXT
  5
766D
330
17
100
AcDbEntity
  8
0
 62
     7
100
AcDbMText
 10
15.970452112491
 20
5.885099369820075
 30
0.0
 40
0.375
 41
5.15625
 71
     2
 72
     5
  1
6-3/4"\PSTOOL TRIM
 73
     1
 44
1.0
1001
ACAD
1000
MTEXTBEGIN
1070
    73
1070
     1
1070
    44
1040
1.0
1070
    74
1070
     0
1000
MTEXTEND
  0
TEXT
  5
7773
330
17
100
AcDbEntity
  8
PART_NUMBERS
100
AcDbText
 10
41.55806958377273
 20
28.42344636430734
 30
0.0
 40
0.25
  1
451VG150 BREAK METAL ADAPTOR
100
AcDbText
  0
LINE
  5
7774
330
17
100
AcDbEntity
  8
R-ANNO-DIMS
100
AcDbLine
 10
39.58609800088887
 20
19.17612942696394
 30
0.0
 11
46.41609800088889
 21
19.17612942696394
 31
0.0
  0
LINE
  5
7775
330
17
100
AcDbEntity
  8
R-ANNO-DIMS
100
AcDbLine
 10
39.83609800088871
 20
19.80112942696394
 30
0.0
 11
46.41609800088889
 21
19.80112942696394
 31
0.0
  0
LINE
  5
7776
330
17
100
AcDbEntity
  8
R-ANNO-DIMS
100
AcDbLine
 10
39.83609800088871
 20
20.3477465518338
 30
0.0
 11
44.41608800088888
 21
20.3477465518338
 31
0.0
  0
LINE
  5
777A
330
17
100
AcDbEntity
  8
R-SWTS-DET3
  6
CENTER
100
AcDbLine
 10
40.64220557121926
 20
23.76542570142959
 30
0.0
 11
38.26720557121927
 21
23.76542570142959
 31
0.0
  0
LINE
  5
777B
330
17
100
AcDbEntity
  8
R-SWTS-DET3
  6
CENTER
100
AcDbLine
 10
40.64220557121926
 20
24.89880041079556
 30
0.0
 11
38.26720557121927
 21
24.89880041079556
 31
0.0
  0
LINE
  5
777C
330
17
100
AcDbEntity
  8
R-ANNO-DIMS
100
AcDbLine
 10
39.08609800088887
 20
19.80112942696394
 30
0.0
 11
37.88609800088887
 21
19.80112942696394
 31
0.0
  0
MTEXT
  5
777D
330
17
100
AcDbEntity
  8
R-ANNO-DIMS
100
AcDbMText
 10
37.78107884956226
 20
20.02612942696395
 30
0.0
 40
0.25
 41
0.0
 71
     5
 72
     1
  1
SHIM SPACE
 73
     1
 44
1.0
1001
ACAD
1000
MTEXTBEGIN
1070
    73
1070
     1
1070
    44
1040
1.0
1070
    74
1070
     0
1000
MTEXTEND
  0
LINE
  5
777E
330
17
100
AcDbEntity
  8
R-ANNO-DIMS
100
AcDbLine
 10
39.33609800088887
 20
21.55112942696395
 30
0.0
 11
39.33609800088887
 21
19.62112942696395
 31
0.0
  0
LINE
  5
777F
330
17
100
AcDbEntity
  8
R-ANNO-DIMS
100
AcDbLine
 10
39.58611800088887
 20
21.80112942696394
 30
0.0
 11
39.58611800088887
 21
19.62112942696395
 31
0.0
  0
LINE
  5
7780
330
17
100
AcDbEntity
  8
R-ANNO-DIMS
100
AcDbLine
 10
39.33609800088887
 20
21.55112942696395
 30
0.0
 11
39.33609800088887
 21
18.99612942696395
 31
0.0
  0
SOLID
  5
7781
330
17
100
AcDbEntity
  8
R-ANNO-DIMS
100
AcDbTrace
 10
39.83609800088871
 20
20.38941321850046
 30
0.0
 11
39.83609800088871
 21
20.30607988516712
 31
0.0
 12
39.58609800088871
 22
20.3477465518338
 32
0.0
 13
39.58609800088871
 23
20.3477465518338
 33
0.0
  0
LINE
  5
7782
330
17
100
AcDbEntity
  8
R-ANNO-DIMS
100
AcDbLine
 10
39.58609800088871
 20
22.02216120562815
 30
0.0
 11
39.58609800088871
 21
20.16774655183379
 31
0.0
  0
SOLID
  5
7783
330
17
100
AcDbEntity
  8
R-ANNO-DIMS
100
AcDbTrace
 10
39.83611800088887
 20
19.84279609363061
 30
0.0
 11
39.83611800088887
 21
19.75946276029728
 31
0.0
 12
39.58611800088887
 22
19.80112942696394
 32
0.0
 13
39.58611800088887
 23
19.80112942696394
 33
0.0
  0
SOLID
  5
7784
330
17
100
AcDbEntity
  8
R-ANNO-DIMS
100
AcDbTrace
 10
39.83609800088871
 20
19.84279609363061
 30
0.0
 11
39.83609800088871
 21
19.75946276029728
 31
0.0
 12
39.58609800088871
 22
19.80112942696394
 32
0.0
 13
39.58609800088871
 23
19.80112942696394
 33
0.0
  0
SOLID
  5
7785
330
17
100
AcDbEntity
  8
R-ANNO-DIMS
100
AcDbTrace
 10
39.58609800088887
 20
19.21779609363061
 30
0.0
 11
39.58609800088887
 21
19.13446276029728
 31
0.0
 12
39.33609800088887
 22
19.17612942696394
 32
0.0
 13
39.33609800088887
 23
19.17612942696394
 33
0.0
  0
SOLID
  5
7786
330
17
100
AcDbEntity
  8
R-ANNO-DIMS
100
AcDbTrace
 10
39.08609800088887
 20
19.84279609363061
 30
0.0
 11
39.08609800088887
 21
19.75946276029728
 31
0.0
 12
39.33609800088887
 22
19.80112942696394
 32
0.0
 13
39.33609800088887
 23
19.80112942696394
 33
0.0
  0
LINE
  5
7787
330
17
100
AcDbEntity
  8
R-ANNO-DIMS
100
AcDbLine
 10
39.83611800088887
 20
19.80112942696394
 30
0.0
 11
40.08611800088886
 21
19.80112942696394
 31
0.0
  0
MTEXT
  5
7788
330
17
100
AcDbEntity
  8
R-ANNO-DIMS
100
AcDbMText
 10
43.00109800088887
 20
19.40112942696394
 30
0.0
 40
0.25
 41
0.0
 71
     5
 72
     1
  1
\A1;OD
 73
     1
 44
1.0
1001
ACAD
1000
MTEXTBEGIN
1070
    73
1070
     1
1070
    44
1040
1.0
1070
    74
1070
     0
1000
MTEXTEND
  0
MTEXT
  5
7789
330
17
100
AcDbEntity
  8
R-ANNO-DIMS
100
AcDbMText
 10
43.1260980008888
 20
20.02612942696395
 30
0.0
 40
0.25
 41
0.0
 71
     5
 72
     1
  1
\A1;FW
 73
     1
 44
1.0
1001
ACAD
1000
MTEXTBEGIN
1070
    73
1070
     1
1070
    44
1040
1.0
1070
    74
1070
     0
1000
MTEXTEND
  0
MTEXT
  5
778A
330
17
100
AcDbEntity
  8
R-ANNO-DIMS
100
AcDbMText
 10
42.1260930008888
 20
20.57274655183379
 30
0.0
 40
0.25
 41
0.0
 71
     5
 72
     1
  1
\A1;VARIES
 73
     1
 44
1.0
1001
ACAD
1000
MTEXTBEGIN
1070
    73
1070
     1
1070
    44
1040
1.0
1070
    74
1070
     0
1000
MTEXTEND
  0
LWPOLYLINE
  5
778B
330
17
100
AcDbEntity
  8
R-SWTS-DET1
100
AcDbPolyline
 90
        6
 70
     0
 43
0.0
 10
41.41609800088882
 20
26.84775155183374
 10
41.41609800088882
 20
24.45065805955048
 10
41.62293018930117
 20
24.37944002576298
 10
41.1904906031384
 20
24.31094832393441
 10
41.41609800088882
 20
24.23973029014691
 10
41.41609800088882
 20
21.84263679786365
  0
LWPOLYLINE
  5
778C
330
17
100
AcDbEntity
  8
R-SWTS-DET2
100
AcDbPolyline
 90
        7
 70
     0
 43
0.0
 10
41.41609800088888
 20
26.46641515685188
 10
42.51009800088891
 20
26.46641515685188
 10
42.5100980008889
 20
25.84041515685189
 10
42.63409800088889
 20
25.84041515685189
 10
42.63409800088891
 20
26.46541515685188
 42
0.4142135623730981
 10
42.50909800088891
 20
26.59041515685188
 10
41.41609800088882
 20
26.59041515685188
  0
LWPOLYLINE
  5
778D
330
17
100
AcDbEntity
  8
R-SWTS-DET2
100
AcDbPolyline
 90
        7
 70
     0
 43
0.0
 10
41.41609800088888
 20
22.22957762120613
 10
42.51009800088891
 20
22.22957762120613
 10
42.5100980008889
 20
22.85557762120613
 10
42.63409800088889
 20
22.85557762120613
 10
42.63409800088891
 20
22.23057762120614
 42
-0.4142135623730981
 10
42.50909800088891
 20
22.10557762120614
 10
41.41609800088888
 20
22.10557762120613
  0
LINE
  5
778E
330
17
100
AcDbEntity
  8
R-SWTS-DET3
100
AcDbLine
 10
39.33609800088887
 20
26.92612942696395
 30
0.0
 11
39.33609800088887
 21
21.76935867670363
 31
0.0
  0
LINE
  5
778F
330
17
100
AcDbEntity
  8
R-SWTS-DET3
100
AcDbLine
 10
39.58609800088887
 20
22.56654803863476
 30
0.0
 11
39.33609800088887
 21
26.06654803863476
 31
0.0
  0
LINE
  5
7790
330
17
100
AcDbEntity
  8
R-SWTS-DET3
100
AcDbLine
 10
39.33609800088887
 20
22.56654803863476
 30
0.0
 11
39.58559800088887
 21
26.06654803863476
 31
0.0
  0
LINE
  5
7791
330
17
100
AcDbEntity
  8
R-SWTS-DET3
100
AcDbLine
 10
39.58609800088887
 20
22.56654803863476
 30
0.0
 11
39.58609800088887
 21
26.06654803863476
 31
0.0
  0
LWPOLYLINE
  5
7792
330
17
100
AcDbEntity
  8
R-SWTS-DET1
100
AcDbPolyline
 90
       96
 70
     1
 43
0.0
 10
39.9340980008889
 20
24.1767440518338
 10
39.9340980008889
 20
24.09674405183379
 42
0.4142135623730951
 10
39.9490980008889
 20
24.08174405183379
 10
40.16409800088887
 20
24.08174405183379
 42
0.4142135623730951
 10
40.17909800088887
 20
24.09674405183379
 10
40.17909800088887
 20
24.1767440518338
 42
0.4142135623731645
 10
40.16409800088888
 20
24.19174405183379
 10
40.16359800088888
 20
24.19174405183379
 42
-0.9999999999999998
 10
40.16359800088888
 20
24.22274405183379
 10
40.22909800088888
 20
24.22274405183379
 10
40.22909800088888
 20
24.08174405183379
 42
-0.4142135623730951
 10
40.15909800088888
 20
24.01174405183379
 10
39.95409800088891
 20
24.01174405183379
 42
0.4142135623731471
 10
39.93409800088887
 20
23.99174405183378
 10
39.93409800088884
 20
23.13924405183382
 10
39.92409800088883
 20
23.12924405183382
 10
39.93409800088883
 20
23.1192440518338
 10
39.93409800088884
 20
22.7927440518338
 10
40.05172077749048
 20
22.79274405183381
 42
-0.2865163647798144
 10
40.07418134318575
 20
22.7787223480882
 42
0.3836212364569561
 10
40.10519241246415
 20
22.76620832882294
 10
40.21312729587243
 20
22.80549341362255
 42
-0.9999999999999998
 10
40.23706870590523
 20
22.73971493016753
 10
40.02009800088884
 20
22.66074405183381
 10
40.02009800088884
 20
22.72274405183381
 10
39.93409800088884
 20
22.72274405183381
 10
39.93409800088884
 20
22.56024405183381
 10
39.85409800088884
 20
22.56024405183377
 10
39.85409800088884
 20
22.95724405183382
 10
39.66609800088886
 20
22.95724405183382
 10
39.6660980008887
 20
22.56024405183367
 10
39.58609800088871
 20
22.56024405183367
 10
39.58609800088884
 20
23.0287851049948
 10
39.68042366374069
 20
23.08324405183381
 42
3.732050807568682
 10
39.68042366374069
 20
23.17524405183381
 10
39.58609800088884
 20
23.22970299867279
 10
39.58609800088884
 20
23.52615184506696
 10
39.64743774685101
 20
23.63239540159682
 42
-0.7673269879789631
 10
39.66609800088886
 20
23.62739540159681
 10
39.66609800088886
 20
23.30124405183381
 10
39.85409800088883
 20
23.30124405183381
 10
39.85409800088889
 20
24.21274405183377
 10
39.86409800088889
 20
24.22274405183379
 10
39.8540980008889
 20
24.23274405183378
 10
39.85409800088888
 20
24.46274405183379
 10
39.86409800088889
 20
24.47274405183379
 10
39.85409800088888
 20
24.48274405183381
 10
39.85409800088883
 20
25.39424405183377
 10
39.66609800088886
 20
25.39424405183377
 10
39.66609800088886
 20
25.06809270207077
 42
-0.7673269879789631
 10
39.64743774685101
 20
25.06309270207076
 10
39.58609800088884
 20
25.16933625860063
 10
39.58609800088884
 20
25.46578510499479
 10
39.68042366374069
 20
25.52024405183376
 42
3.732050807568682
 10
39.68042366374069
 20
25.61224405183376
 10
39.58609800088884
 20
25.66670299867277
 10
39.58609800088884
 20
26.13524405183382
 10
39.66609800088884
 20
26.13524405183382
 10
39.66609800088886
 20
25.73824405183377
 10
39.85409800088884
 20
25.73824405183377
 10
39.85409800088884
 20
26.13524405183382
 10
39.93409800088884
 20
26.13524405183382
 10
39.93409800088884
 20
25.97274405183381
 10
40.02009800088884
 20
25.97274405183381
 10
40.02009800088884
 20
26.0347440518338
 10
40.23706870590523
 20
25.95577317350008
 42
-0.9999999999999996
 10
40.21312729587243
 20
25.88999469004507
 10
40.10519241246415
 20
25.92927977484468
 42
0.3836212364568652
 10
40.07418134318575
 20
25.91676575557942
 42
-0.2865163647797191
 10
40.05172077749048
 20
25.9027440518338
 10
39.93409800088884
 20
25.90274405183381
 10
39.93409800088883
 20
25.57624405183378
 10
39.92409800088883
 20
25.56624405183377
 10
39.93409800088884
 20
25.55624405183375
 10
39.93409800088882
 20
24.70374405183372
 42
0.414213562372991
 10
39.95409800088888
 20
24.68374405183379
 10
40.15909800088888
 20
24.68374405183379
 42
-0.4142135623730951
 10
40.22909800088888
 20
24.61374405183379
 10
40.22909800088888
 20
24.47274405183379
 10
40.16359800088888
 20
24.47274405183379
 42
-0.9999999999999998
 10
40.16359800088888
 20
24.5037440518338
 10
40.16409800088888
 20
24.50374405183379
 42
0.4142135623730951
 10
40.17909800088888
 20
24.51874405183379
 10
40.17909800088887
 20
24.59874405183379
 42
0.4142135623730951
 10
40.16409800088887
 20
24.61374405183379
 10
39.9490980008889
 20
24.61374405183379
 42
0.4142135623730951
 10
39.9340980008889
 20
24.59874405183379
 10
39.9340980008889
 20
24.51874405183379
 42
0.4142135623731644
 10
39.9490980008889
 20
24.50374405183379
 10
39.9495980008889
 20
24.50374405183379
 42
-0.9999999999999998
 10
39.9495980008889
 20
24.4727440518338
 10
39.93409800088889
 20
24.47274405183379
 10
39.9340980008889
 20
24.22274405183379
 10
39.9495980008889
 20
24.22274405183379
 42
-0.9999999999999998
 10
39.9495980008889
 20
24.19174405183379
 10
39.9490980008889
 20
24.19174405183379
 42
0.4142135623730259
  0
LWPOLYLINE
  5
7793
330
17
100
AcDbEntity
  8
R-SWTS-DET1
100
AcDbPolyline
 90
        6
 70
     0
 43
0.0
 10
40.91609800088882
 20
26.84775155183374
 10
40.91609800088882
 20
24.45065805955048
 10
41.12293018930117
 20
24.37944002576298
 10
40.69049060313839
 20
24.31094832393441
 10
40.91609800088882
 20
24.23973029014691
 10
40.91609800088882
 20
21.84263679786365
  0
LWPOLYLINE
  5
7794
330
17
100
AcDbEntity
  8
R-SWTS-DET2
100
AcDbPolyline
 90
        7
 70
     0
 43
0.0
 10
40.91609800088882
 20
22.22957762120613
 10
39.8220980008888
 20
22.22957762120613
 10
39.8220980008888
 20
22.85557762120613
 10
39.69809800088881
 20
22.85557762120613
 10
39.6980980008888
 20
22.23057762120614
 42
0.4142135623730981
 10
39.8230980008888
 20
22.10557762120614
 10
40.91609800088882
 20
22.10557762120613
  0
ARC
  5
7795
330
17
100
AcDbEntity
  8
R-SWTS-DET3
100
AcDbCircle
 10
39.87944174893877
 20
21.35594685652884
 30
0.0
 40
0.7619895536727982
100
AcDbArc
 50
98.33812728663076
 51
135.48437779767
  0
CIRCLE
  5
7796
330
17
100
AcDbEntity
  8
R-SWTS-DET3
100
AcDbCircle
 10
39.51805903464136
 20
22.39386203979801
 30
0.0
 40
0.1800389662474444
  0
LINE
  5
7797
330
17
100
AcDbEntity
  8
R-SWTS-DET3
100
AcDbLine
 10
39.33609800088887
 20
22.56654803863476
 30
0.0
 11
39.58559800088887
 21
22.56654803863476
 31
0.0
  0
ARC
  5
7798
330
17
100
AcDbEntity
  8
R-SWTS-DET3
100
AcDbCircle
 10
39.7600980008888
 20
22.72228718501209
 30
0.0
 40
0.1403916527950186
100
AcDbArc
 50
47.96723445826938
 51
132.0327655417295
  0
ARC
  5
7799
330
17
100
AcDbEntity
  8
R-SWTS-DET3
100
AcDbCircle
 10
39.7600980008888
 20
22.5008192952984
 30
0.0
 40
0.1403916527950186
100
AcDbArc
 50
47.96723445826938
 51
63.79260233739822
  0
ARC
  5
779A
330
17
100
AcDbEntity
  8
R-SWTS-DET3
100
AcDbCircle
 10
39.7600980008888
 20
22.67530914145801
 30
0.0
 40
0.1403916527950186
100
AcDbArc
 50
47.96723445826938
 51
63.79260233739981
  0
ARC
  5
779B
330
17
100
AcDbEntity
  8
R-SWTS-DET3
100
AcDbCircle
 10
39.7600980008888
 20
22.62944953803826
 30
0.0
 40
0.1403916527950186
100
AcDbArc
 50
47.96723445826938
 51
63.79260233739981
  0
ARC
  5
779C
330
17
100
AcDbEntity
  8
R-SWTS-DET3
100
AcDbCircle
 10
39.7600980008888
 20
22.58359014390745
 30
0.0
 40
0.1403916527950186
100
AcDbArc
 50
47.96723445826938
 51
63.79260233739981
  0
ARC
  5
779D
330
17
100
AcDbEntity
  8
R-SWTS-DET3
100
AcDbCircle
 10
39.7600980008888
 20
22.54108607017965
 30
0.0
 40
0.1403916527950186
100
AcDbArc
 50
47.96723445826938
 51
63.79260233739822
  0
ARC
  5
779E
330
17
100
AcDbEntity
  8
R-SWTS-DET3
100
AcDbCircle
 10
39.7600980008888
 20
22.45719678143625
 30
0.0
 40
0.1403916527950186
100
AcDbArc
 50
47.96723445826938
 51
63.79260233739822
  0
ARC
  5
779F
330
17
100
AcDbEntity
  8
R-SWTS-DET3
100
AcDbCircle
 10
39.7600980008888
 20
22.5008192952984
 30
0.0
 40
0.1403916527950186
100
AcDbArc
 50
116.2073976625968
 51
132.0327655417295
  0
ARC
  5
77A0
330
17
100
AcDbEntity
  8
R-SWTS-DET3
100
AcDbCircle
 10
39.7600980008888
 20
22.67530914145801
 30
0.0
 40
0.1403916527950186
100
AcDbArc
 50
116.2073976625968
 51
132.0327655417295
  0
ARC
  5
77A1
330
17
100
AcDbEntity
  8
R-SWTS-DET3
100
AcDbCircle
 10
39.7600980008888
 20
22.62944953803826
 30
0.0
 40
0.1403916527950186
100
AcDbArc
 50
116.2073976625968
 51
132.0327655417295
  0
ARC
  5
77A2
330
17
100
AcDbEntity
  8
R-SWTS-DET3
100
AcDbCircle
 10
39.7600980008888
 20
22.58359014390745
 30
0.0
 40
0.1403916527950186
100
AcDbArc
 50
116.2073976625968
 51
132.0327655417295
  0
ARC
  5
77A3
330
17
100
AcDbEntity
  8
R-SWTS-DET3
100
AcDbCircle
 10
39.7600980008888
 20
22.54108607017965
 30
0.0
 40
0.1403916527950186
100
AcDbArc
 50
116.2073976625968
 51
132.0327655417295
  0
ARC
  5
77A4
330
17
100
AcDbEntity
  8
R-SWTS-DET3
100
AcDbCircle
 10
39.7600980008888
 20
22.45719678143625
 30
0.0
 40
0.1403916527950186
100
AcDbArc
 50
116.2073976625968
 51
132.0327655417295
  0
ARC
  5
77A5
330
17
100
AcDbEntity
  8
R-SWTS-DET3
100
AcDbCircle
 10
39.7600980008888
 20
22.77150231812381
 30
0.0
 40
0.1403916527950186
100
AcDbArc
 50
47.96723445826938
 51
132.0327655417295
  0
ARC
  5
77A6
330
17
100
AcDbEntity
  8
R-SWTS-DET3
100
AcDbCircle
 10
39.7600980008888
 20
22.81624327212028
 30
0.0
 40
0.1403916527950186
100
AcDbArc
 50
47.96723445826938
 51
132.0327655417295
  0
LWPOLYLINE
  5
77A7
330
17
100
AcDbEntity
  8
R-SWTS-DET2
100
AcDbPolyline
 90
        7
 70
     0
 43
0.0
 10
40.91609800088882
 20
26.46641515685188
 10
39.8220980008888
 20
26.46641515685188
 10
39.8220980008888
 20
25.84041515685189
 10
39.69809800088881
 20
25.84041515685189
 10
39.6980980008888
 20
26.46541515685188
 42
-0.4142135623730981
 10
39.8230980008888
 20
26.59041515685188
 10
40.91609800088882
 20
26.59041515685188
  0
CIRCLE
  5
77A8
330
17
100
AcDbEntity
  8
R-SWTS-DET3
100
AcDbCircle
 10
39.51805903464136
 20
26.30162606386958
 30
0.0
 40
0.1800389662474444
  0
ARC
  5
77A9
330
17
100
AcDbEntity
  8
R-SWTS-DET3
100
AcDbCircle
 10
39.87944174893877
 20
27.33954124713874
 30
0.0
 40
0.7619895536727982
100
AcDbArc
 50
224.51562220233
 51
261.6618727133692
  0
LINE
  5
77AA
330
17
100
AcDbEntity
  8
R-SWTS-DET3
100
AcDbLine
 10
39.33609800088887
 20
26.06654803863476
 30
0.0
 11
39.58559800088887
 21
26.06654803863476
 31
0.0
  0
ARC
  5
77AB
330
17
100
AcDbEntity
  8
R-SWTS-DET3
100
AcDbCircle
 10
39.7600980008888
 20
26.23829132223133
 30
0.0
 40
0.1403916527950186
100
AcDbArc
 50
296.2073976626017
 51
312.0327655417306
  0
ARC
  5
77AC
330
17
100
AcDbEntity
  8
R-SWTS-DET3
100
AcDbCircle
 10
39.7600980008888
 20
26.19466880836919
 30
0.0
 40
0.1403916527950186
100
AcDbArc
 50
296.2073976626017
 51
312.0327655417306
  0
ARC
  5
77AD
330
17
100
AcDbEntity
  8
R-SWTS-DET3
100
AcDbCircle
 10
39.7600980008888
 20
26.11189795976014
 30
0.0
 40
0.1403916527950186
100
AcDbArc
 50
296.2073976626001
 51
312.0327655417306
  0
ARC
  5
77AE
330
17
100
AcDbEntity
  8
R-SWTS-DET3
100
AcDbCircle
 10
39.7600980008888
 20
26.06603856562933
 30
0.0
 40
0.1403916527950186
100
AcDbArc
 50
296.2073976626001
 51
312.0327655417306
  0
ARC
  5
77AF
330
17
100
AcDbEntity
  8
R-SWTS-DET3
100
AcDbCircle
 10
39.7600980008888
 20
26.02017896220957
 30
0.0
 40
0.1403916527950186
100
AcDbArc
 50
296.2073976626001
 51
312.0327655417306
  0
ARC
  5
77B0
330
17
100
AcDbEntity
  8
R-SWTS-DET3
100
AcDbCircle
 10
39.7600980008888
 20
26.15440203348794
 30
0.0
 40
0.1403916527950186
100
AcDbArc
 50
296.2073976626017
 51
312.0327655417306
  0
ARC
  5
77B1
330
17
100
AcDbEntity
  8
R-SWTS-DET3
100
AcDbCircle
 10
39.7600980008888
 20
26.23829132223133
 30
0.0
 40
0.1403916527950186
100
AcDbArc
 50
227.9672344582705
 51
243.7926023374032
  0
ARC
  5
77B2
330
17
100
AcDbEntity
  8
R-SWTS-DET3
100
AcDbCircle
 10
39.7600980008888
 20
26.19466880836919
 30
0.0
 40
0.1403916527950186
100
AcDbArc
 50
227.9672344582705
 51
243.7926023374032
  0
ARC
  5
77B3
330
17
100
AcDbEntity
  8
R-SWTS-DET3
100
AcDbCircle
 10
39.7600980008888
 20
26.11189795976014
 30
0.0
 40
0.1403916527950186
100
AcDbArc
 50
227.9672344582705
 51
243.7926023374032
  0
ARC
  5
77B4
330
17
100
AcDbEntity
  8
R-SWTS-DET3
100
AcDbCircle
 10
39.7600980008888
 20
26.06603856562933
 30
0.0
 40
0.1403916527950186
100
AcDbArc
 50
227.9672344582705
 51
243.7926023374032
  0
ARC
  5
77B5
330
17
100
AcDbEntity
  8
R-SWTS-DET3
100
AcDbCircle
 10
39.7600980008888
 20
26.02017896220957
 30
0.0
 40
0.1403916527950186
100
AcDbArc
 50
227.9672344582705
 51
243.7926023374032
  0
ARC
  5
77B6
330
17
100
AcDbEntity
  8
R-SWTS-DET3
100
AcDbCircle
 10
39.7600980008888
 20
26.15440203348794
 30
0.0
 40
0.1403916527950186
100
AcDbArc
 50
227.9672344582705
 51
243.7926023374032
  0
ARC
  5
77B7
330
17
100
AcDbEntity
  8
R-SWTS-DET3
100
AcDbCircle
 10
39.7600980008888
 20
25.87924483154731
 30
0.0
 40
0.1403916527950186
100
AcDbArc
 50
227.9672344582705
 51
312.0327655417306
  0
ARC
  5
77B8
330
17
100
AcDbEntity
  8
R-SWTS-DET3
100
AcDbCircle
 10
39.7600980008888
 20
25.92398578554378
 30
0.0
 40
0.1403916527950186
100
AcDbArc
 50
227.9672344582705
 51
312.0327655417306
  0
ARC
  5
77B9
330
17
100
AcDbEntity
  8
R-SWTS-DET3
100
AcDbCircle
 10
39.7600980008888
 20
25.9732009186555
 30
0.0
 40
0.1403916527950186
100
AcDbArc
 50
227.9672344582705
 51
312.0327655417306
  0
LWPOLYLINE
  5
77BA
330
17
100
AcDbEntity
  8
R-SWTS-DET1
100
AcDbPolyline
 90
       96
 70
     1
 43
0.0
 10
42.74609800088891
 20
24.1767440518338
 10
42.74609800088891
 20
24.09674405183379
 42
0.4142135623730951
 10
42.76109800088891
 20
24.08174405183379
 10
42.97609800088888
 20
24.08174405183379
 42
0.4142135623730951
 10
42.99109800088888
 20
24.09674405183379
 10
42.99109800088888
 20
24.1767440518338
 42
0.4142135623731645
 10
42.97609800088889
 20
24.19174405183379
 10
42.97559800088888
 20
24.19174405183379
 42
-0.9999999999999998
 10
42.97559800088888
 20
24.22274405183379
 10
43.04109800088889
 20
24.22274405183379
 10
43.04109800088889
 20
24.08174405183379
 42
-0.4142135623730951
 10
42.97109800088889
 20
24.01174405183379
 10
42.76609800088891
 20
24.01174405183379
 42
0.4142135623731471
 10
42.74609800088888
 20
23.99174405183378
 10
42.74609800088884
 20
23.13924405183382
 10
42.73609800088883
 20
23.12924405183382
 10
42.74609800088883
 20
23.1192440518338
 10
42.74609800088884
 20
22.7927440518338
 10
42.86372077749049
 20
22.79274405183381
 42
-0.2865163647798144
 10
42.88618134318575
 20
22.7787223480882
 42
0.3836212364569561
 10
42.91719241246414
 20
22.76620832882294
 10
43.02512729587244
 20
22.80549341362255
 42
-0.9999999999999998
 10
43.04906870590524
 20
22.73971493016753
 10
42.83209800088883
 20
22.66074405183381
 10
42.83209800088883
 20
22.72274405183381
 10
42.74609800088884
 20
22.72274405183381
 10
42.74609800088884
 20
22.56024405183381
 10
42.66609800088883
 20
22.56024405183377
 10
42.66609800088883
 20
22.95724405183382
 10
42.47809800088886
 20
22.95724405183382
 10
42.4780980008887
 20
22.56024405183367
 10
42.3980980008887
 20
22.56024405183367
 10
42.39809800088884
 20
23.0287851049948
 10
42.49242366374068
 20
23.08324405183381
 42
3.732050807568682
 10
42.49242366374068
 20
23.17524405183381
 10
42.39809800088884
 20
23.22970299867279
 10
42.39809800088884
 20
23.52615184506696
 10
42.45943774685102
 20
23.63239540159682
 42
-0.7673269879789631
 10
42.47809800088886
 20
23.62739540159681
 10
42.47809800088886
 20
23.30124405183381
 10
42.66609800088883
 20
23.30124405183381
 10
42.66609800088889
 20
24.21274405183377
 10
42.67609800088888
 20
24.22274405183379
 10
42.66609800088889
 20
24.23274405183378
 10
42.66609800088889
 20
24.46274405183379
 10
42.67609800088888
 20
24.47274405183379
 10
42.66609800088889
 20
24.48274405183381
 10
42.66609800088883
 20
25.39424405183377
 10
42.47809800088886
 20
25.39424405183377
 10
42.47809800088886
 20
25.06809270207077
 42
-0.7673269879789631
 10
42.45943774685102
 20
25.06309270207076
 10
42.39809800088884
 20
25.16933625860063
 10
42.39809800088884
 20
25.46578510499479
 10
42.49242366374068
 20
25.52024405183376
 42
3.732050807568682
 10
42.49242366374068
 20
25.61224405183376
 10
42.39809800088884
 20
25.66670299867277
 10
42.39809800088884
 20
26.13524405183382
 10
42.47809800088885
 20
26.13524405183382
 10
42.47809800088886
 20
25.73824405183377
 10
42.66609800088883
 20
25.73824405183377
 10
42.66609800088883
 20
26.13524405183382
 10
42.74609800088884
 20
26.13524405183382
 10
42.74609800088884
 20
25.97274405183381
 10
42.83209800088883
 20
25.97274405183381
 10
42.83209800088883
 20
26.0347440518338
 10
43.04906870590524
 20
25.95577317350008
 42
-0.9999999999999996
 10
43.02512729587244
 20
25.88999469004507
 10
42.91719241246414
 20
25.92927977484468
 42
0.3836212364568652
 10
42.88618134318575
 20
25.91676575557942
 42
-0.2865163647797191
 10
42.86372077749049
 20
25.9027440518338
 10
42.74609800088884
 20
25.90274405183381
 10
42.74609800088883
 20
25.57624405183378
 10
42.73609800088883
 20
25.56624405183377
 10
42.74609800088884
 20
25.55624405183375
 10
42.74609800088882
 20
24.70374405183372
 42
0.414213562372991
 10
42.76609800088889
 20
24.68374405183379
 10
42.97109800088889
 20
24.68374405183379
 42
-0.4142135623730951
 10
43.04109800088889
 20
24.61374405183379
 10
43.04109800088889
 20
24.47274405183379
 10
42.97559800088888
 20
24.47274405183379
 42
-0.9999999999999998
 10
42.97559800088888
 20
24.5037440518338
 10
42.97609800088889
 20
24.50374405183379
 42
0.4142135623730951
 10
42.99109800088888
 20
24.51874405183379
 10
42.99109800088888
 20
24.59874405183379
 42
0.4142135623730951
 10
42.97609800088888
 20
24.61374405183379
 10
42.76109800088891
 20
24.61374405183379
 42
0.4142135623730951
 10
42.74609800088891
 20
24.59874405183379
 10
42.74609800088891
 20
24.51874405183379
 42
0.4142135623731644
 10
42.76109800088891
 20
24.50374405183379
 10
42.7615980008889
 20
24.50374405183379
 42
-0.9999999999999998
 10
42.7615980008889
 20
24.4727440518338
 10
42.74609800088889
 20
24.47274405183379
 10
42.74609800088891
 20
24.22274405183379
 10
42.7615980008889
 20
24.22274405183379
 42
-0.9999999999999998
 10
42.7615980008889
 20
24.19174405183379
 10
42.76109800088891
 20
24.19174405183379
 42
0.4142135623730259
  0
ARC
  5
77BB
330
17
100
AcDbEntity
  8
R-SWTS-DET3
100
AcDbCircle
 10
42.57209800088889
 20
22.72228718501209
 30
0.0
 40
0.1403916527950186
100
AcDbArc
 50
47.96723445827047
 51
132.0327655417305
  0
ARC
  5
77BC
330
17
100
AcDbEntity
  8
R-SWTS-DET3
100
AcDbCircle
 10
42.60609881866867
 20
22.03470106462888
 30
0.0
 40
0.087032380893514
100
AcDbArc
 50
46.41822292231338
 51
119.4910189431642
  0
ARC
  5
77BD
330
17
100
AcDbEntity
  8
R-SWTS-DET3
100
AcDbCircle
 10
42.57209800088889
 20
22.49858199645185
 30
0.0
 40
0.1403916527950186
100
AcDbArc
 50
116.2073976626018
 51
132.0327655417305
  0
ARC
  5
77BE
330
17
100
AcDbEntity
  8
R-SWTS-DET3
100
AcDbCircle
 10
42.57209800088889
 20
22.45719678143625
 30
0.0
 40
0.1403916527950186
100
AcDbArc
 50
116.2073976626018
 51
132.0327655417305
  0
ARC
  5
77BF
330
17
100
AcDbEntity
  8
R-SWTS-DET3
100
AcDbCircle
 10
42.57209800088889
 20
22.67530914145801
 30
0.0
 40
0.1403916527950186
100
AcDbArc
 50
116.2073976626002
 51
132.0327655417305
  0
ARC
  5
77C0
330
17
100
AcDbEntity
  8
R-SWTS-DET3
100
AcDbCircle
 10
42.57209800088889
 20
22.62944953803826
 30
0.0
 40
0.1403916527950186
100
AcDbArc
 50
116.2073976626002
 51
132.0327655417305
  0
ARC
  5
77C1
330
17
100
AcDbEntity
  8
R-SWTS-DET3
100
AcDbCircle
 10
42.57209800088889
 20
22.58359014390745
 30
0.0
 40
0.1403916527950186
100
AcDbArc
 50
116.2073976626002
 51
132.0327655417305
  0
ARC
  5
77C2
330
17
100
AcDbEntity
  8
R-SWTS-DET3
100
AcDbCircle
 10
42.57209800088889
 20
22.54108607017965
 30
0.0
 40
0.1403916527950186
100
AcDbArc
 50
116.2073976626018
 51
132.0327655417305
  0
ARC
  5
77C3
330
17
100
AcDbEntity
  8
R-SWTS-DET3
100
AcDbCircle
 10
42.57209800088889
 20
22.49858199645185
 30
0.0
 40
0.1403916527950186
100
AcDbArc
 50
47.96723445827047
 51
63.79260233740322
  0
ARC
  5
77C4
330
17
100
AcDbEntity
  8
R-SWTS-DET3
100
AcDbCircle
 10
42.57209800088884
 20
22.03039171600533
 30
0.0
 40
0.1403916527950186
100
AcDbArc
 50
47.96723445827047
 51
70.65109457118449
  0
ARC
  5
77C5
330
17
100
AcDbEntity
  8
R-SWTS-DET3
100
AcDbCircle
 10
42.57209800088884
 20
22.07654516110706
 30
0.0
 40
0.1403916527950186
100
AcDbArc
 50
47.96723445827047
 51
64.51143693376123
  0
ARC
  5
77C6
330
17
100
AcDbEntity
  8
R-SWTS-DET3
100
AcDbCircle
 10
42.57209800088889
 20
22.21350700987689
 30
0.0
 40
0.1403916527950186
100
AcDbArc
 50
47.96723445827047
 51
63.79260233740322
  0
ARC
  5
77C7
330
17
100
AcDbEntity
  8
R-SWTS-DET3
100
AcDbCircle
 10
42.57209800088889
 20
22.16827673832164
 30
0.0
 40
0.1403916527950186
100
AcDbArc
 50
47.96723445827047
 51
63.79260233740322
  0
ARC
  5
77C8
330
17
100
AcDbEntity
  8
R-SWTS-DET3
100
AcDbCircle
 10
42.57209800088889
 20
22.12304646676641
 30
0.0
 40
0.1403916527950186
100
AcDbArc
 50
47.96723445827047
 51
63.79260233740322
  0
ARC
  5
77C9
330
17
100
AcDbEntity
  8
R-SWTS-DET3
100
AcDbCircle
 10
42.57209800088889
 20
22.45719678143625
 30
0.0
 40
0.1403916527950186
100
AcDbArc
 50
47.96723445827047
 51
63.79260233740322
  0
ARC
  5
77CA
330
17
100
AcDbEntity
  8
R-SWTS-DET3
100
AcDbCircle
 10
42.57209800088889
 20
22.41473561194265
 30
0.0
 40
0.1403916527950186
100
AcDbArc
 50
47.96723445827047
 51
63.79260233740322
  0
ARC
  5
77CB
330
17
100
AcDbEntity
  8
R-SWTS-DET3
100
AcDbCircle
 10
42.57209800088889
 20
22.36489010052169
 30
0.0
 40
0.1403916527950186
100
AcDbArc
 50
47.96723445827047
 51
63.79260233740322
  0
ARC
  5
77CC
330
17
100
AcDbEntity
  8
R-SWTS-DET3
100
AcDbCircle
 10
42.57209800088889
 20
22.31412141555423
 30
0.0
 40
0.1403916527950186
100
AcDbArc
 50
47.96723445827047
 51
63.79260233740322
  0
ARC
  5
77CD
330
17
100
AcDbEntity
  8
R-SWTS-DET3
100
AcDbCircle
 10
42.57209800088889
 20
22.26704500619492
 30
0.0
 40
0.1403916527950186
100
AcDbArc
 50
47.96723445827047
 51
63.79260233740322
  0
ARC
  5
77CE
330
17
100
AcDbEntity
  8
R-SWTS-DET3
100
AcDbCircle
 10
42.57209800088889
 20
22.67530914145801
 30
0.0
 40
0.1403916527950186
100
AcDbArc
 50
47.96723445827047
 51
63.79260233740322
  0
ARC
  5
77CF
330
17
100
AcDbEntity
  8
R-SWTS-DET3
100
AcDbCircle
 10
42.57209800088889
 20
22.62944953803826
 30
0.0
 40
0.1403916527950186
100
AcDbArc
 50
47.96723445827047
 51
63.79260233740322
  0
ARC
  5
77D0
330
17
100
AcDbEntity
  8
R-SWTS-DET3
100
AcDbCircle
 10
42.57209800088889
 20
22.58359014390745
 30
0.0
 40
0.1403916527950186
100
AcDbArc
 50
47.96723445827047
 51
63.79260233740322
  0
ARC
  5
77D1
330
17
100
AcDbEntity
  8
R-SWTS-DET3
100
AcDbCircle
 10
42.57209800088889
 20
22.54108607017965
 30
0.0
 40
0.1403916527950186
100
AcDbArc
 50
47.96723445827047
 51
63.79260233740322
  0
ARC
  5
77D2
330
17
100
AcDbEntity
  8
R-SWTS-DET3
100
AcDbCircle
 10
42.57209800088889
 20
22.77150231812381
 30
0.0
 40
0.1403916527950186
100
AcDbArc
 50
47.96723445827047
 51
132.0327655417305
  0
ARC
  5
77D3
330
17
100
AcDbEntity
  8
R-SWTS-DET3
100
AcDbCircle
 10
42.57209800088889
 20
22.81624327212028
 30
0.0
 40
0.1403916527950186
100
AcDbArc
 50
47.96723445827047
 51
132.0327655417305
  0
ARC
  5
77D4
330
17
100
AcDbEntity
  8
R-SWTS-DET3
100
AcDbCircle
 10
42.57209800088889
 20
26.33059800314589
 30
0.0
 40
0.1403916527950186
100
AcDbArc
 50
296.2073976625967
 51
312.0327655417295
  0
ARC
  5
77D5
330
17
100
AcDbEntity
  8
R-SWTS-DET3
100
AcDbCircle
 10
42.57209800088889
 20
25.92398578554378
 30
0.0
 40
0.1403916527950186
100
AcDbArc
 50
227.9672344582694
 51
312.0327655417295
  0
ARC
  5
77D6
330
17
100
AcDbEntity
  8
R-SWTS-DET3
100
AcDbCircle
 10
42.57209800088889
 20
25.87924483154731
 30
0.0
 40
0.1403916527950186
100
AcDbArc
 50
227.9672344582694
 51
312.0327655417295
  0
ARC
  5
77D7
330
17
100
AcDbEntity
  8
R-SWTS-DET3
100
AcDbCircle
 10
42.57209800088889
 20
25.9732009186555
 30
0.0
 40
0.1403916527950186
100
AcDbArc
 50
227.9672344582694
 51
312.0327655417295
  0
ARC
  5
77D8
330
17
100
AcDbEntity
  8
R-SWTS-DET3
100
AcDbCircle
 10
42.57209800088889
 20
26.19466880836919
 30
0.0
 40
0.1403916527950186
100
AcDbArc
 50
227.9672344582694
 51
243.7926023373982
  0
ARC
  5
77D9
330
17
100
AcDbEntity
  8
R-SWTS-DET3
100
AcDbCircle
 10
42.57209800088889
 20
26.11189795976014
 30
0.0
 40
0.1403916527950186
100
AcDbArc
 50
227.9672344582694
 51
243.7926023373999
  0
ARC
  5
77DA
330
17
100
AcDbEntity
  8
R-SWTS-DET3
100
AcDbCircle
 10
42.57209800088889
 20
26.06603856562933
 30
0.0
 40
0.1403916527950186
100
AcDbArc
 50
227.9672344582694
 51
243.7926023373999
  0
ARC
  5
77DB
330
17
100
AcDbEntity
  8
R-SWTS-DET3
100
AcDbCircle
 10
42.57209800088889
 20
26.02017896220957
 30
0.0
 40
0.1403916527950186
100
AcDbArc
 50
227.9672344582694
 51
243.7926023373999
  0
ARC
  5
77DC
330
17
100
AcDbEntity
  8
R-SWTS-DET3
100
AcDbCircle
 10
42.57209800088889
 20
26.15440203348794
 30
0.0
 40
0.1403916527950186
100
AcDbArc
 50
227.9672344582694
 51
243.7926023373982
  0
ARC
  5
77DD
330
17
100
AcDbEntity
  8
R-SWTS-DET3
100
AcDbCircle
 10
42.57209800088889
 20
26.23829132223133
 30
0.0
 40
0.1403916527950186
100
AcDbArc
 50
227.9672344582694
 51
243.7926023373982
  0
ARC
  5
77DE
330
17
100
AcDbEntity
  8
R-SWTS-DET3
100
AcDbCircle
 10
42.57209800088889
 20
26.19466880836919
 30
0.0
 40
0.1403916527950186
100
AcDbArc
 50
296.2073976625967
 51
312.0327655417295
  0
ARC
  5
77DF
330
17
100
AcDbEntity
  8
R-SWTS-DET3
100
AcDbCircle
 10
42.57209800088889
 20
26.11189795976014
 30
0.0
 40
0.1403916527950186
100
AcDbArc
 50
296.2073976625967
 51
312.0327655417295
  0
ARC
  5
77E0
330
17
100
AcDbEntity
  8
R-SWTS-DET3
100
AcDbCircle
 10
42.57209800088889
 20
26.06603856562933
 30
0.0
 40
0.1403916527950186
100
AcDbArc
 50
296.2073976625967
 51
312.0327655417295
  0
ARC
  5
77E1
330
17
100
AcDbEntity
  8
R-SWTS-DET3
100
AcDbCircle
 10
42.57209800088889
 20
26.02017896220957
 30
0.0
 40
0.1403916527950186
100
AcDbArc
 50
296.2073976625967
 51
312.0327655417295
  0
ARC
  5
77E2
330
17
100
AcDbEntity
  8
R-SWTS-DET3
100
AcDbCircle
 10
42.57209800088889
 20
26.15440203348794
 30
0.0
 40
0.1403916527950186
100
AcDbArc
 50
296.2073976625967
 51
312.0327655417295
  0
ARC
  5
77E3
330
17
100
AcDbEntity
  8
R-SWTS-DET3
100
AcDbCircle
 10
42.57209800088889
 20
26.28075249172494
 30
0.0
 40
0.1403916527950186
100
AcDbArc
 50
296.2073976625967
 51
312.0327655417295
  0
ARC
  5
77E4
330
17
100
AcDbEntity
  8
R-SWTS-DET3
100
AcDbCircle
 10
42.57209800088889
 20
26.23829132223133
 30
0.0
 40
0.1403916527950186
100
AcDbArc
 50
296.2073976625967
 51
312.0327655417295
  0
ARC
  5
77E5
330
17
100
AcDbEntity
  8
R-SWTS-DET3
100
AcDbCircle
 10
42.60609881866872
 20
26.66136214273869
 30
0.0
 40
0.087032380893514
100
AcDbArc
 50
240.5089810568357
 51
313.5817770776866
  0
ARC
  5
77E6
330
17
100
AcDbEntity
  8
R-SWTS-DET3
100
AcDbCircle
 10
42.57209800088889
 20
26.4819810937907
 30
0.0
 40
0.1403916527950186
100
AcDbArc
 50
296.2073976625967
 51
312.0327655417295
  0
ARC
  5
77E7
330
17
100
AcDbEntity
  8
R-SWTS-DET3
100
AcDbCircle
 10
42.57209800088889
 20
26.66567149136225
 30
0.0
 40
0.1403916527950186
100
AcDbArc
 50
289.3489054288155
 51
312.0327655417295
  0
ARC
  5
77E8
330
17
100
AcDbEntity
  8
R-SWTS-DET3
100
AcDbCircle
 10
42.57209800088889
 20
26.61951804626051
 30
0.0
 40
0.1403916527950186
100
AcDbArc
 50
295.4885630662388
 51
312.0327655417295
  0
ARC
  5
77E9
330
17
100
AcDbEntity
  8
R-SWTS-DET3
100
AcDbCircle
 10
42.57209800088889
 20
26.57244163690118
 30
0.0
 40
0.1403916527950186
100
AcDbArc
 50
296.2073976625967
 51
312.0327655417295
  0
ARC
  5
77EA
330
17
100
AcDbEntity
  8
R-SWTS-DET3
100
AcDbCircle
 10
42.57209800088889
 20
26.52721136534595
 30
0.0
 40
0.1403916527950186
100
AcDbArc
 50
296.2073976625967
 51
312.0327655417295
  0
ARC
  5
77EB
330
17
100
AcDbEntity
  8
R-SWTS-DET3
100
AcDbCircle
 10
42.57209800088889
 20
26.38136668811336
 30
0.0
 40
0.1403916527950186
100
AcDbArc
 50
296.2073976625967
 51
312.0327655417295
  0
ARC
  5
77EC
330
17
100
AcDbEntity
  8
R-SWTS-DET3
100
AcDbCircle
 10
42.57209800088889
 20
26.42844309747267
 30
0.0
 40
0.1403916527950186
100
AcDbArc
 50
296.2073976625967
 51
312.0327655417295
  0
SOLID
  5
77EE
330
17
100
AcDbEntity
  8
R-ANNO-DIMS
100
AcDbTrace
 10
46.41609800088889
 20
20.38941321850045
 30
0.0
 11
46.41609800088889
 21
20.30607988516712
 31
0.0
 12
46.66609800088889
 22
20.34774655183379
 32
0.0
 13
46.66609800088889
 23
20.34774655183379
 33
0.0
  0
SOLID
  5
77EF
330
17
100
AcDbEntity
  8
R-ANNO-DIMS
100
AcDbTrace
 10
44.91608800088889
 20
20.38941321850045
 30
0.0
 11
44.91608800088889
 21
20.30607988516712
 31
0.0
 12
44.66608800088889
 22
20.34774655183379
 32
0.0
 13
44.66608800088889
 23
20.34774655183379
 33
0.0
  0
LINE
  5
77F0
330
17
100
AcDbEntity
  8
R-ANNO-DIMS
100
AcDbLine
 10
44.66608800088889
 20
21.72274655183379
 30
0.0
 11
44.66608800088889
 21
20.16774655183379
 31
0.0
  0
SOLID
  5
77F1
330
17
100
AcDbEntity
  8
R-ANNO-DIMS
100
AcDbTrace
 10
44.41608800088888
 20
20.38941321850046
 30
0.0
 11
44.41608800088888
 21
20.30607988516712
 31
0.0
 12
44.66608800088889
 22
20.3477465518338
 32
0.0
 13
44.66608800088889
 23
20.3477465518338
 33
0.0
  0
LINE
  5
77F2
330
17
100
AcDbEntity
  8
R-ANNO-DIMS
100
AcDbLine
 10
44.66608800088889
 20
21.72274655183379
 30
0.0
 11
44.66608800088889
 21
20.16774655183379
 31
0.0
  0
SOLID
  5
77F3
330
17
100
AcDbEntity
  8
R-ANNO-DIMS
100
AcDbTrace
 10
46.41609800088889
 20
19.21779609363061
 30
0.0
 11
46.41609800088889
 21
19.13446276029728
 31
0.0
 12
46.66609800088889
 22
19.17612942696394
 32
0.0
 13
46.66609800088889
 23
19.17612942696394
 33
0.0
  0
SOLID
  5
77F4
330
17
100
AcDbEntity
  8
R-ANNO-DIMS
100
AcDbTrace
 10
46.41609800088889
 20
19.84279609363061
 30
0.0
 11
46.41609800088889
 21
19.75946276029728
 31
0.0
 12
46.66609800088889
 22
19.80112942696394
 32
0.0
 13
46.66609800088889
 23
19.80112942696394
 33
0.0
  0
MTEXT
  5
77F8
330
17
100
AcDbEntity
  8
R-ANNO-DIMS
100
AcDbMText
 10
45.66609300088889
 20
20.57274655183379
 30
0.0
 40
0.25
 41
0.0
 71
     5
 72
     1
  1
\A1;DLO
 73
     1
 44
1.0
1001
ACAD
1000
MTEXTBEGIN
1070
    73
1070
     1
1070
    44
1040
1.0
1070
    74
1070
     0
1000
MTEXTEND
  0
LINE
  5
77F9
330
17
100
AcDbEntity
  8
R-ANNO-DIMS
100
AcDbLine
 10
44.91608800088889
 20
20.34774655183379
 30
0.0
 11
46.41609800088889
 21
20.34774655183379
 31
0.0
  0
LINE
  5
7808
330
17
100
AcDbEntity
  8
R-SWTS-DET1
100
AcDbLine
 10
40.91609800088882
 20
22.09774655183379
 30
0.0
 11
39.58358302560536
 21
22.09774655183379
 31
0.0
  0
LINE
  5
7809
330
17
100
AcDbEntity
  8
R-SWTS-DET1
100
AcDbLine
 10
39.58358302560536
 20
26.59774655183379
 30
0.0
 11
39.58358302560536
 21
22.09774655183379
 31
0.0
  0
LINE
  5
780A
330
17
100
AcDbEntity
  8
R-SWTS-DET1
100
AcDbLine
 10
40.91609800088882
 20
26.59774655183379
 30
0.0
 11
39.58358302560536
 21
26.59774655183379
 31
0.0
  0
MTEXT
  5
780C
330
17
100
AcDbEntity
  8
0
 62
     7
100
AcDbMText
 10
42.82550194026365
 20
18.30719932247765
 30
0.0
 40
0.375
 41
9.40625
 71
     2
 72
     5
  1
BRAKE METAL ADAPTOR\PSHOWN @ JAMB
 73
     1
 44
1.0
1001
ACAD
1000
MTEXTBEGIN
1070
    73
1070
     1
1070
    44
1040
1.0
1070
    74
1070
     0
1000
MTEXTEND
  0
LINE
  5
780D
330
17
100
AcDbEntity
  8
R-ANNO-DIMS
100
AcDbLine
 10
42.84573439074473
 20
25.08112443478963
 30
0.0
 11
44.06247536544775
 21
27.07003027669968
 31
0.0
210
0.0
220
0.0
230
-1.0
1001
ACAD
1000
DSTYLE
1002
{
1070
     3
1000
"
1070
     5
1000

1070
    41
1040
0.2
1070
    42
1040
0.125
1070
    43
1040
0.375
1070
    44
1040
0.125
1070
    73
1070
     0
1070
    74
1070
     0
1070
    76
1070
     1
1070
    77
1070
     0
1070
    78
1070
     1
1070
   140
1040
0.25
1070
   141
1040
0.0
1070
   147
1040
0.062
1070
   176
1070
   256
1070
   177
1070
   256
1070
   178
1070
   256
1070
   179
1070
     4
1070
   276
1070
     2
1070
   277
1070
     5
1070
   284
1070
     1
1070
   342
1005
0
1002
}
  0
SOLID
  5
780E
330
17
100
AcDbEntity
  8
R-ANNO-DIMS
100
AcDbTrace
 10
-42.81729992622857
 20
25.09851961627159
 30
0.0
 11
-42.74136330185299
 21
24.91051764769267
 31
0.0
 12
-42.87416885526091
 22
25.06372925330767
 32
0.0
 13
-42.87416885526091
 23
25.06372925330767
 33
0.0
210
0.0
220
0.0
230
-1.0
1001
ACAD
1000
DSTYLE
1002
{
1070
     3
1000
"
1070
     5
1000

1070
    41
1040
0.2
1070
    42
1040
0.125
1070
    43
1040
0.375
1070
    44
1040
0.125
1070
    73
1070
     0
1070
    74
1070
     0
1070
    76
1070
     1
1070
    77
1070
     0
1070
    78
1070
     1
1070
   140
1040
0.25
1070
   141
1040
0.0
1070
   147
1040
0.062
1070
   176
1070
   256
1070
   177
1070
   256
1070
   178
1070
   256
1070
   179
1070
     4
1070
   276
1070
     2
1070
   277
1070
     5
1070
   284
1070
     1
1070
   342
1005
0
1002
}
  0
LINE
  5
780F
330
17
100
AcDbEntity
  8
R-ANNO-DIMS
100
AcDbLine
 10
40.01318428641169
 20
25.24439775213968
 30
0.0
 11
41.47838247811231
 21
28.52375944760067
 31
0.0
210
0.0
220
0.0
230
-1.0
1001
ACAD
1000
DSTYLE
1002
{
1070
     3
1000
"
1070
     5
1000

1070
    41
1040
0.2
1070
    42
1040
0.125
1070
    43
1040
0.375
1070
    44
1040
0.125
1070
    73
1070
     0
1070
    74
1070
     0
1070
    76
1070
     1
1070
    77
1070
     0
1070
    78
1070
     1
1070
   140
1040
0.25
1070
   141
1040
0.0
1070
   147
1040
0.062
1070
   176
1070
   256
1070
   177
1070
   256
1070
   178
1070
   256
1070
   179
1070
     4
1070
   276
1070
     2
1070
   277
1070
     5
1070
   284
1070
     1
1070
   342
1005
0
1002
}
  0
SOLID
  5
7810
330
17
100
AcDbEntity
  8
R-ANNO-DIMS
100
AcDbTrace
 10
-39.98275049500549
 20
25.25799537883534
 30
0.0
 11
-39.93159852623767
 21
25.06179500370245
 31
0.0
 12
-40.0436180778179
 22
25.230800125444
 32
0.0
 13
-40.0436180778179
 23
25.230800125444
 33
0.0
210
0.0
220
0.0
230
-1.0
1001
ACAD
1000
DSTYLE
1002
{
1070
     3
1000
"
1070
     5
1000

1070
    41
1040
0.2
1070
    42
1040
0.125
1070
    43
1040
0.375
1070
    44
1040
0.125
1070
    73
1070
     0
1070
    74
1070
     0
1070
    76
1070
     1
1070
    77
1070
     0
1070
    78
1070
     1
1070
   140
1040
0.25
1070
   141
1040
0.0
1070
   147
1040
0.062
1070
   176
1070
   256
1070
   177
1070
   256
1070
   178
1070
   256
1070
   179
1070
     4
1070
   276
1070
     2
1070
   277
1070
     5
1070
   284
1070
     1
1070
   342
1005
0
1002
}
  0
TEXT
  5
7812
330
17
100
AcDbEntity
  8
PART_NUMBERS
100
AcDbText
 10
44.15992031239527
 20
26.96804827274506
 30
0.0
 40
0.25
  1
451VG150 BREAK METAL ADAPTOR
100
AcDbText
  0
LWPOLYLINE
  5
7C2C
330
17
100
AcDbEntity
  8
0
  6
HIDDEN2
100
AcDbPolyline
 90
       73
 70
     1
 43
0.0
 10
12.44248285172326
 20
29.37618071420466
 42
-0.4142135623730951
 10
12.45248285172326
 20
29.38618071420466
 10
12.49448285172328
 20
29.38618071420466
 42
0.4142135623730951
 10
12.50448285172328
 20
29.39618071420468
 10
12.50448285172328
 20
29.48118071420464
 42
0.4142135623731471
 10
12.49448285172328
 20
29.49118071420464
 10
12.38948285172324
 20
29.49118071420464
 42
0.4142135623739275
 10
12.37948285172325
 20
29.48118071420466
 10
12.37948285172325
 20
27.49218071420845
 10
12.50448285172328
 20
27.49218071420845
 10
12.50448285172328
 20
27.53718071420846
 10
13.27698172261804
 20
27.53718071420846
 10
13.27698172261804
 20
27.49218071420842
 10
13.52698172261804
 20
27.49218071420845
 10
13.52698172261803
 20
27.53718071420846
 10
14.31748285172323
 20
27.53718071420846
 10
14.31748285172323
 20
27.49218071420845
 10
14.37948285172325
 20
27.49218071420845
 10
14.37948285172325
 20
27.53718071420846
 10
15.12948285172325
 20
27.53718071420846
 10
15.12948285172325
 20
27.49218071420845
 10
15.19148285172323
 20
27.49218071420845
 10
15.19148285172326
 20
27.53718071420844
 10
15.98198398082845
 20
27.53718071420844
 10
15.98198398082844
 20
27.49218071420845
 10
16.23198398082844
 20
27.49218071420842
 10
16.23198398082844
 20
27.53718071420844
 10
17.00448285172322
 20
27.53718071420846
 10
17.00448285172322
 20
27.49218071420845
 10
17.12948285172325
 20
27.49218071420845
 10
17.12948285172325
 20
29.48118071420466
 42
0.4142135623739275
 10
17.11948285172326
 20
29.49118071420464
 10
17.01448285172322
 20
29.49118071420464
 42
0.4142135623731471
 10
17.00448285172322
 20
29.48118071420464
 10
17.00448285172322
 20
29.39618071420468
 42
0.4142135623730951
 10
17.01448285172321
 20
29.38618071420466
 10
17.05648285172324
 20
29.38618071420466
 42
-0.4142135623730951
 10
17.06648285172323
 20
29.37618071420466
 10
17.06648285172323
 20
29.30618071420465
 42
-0.4142135623730951
 10
17.05648285172324
 20
29.29618071420465
 10
17.00448285172322
 20
29.29618071420465
 10
17.04814310576108
 20
29.22055893593967
 42
-0.131652497587239
 10
17.04948285172324
 20
29.21555893593968
 10
17.04948285172324
 20
28.42822871420465
 10
17.00448285172322
 20
28.42822870623969
 10
17.00448285172322
 20
27.61718071420844
 10
16.1904577861201
 20
27.61718071420846
 42
0.3152987888789334
 10
16.18106085991232
 20
27.61060091564172
 10
16.16076366493105
 20
27.55483483075258
 42
-0.3152987888785436
 10
16.15136673872322
 20
27.54825503218586
 10
16.07198398082843
 20
27.54825503218586
 42
-0.4142135623727309
 10
16.06198398082845
 20
27.55825503218586
 10
16.06198398082845
 20
27.60718071420847
 42
0.4142135623731471
 10
16.05198398082844
 20
27.61718071420848
 10
14.76938285172329
 20
27.61718071420844
 10
14.75438285172324
 20
27.60218071420846
 10
14.73938285172326
 20
27.61718071420844
 10
13.45698172261803
 20
27.61718071420848
 42
0.4142135623731471
 10
13.44698172261804
 20
27.60718071420847
 10
13.44698172261803
 20
27.55825503218586
 42
-0.4142135623727309
 10
13.43698172261805
 20
27.54825503218586
 10
13.35759896472326
 20
27.54825503218586
 42
-0.3152987888785437
 10
13.34820203851543
 20
27.55483483075258
 10
13.32790484353417
 20
27.61060091564172
 42
0.3152987888789466
 10
13.31850791732632
 20
27.61718071420848
 10
12.50448285172328
 20
27.61718071420844
 10
12.50448285172328
 20
28.42822870623969
 10
12.45948285172326
 20
28.42822871420465
 10
12.45948285172326
 20
29.21555893593968
 42
-0.1316524975872335
 10
12.46082259768542
 20
29.22055893593967
 10
12.50448285172328
 20
29.29618071420465
 10
12.45248285172326
 20
29.29618071420465
 42
-0.4142135623730951
 10
12.44248285172326
 20
29.30618071420465
  0
LINE
  5
7C2D
330
17
100
AcDbEntity
  8
R-SWTS-DET2
100
AcDbLine
 10
17.20748285172325
 20
29.25318071420864
 30
0.0
 11
17.20748285172325
 21
28.81918071420865
 31
0.0
  0
LINE
  5
7C2E
330
17
100
AcDbEntity
  8
R-SWTS-DET2
100
AcDbLine
 10
17.41748285172325
 20
28.88368071420865
 30
0.0
 11
17.46948285172325
 21
29.17868071420865
 31
0.0
  0
LWPOLYLINE
  5
7C2F
330
17
100
AcDbEntity
  8
R-SWTS-DET2
100
AcDbPolyline
 90
        3
 70
     0
 43
0.0
 10
17.50948285172325
 20
29.30868071420865
 10
17.50948285172325
 20
29.17518071420865
 10
17.44448285172325
 20
28.80568071420865
  0
LINE
  5
7C30
330
17
100
AcDbEntity
  8
R-SWTS-DET2
100
AcDbLine
 10
17.12948285172325
 20
29.03618071420865
 30
0.0
 11
17.12948285172325
 21
28.74118071420865
 31
0.0
  0
LINE
  5
7C31
330
17
100
AcDbEntity
  8
R-SWTS-DET2
100
AcDbLine
 10
17.20748285172325
 20
29.23868061420865
 30
0.0
 11
17.20748285172325
 21
28.85368081420864
 31
0.0
  0
LINE
  5
7C32
330
17
100
AcDbEntity
  8
R-SWTS-DET2
100
AcDbLine
 10
17.20748279545848
 20
28.85368111420864
 30
0.0
 11
17.09532195172325
 21
28.95118092420864
 31
0.0
  0
LWPOLYLINE
  5
7C33
330
17
100
AcDbEntity
  8
R-SWTS-DET1
  6
HIDDEN
100
AcDbPolyline
 90
       20
 70
     1
 43
0.0
 10
17.34748285172005
 20
29.11268071421411
 10
17.34748285172005
 20
29.4011807142069
 10
17.21948285172325
 20
29.4011807142069
 10
17.21948285172325
 20
29.33118071420865
 10
17.16948285172449
 20
29.33118071420865
 10
17.16948285172449
 20
29.4011807142069
 10
17.1294828517255
 20
29.4011807142069
 10
17.1294828517255
 20
29.49118071420464
 10
20.01506651747854
 20
29.49118071420464
 10
20.01506651747854
 20
28.2411807142359
 10
19.92506651748078
 20
28.2411807142359
 10
19.92506651748078
 20
29.4011807142069
 10
19.25306651749759
 20
29.4011807142069
 10
19.25306651749759
 20
27.49118071425465
 10
19.16306651749983
 20
27.49118071425465
 10
19.16306651749983
 20
29.4011807142069
 10
17.4094828517185
 20
29.4011807142069
 10
17.4094828517185
 20
29.23318071421109
 10
17.4494828517175
 20
29.23318071421109
 10
17.37548256290313
 20
29.1051782142143
 42
-0.7673269879789605
  0
LINE
  5
7C34
330
17
100
AcDbEntity
  8
R-SWTS-DET2
100
AcDbLine
 10
17.20748285172325
 20
28.81918071420865
 30
0.0
 11
17.34048285172325
 21
28.81918071420865
 31
0.0
  0
LINE
  5
7C35
330
17
100
AcDbEntity
  8
R-SWTS-DET2
100
AcDbLine
 10
17.12948285172325
 20
28.74118071420865
 30
0.0
 11
17.36748285172325
 21
28.74118071420865
 31
0.0
  0
ARC
  5
7C36
330
17
100
AcDbEntity
  8
R-SWTS-DET2
100
AcDbCircle
 10
17.36748285172325
 20
28.81918071420865
 30
0.0
 40
0.078005
100
AcDbArc
 50
270.0
 51
349.9999999999998
  0
ARC
  5
7C37
330
17
100
AcDbEntity
  8
R-SWTS-DET2
100
AcDbCircle
 10
17.34048285172325
 20
28.89718071420865
 30
0.0
 40
0.078005
100
AcDbArc
 50
270.0
 51
349.9999999999998
  0
TEXT
  5
7C38
330
17
100
AcDbEntity
  8
PART_NUMBERS
100
AcDbText
 10
17.01522236172208
 20
29.74485688591658
 30
0.0
 40
0.25
  1
069271 STOOL TRIM CLIP PKG
100
AcDbText
  0
LINE
  5
7C39
330
17
100
AcDbEntity
  8
R-SWTS-DET2
100
AcDbLine
 10
17.20748285172325
 20
29.25318071420864
 30
0.0
 11
17.21948285172325
 21
29.25318071420864
 31
0.0
  0
LINE
  5
7C3A
330
17
100
AcDbEntity
  8
R-SWTS-DET2
100
AcDbLine
 10
17.21948285172325
 20
29.33118071420865
 30
0.0
 11
17.21948285172325
 21
29.25318071420864
 31
0.0
  0
LINE
  5
7C3B
330
17
100
AcDbEntity
  8
R-SWTS-DET2
100
AcDbLine
 10
17.12948285172325
 20
29.39118071420864
 30
0.0
 11
17.16948285172325
 21
29.39118071420864
 31
0.0
  0
LINE
  5
7C3C
330
17
100
AcDbEntity
  8
R-SWTS-DET2
100
AcDbLine
 10
17.12948285172325
 20
29.03618071420865
 30
0.0
 11
17.13948285172325
 21
29.04618071420865
 31
0.0
  0
LINE
  5
7C3D
330
17
100
AcDbEntity
  8
R-SWTS-DET2
100
AcDbLine
 10
17.12948285172325
 20
29.05618071420864
 30
0.0
 11
17.13948285172325
 21
29.04618071420865
 31
0.0
  0
LINE
  5
7C3E
330
17
100
AcDbEntity
  8
R-SWTS-DET2
100
AcDbLine
 10
17.16948285172325
 20
29.39118071420864
 30
0.0
 11
17.16948285172325
 21
29.33118071420865
 31
0.0
  0
LINE
  5
7C3F
330
17
100
AcDbEntity
  8
R-SWTS-DET2
100
AcDbLine
 10
17.12948285172325
 20
29.39118071420864
 30
0.0
 11
17.12948285172325
 21
29.05618071420864
 31
0.0
  0
LINE
  5
7C40
330
17
100
AcDbEntity
  8
R-SWTS-DET2
100
AcDbLine
 10
17.16948285172325
 20
29.33118071420865
 30
0.0
 11
17.21948285172325
 21
29.33118071420865
 31
0.0
  0
LINE
  5
7C41
330
17
100
AcDbEntity
  8
R-SWTS-DET2
100
AcDbLine
 10
17.09532195172325
 20
28.95118110420865
 30
0.0
 11
17.09532195172325
 21
29.14118032420865
 31
0.0
  0
LINE
  5
7C42
330
17
100
AcDbEntity
  8
R-SWTS-DET2
100
AcDbLine
 10
17.09532155172325
 20
29.14118062420865
 30
0.0
 11
16.76998285172325
 21
29.14118062420865
 31
0.0
  0
LINE
  5
7C43
330
17
100
AcDbEntity
  8
R-SWTS-DET2
100
AcDbLine
 10
17.09532185172325
 20
28.95118068420865
 30
0.0
 11
16.76998285172325
 21
28.95118068420865
 31
0.0
  0
LINE
  5
7C44
330
17
100
AcDbEntity
  8
R-SWTS-DET2
100
AcDbLine
 10
17.20748277927153
 20
29.23868031420865
 30
0.0
 11
17.09532185172325
 21
29.14118038420865
 31
0.0
  0
LINE
  5
7C45
330
17
100
AcDbEntity
  8
R-SWTS-DET2
100
AcDbLine
 10
16.76998335172324
 20
29.14118068420865
 30
0.0
 11
16.64498335172325
 21
29.11118065420865
 31
0.0
  0
LINE
  5
7C46
330
17
100
AcDbEntity
  8
R-SWTS-DET2
100
AcDbLine
 10
16.64498285172325
 20
28.98118065420865
 30
0.0
 11
16.64498285172325
 21
29.11118059420865
 31
0.0
  0
LINE
  5
7C47
330
17
100
AcDbEntity
  8
R-SWTS-DET2
100
AcDbLine
 10
16.76998355172325
 20
28.95118050420865
 30
0.0
 11
16.64498355172325
 21
28.98118047420864
 31
0.0
  0
LINE
  5
7C48
330
17
100
AcDbEntity
  8
R-SWTS-DET2
100
AcDbLine
 10
17.42948285172325
 20
29.25318071420864
 30
0.0
 11
17.46948285172325
 21
29.25318071420864
 31
0.0
  0
LINE
  5
7C49
330
17
100
AcDbEntity
  8
R-SWTS-DET2
100
AcDbLine
 10
17.42948285172325
 20
29.25318071420864
 30
0.0
 11
17.46798285172325
 21
29.32018071420865
 31
0.0
  0
LINE
  5
7C4A
330
17
100
AcDbEntity
  8
R-SWTS-DET2
100
AcDbLine
 10
17.46948285172325
 20
29.25318071420864
 30
0.0
 11
17.46948285172325
 21
29.17868071420865
 31
0.0
  0
ARC
  5
7C4B
330
17
100
AcDbEntity
  8
R-SWTS-DET2
100
AcDbCircle
 10
17.48748285172325
 20
29.30868071420865
 30
0.0
 40
0.02217
100
AcDbArc
 50
0.0
 51
150.0
  0
LINE
  5
7C80
330
17
100
AcDbEntity
  8
R-ANNO-DIMS
100
AcDbLine
 10
42.34452108859854
 20
26.7325327374917
 30
0.0
 11
43.00628335561884
 21
27.81426078495354
 31
0.0
210
0.0
220
0.0
230
-1.0
1001
ACAD
1000
DSTYLE
1002
{
1070
     3
1000
"
1070
     5
1000

1070
    41
1040
0.2
1070
    42
1040
0.125
1070
    43
1040
0.375
1070
    44
1040
0.125
1070
    73
1070
     0
1070
    74
1070
     0
1070
    76
1070
     1
1070
    77
1070
     0
1070
    78
1070
     1
1070
   140
1040
0.25
1070
   141
1040
0.0
1070
   147
1040
0.062
1070
   176
1070
   256
1070
   177
1070
   256
1070
   178
1070
   256
1070
   179
1070
     4
1070
   276
1070
     2
1070
   277
1070
     5
1070
   284
1070
     1
1070
   342
1005
0
1002
}
  0
SOLID
  5
7C81
330
17
100
AcDbEntity
  8
R-ANNO-DIMS
100
AcDbTrace
 10
-42.31608662408237
 20
26.74992791897365
 30
0.0
 11
-42.24014999970679
 21
26.56192595039473
 31
0.0
 12
-42.37295555311471
 22
26.71513755600974
 32
0.0
 13
-42.37295555311471
 23
26.71513755600974
 33
0.0
210
0.0
220
0.0
230
-1.0
1001
ACAD
1000
DSTYLE
1002
{
1070
     3
1000
"
1070
     5
1000

1070
    41
1040
0.2
1070
    42
1040
0.125
1070
    43
1040
0.375
1070
    44
1040
0.125
1070
    73
1070
     0
1070
    74
1070
     0
1070
    76
1070
     1
1070
    77
1070
     0
1070
    78
1070
     1
1070
   140
1040
0.25
1070
   141
1040
0.0
1070
   147
1040
0.062
1070
   176
1070
   256
1070
   177
1070
   256
1070
   178
1070
   256
1070
   179
1070
     4
1070
   276
1070
     2
1070
   277
1070
     5
1070
   284
1070
     1
1070
   342
1005
0
1002
}
  0
TEXT
  5
7C82
330
17
100
AcDbEntity
  8
PART_NUMBERS
100
AcDbText
 10
43.08976233124197
 20
27.68546336213903
 30
0.0
 40
0.25
  1
.125 BRAKE METAL
100
AcDbText
  0
LWPOLYLINE
  5
80EF
330
17
100
AcDbEntity
  8
0
  6
HIDDEN
100
AcDbPolyline
 90
       96
 70
     1
 43
0.0
 10
44.40759800088885
 20
22.31529496419725
 10
44.40759800088885
 20
22.35724496419725
 42
-0.3541185725307177
 10
44.42343976707249
 20
22.37680791621192
 10
44.52559800088884
 20
22.39924496419725
 10
44.56359800088885
 20
22.39924496419725
 10
44.56359800088885
 20
22.37024496419725
 10
44.57559800088886
 20
22.37024496419725
 42
0.4142135623730951
 10
44.59559800088885
 20
22.39024496419725
 10
44.59559800088885
 20
22.41924496419725
 42
0.4142135623730951
 10
44.57559800088886
 20
22.43924496419725
 10
44.37360300088885
 20
22.43924496419725
 42
0.4142135623730951
 10
44.33559800088885
 20
22.40123996419725
 10
44.35759800088885
 20
22.40123996419725
 10
44.35759800088885
 20
22.33923996419725
 10
44.33559800088885
 20
22.33923996419725
 10
44.33559800088885
 20
22.28446390809914
 42
0.198901884618128
 10
44.34291961834084
 20
22.26678695161657
 10
44.41631411956835
 20
22.1933865293833
 42
-0.668164052169275
 10
44.40217141352995
 20
22.15924496419725
 10
43.47609800088885
 20
22.15924496419725
 42
-0.4142135623730951
 10
43.41609800088884
 20
22.21924496419724
 10
43.41609800088884
 20
23.06524996419724
 42
-0.4142135623730951
 10
43.51609800088884
 20
23.16524996419725
 10
44.33259800088885
 20
23.16524996419725
 42
-0.4142135623730951
 10
44.35759800088885
 20
23.14024996419725
 10
44.35759800088885
 20
23.10324996419724
 10
44.33559800088885
 20
23.10324996419724
 42
0.4142135623730951
 10
44.37360300088885
 20
23.06524496419725
 10
44.57559800088886
 20
23.06524496419725
 42
0.4142135623730951
 10
44.59559800088885
 20
23.08524496419725
 10
44.59559800088885
 20
23.11424496419725
 42
0.4142135623730951
 10
44.57559800088886
 20
23.13424496419724
 10
44.56359800088885
 20
23.13424496419724
 10
44.56359800088885
 20
23.10524496419725
 10
44.52559800088884
 20
23.10524496419725
 10
44.42343976707249
 20
23.12768201218257
 42
-0.3541185725307012
 10
44.40759800088885
 20
23.14724496419725
 10
44.40759800088885
 20
23.18919496419725
 10
44.47422033135919
 20
23.25587263372691
 42
-0.1989123673796526
 10
44.49189800088885
 20
23.26319496419725
 10
44.56359800088885
 20
23.26319496419725
 10
44.56359800088885
 20
23.23419496419725
 10
44.64609800088886
 20
23.26319496419725
 10
44.63609800088884
 20
23.31619408923117
 10
44.66609800088884
 20
23.32673954377662
 10
44.66609800088884
 20
26.58924496419724
 10
42.66609800088885
 20
26.58924496419724
 10
42.66609800088885
 20
26.13524405183382
 10
42.74609800088884
 20
26.13524405183382
 10
42.74609800088884
 20
26.02724405183381
 42
0.4142135623730951
 10
42.80809800088884
 20
25.96524405183381
 10
42.82609800088884
 20
25.96524405183382
 10
42.82609800088884
 20
26.15324405183382
 42
0.4142135623730951
 10
42.76409800088885
 20
26.21524405183381
 10
42.73609800088884
 20
26.2152440518338
 10
42.73609800088884
 20
26.45924496419725
 42
-0.4142135623730863
 10
42.79609800088884
 20
26.51924496419724
 10
44.53609800088874
 20
26.51924496419724
 42
-0.4142135623730864
 10
44.59609800088874
 20
26.45924496419725
 10
44.59609800088879
 20
25.00124496419736
 42
-0.4142135623722106
 10
44.57609800088884
 20
24.98124496419736
 10
44.57609800088884
 20
24.63724496419736
 42
-0.4142135623722627
 10
44.59609800088879
 20
24.61724496419736
 10
44.59609800088879
 20
24.07024496419737
 42
-0.4142135623722106
 10
44.57609800088884
 20
24.05024496419724
 10
44.57609800088884
 20
23.70624496419725
 42
-0.4142135623722627
 10
44.59609800088879
 20
23.68624496419724
 10
44.59609800088886
 20
23.40319496419725
 42
-0.4142135623731023
 10
44.52609800088885
 20
23.33319496419725
 10
44.49604257164027
 20
23.33319496419725
 42
0.1990202627215684
 10
44.42176554294412
 20
23.30241034675418
 10
44.36051977012762
 20
23.24111370085307
 42
-0.1990202627215683
 10
44.3463717646617
 20
23.23524996419724
 10
43.51609800088884
 20
23.23524996419724
 42
0.4142135623730958
 10
43.34609800088884
 20
23.06524996419724
 10
43.34609800088884
 20
22.21924496419724
 42
-0.4142135623730951
 10
43.28609800088885
 20
22.15924496419725
 10
42.79609800088884
 20
22.15924496419725
 42
-0.4142135623730951
 10
42.73609800088885
 20
22.21924496419724
 10
42.73609800088884
 20
22.46324405183383
 10
42.76409800088885
 20
22.46324405183383
 42
0.4142135623730951
 10
42.82609800088884
 20
22.52524405183383
 10
42.82609800088884
 20
22.71324405183382
 10
42.80809800088884
 20
22.71324405183382
 42
0.4142135623730951
 10
42.74609800088884
 20
22.65124405183382
 10
42.74609800088884
 20
22.54324405183382
 10
42.66609800088885
 20
22.54324405183382
 10
42.66609800088885
 20
22.08924496419724
 10
44.66609800088884
 20
22.08924496419724
 10
44.66609800088884
 20
22.17775038461788
 10
44.63609800088884
 20
22.18829583916333
 10
44.64609800088886
 20
22.24129496419724
 10
44.56359800088885
 20
22.27029496419725
 10
44.56359800088885
 20
22.24129496419724
 10
44.49189800088885
 20
22.24129496419724
 42
-0.1989123673796526
 10
44.47422033135919
 20
22.24861729466759
  0
LWPOLYLINE
  5
8123
330
17
100
AcDbEntity
  8
0
  6
HIDDEN
100
AcDbPolyline
 90
       62
 70
     1
 43
0.0
 10
15.19148285172329
 20
32.98309616676252
 10
15.19148285172329
 20
32.93809616676251
 10
15.12948285172328
 20
32.93809616676251
 10
15.12948285172328
 20
32.98309616676252
 10
14.37948285172328
 20
32.98309616676252
 10
14.37948285172328
 20
32.93809616676251
 10
14.31748285172329
 20
32.93809616676251
 10
14.31748285172326
 20
32.98309616676249
 10
13.3071598592856
 20
32.98309616676251
 10
13.3071598592856
 20
32.93809616676251
 10
13.24515985928559
 20
32.93809616676251
 10
13.24515985928559
 20
32.98309616676251
 10
12.5044828517233
 20
32.98309616676252
 10
12.5044828517233
 20
32.93809616676251
 10
12.37948285172325
 20
32.93809616676251
 10
12.37948285172328
 20
33.86414416675873
 42
-0.4142135623731471
 10
12.38948285172328
 20
33.87414416675873
 10
12.49448285172327
 20
33.87414416675873
 42
-0.4142135623730951
 10
12.50448285172328
 20
33.86414416675871
 10
12.50448285172326
 20
33.77914416675873
 42
-0.4142135623730951
 10
12.49448285172328
 20
33.76914416675871
 10
12.45248285172328
 20
33.76914416675871
 42
0.4142135623730951
 10
12.44248285172329
 20
33.75914416675872
 10
12.44248285172329
 20
33.68914416675869
 42
0.4142135623730951
 10
12.45248285172328
 20
33.6791441667587
 10
12.49448285172328
 20
33.6791441667587
 42
-0.4142135623730951
 10
12.50448285172326
 20
33.66914416675868
 10
12.50448285172337
 20
33.06309616676254
 10
14.73958285172324
 20
33.06309616676251
 10
14.75458285172328
 20
33.04809616676252
 10
14.76958285172327
 20
33.06309616676251
 10
16.05198398082848
 20
33.06309616676254
 42
-0.4142135623731471
 10
16.06198398082848
 20
33.05309616676254
 10
16.06198398082848
 20
33.00417048473992
 42
0.4142135623727309
 10
16.07198398082846
 20
32.99417048473993
 10
16.15136673872325
 20
32.99417048473993
 42
0.3152987888785436
 10
16.16076366493108
 20
33.00075028330665
 10
16.18106085991235
 20
33.05651636819579
 42
-0.3152987888789013
 10
16.1904577861202
 20
33.06309616676254
 10
17.00448285172325
 20
33.06309616676251
 10
17.00448285172325
 20
33.87414416675871
 10
17.04948285172326
 20
33.87414416675871
 10
17.04948285172326
 20
34.66147438849374
 42
0.1316524975872385
 10
17.04814310576109
 20
34.66647438849373
 10
17.00448285172325
 20
34.74209616675871
 10
17.05648285172327
 20
34.74209616675871
 42
0.4142135623730951
 10
17.06648285172326
 20
34.75209616675871
 10
17.06648285172326
 20
34.82209616675873
 42
0.4142135623730951
 10
17.05648285172327
 20
34.83209616675872
 10
17.01448285172325
 20
34.83209616675872
 42
-0.4142135623730951
 10
17.00448285172325
 20
34.84209616675874
 10
17.00448285172325
 20
34.92709616675871
 42
-0.4142135623731471
 10
17.01448285172325
 20
34.93709616675871
 10
17.1194828517233
 20
34.93709616675871
 42
-0.4142135623739276
 10
17.12948285172328
 20
34.92709616675872
 10
17.12948285172328
 20
32.93809616676251
 10
17.00448285172325
 20
32.93809616676251
 10
17.00448285172325
 20
32.98309616676252
 10
16.23198398082848
 20
32.98309616676254
 10
16.23198398082847
 20
32.93809616676248
 10
15.98198398082847
 20
32.93809616676252
 10
15.98198398082848
 20
32.98309616676252
  0
TEXT
  5
812A
330
17
100
AcDbEntity
  8
PART_NUMBERS
100
AcDbText
 10
17.01522236172211
 20
35.19077233847064
 30
0.0
 40
0.25
  1
069271 STOOL TRIM CLIP PKG
100
AcDbText
  0
LWPOLYLINE
  5
812B
330
17
100
AcDbEntity
  8
R-SWTS-DET1
  6
HIDDEN
100
AcDbPolyline
 90
       20
 70
     1
 43
0.0
 10
17.34748285172007
 20
34.55859616676817
 10
17.34748285172007
 20
34.84709616676096
 10
17.21948285172327
 20
34.84709616676096
 10
17.21948285172327
 20
34.77709616676271
 10
17.16948285172452
 20
34.77709616676271
 10
17.16948285172452
 20
34.84709616676096
 10
17.12948285172553
 20
34.84709616676096
 10
17.12948285172553
 20
34.93709616675871
 10
20.01506651747857
 20
34.93709616675871
 10
20.01506651747857
 20
33.68709616678996
 10
19.92506651748081
 20
33.68709616678996
 10
19.92506651748081
 20
34.84709616676096
 10
19.25306651749761
 20
34.84709616676096
 10
19.25306651749761
 20
32.93709616680871
 10
19.16306651749986
 20
32.93709616680871
 10
19.16306651749986
 20
34.84709616676096
 10
17.40948285171852
 20
34.84709616676096
 10
17.40948285171852
 20
34.67909616676516
 10
17.44948285171752
 20
34.67909616676516
 10
17.37548256290316
 20
34.55109366676836
 42
-0.7673269879789605
  0
LINE
  5
812C
330
17
100
AcDbEntity
  8
R-SWTS-DET2
100
AcDbLine
 10
17.20748277927156
 20
34.68459576676271
 30
0.0
 11
17.09532185172327
 21
34.58709583676271
 31
0.0
  0
LINE
  5
812D
330
17
100
AcDbEntity
  8
R-SWTS-DET2
100
AcDbLine
 10
17.16948285172328
 20
34.77709616676271
 30
0.0
 11
17.21948285172327
 21
34.77709616676271
 31
0.0
  0
LINE
  5
812E
330
17
100
AcDbEntity
  8
R-SWTS-DET2
100
AcDbLine
 10
17.12948285172328
 20
34.18709616676271
 30
0.0
 11
17.36748285172328
 21
34.18709616676271
 31
0.0
  0
LINE
  5
812F
330
17
100
AcDbEntity
  8
R-SWTS-DET2
100
AcDbLine
 10
17.20748279545851
 20
34.2995965667627
 30
0.0
 11
17.09532195172328
 21
34.39709637676271
 31
0.0
  0
LINE
  5
8130
330
17
100
AcDbEntity
  8
R-SWTS-DET2
100
AcDbLine
 10
16.64498285172328
 20
34.42709610676271
 30
0.0
 11
16.64498285172328
 21
34.55709604676271
 31
0.0
  0
LINE
  5
8131
330
17
100
AcDbEntity
  8
R-SWTS-DET2
100
AcDbLine
 10
17.09532195172328
 20
34.39709655676271
 30
0.0
 11
17.09532195172328
 21
34.58709577676271
 31
0.0
  0
LINE
  5
8132
330
17
100
AcDbEntity
  8
R-SWTS-DET2
100
AcDbLine
 10
17.12948285172328
 20
34.83709616676271
 30
0.0
 11
17.12948285172328
 21
34.50209616676271
 31
0.0
  0
LINE
  5
8133
330
17
100
AcDbEntity
  8
R-SWTS-DET2
100
AcDbLine
 10
16.76998355172328
 20
34.39709595676271
 30
0.0
 11
16.64498355172328
 21
34.4270959267627
 31
0.0
  0
LINE
  5
8134
330
17
100
AcDbEntity
  8
R-SWTS-DET2
100
AcDbLine
 10
17.09532185172327
 20
34.39709613676271
 30
0.0
 11
16.76998285172327
 21
34.39709613676271
 31
0.0
  0
LINE
  5
8135
330
17
100
AcDbEntity
  8
R-SWTS-DET2
100
AcDbLine
 10
17.12948285172328
 20
34.50209616676271
 30
0.0
 11
17.13948285172328
 21
34.49209616676271
 31
0.0
  0
LINE
  5
8136
330
17
100
AcDbEntity
  8
R-SWTS-DET2
100
AcDbLine
 10
17.12948285172328
 20
34.48209616676271
 30
0.0
 11
17.13948285172328
 21
34.49209616676271
 31
0.0
  0
LINE
  5
8137
330
17
100
AcDbEntity
  8
R-SWTS-DET2
100
AcDbLine
 10
17.12948285172328
 20
34.48209616676271
 30
0.0
 11
17.12948285172328
 21
34.18709616676271
 31
0.0
  0
LINE
  5
8138
330
17
100
AcDbEntity
  8
R-SWTS-DET2
100
AcDbLine
 10
16.76998335172327
 20
34.58709613676271
 30
0.0
 11
16.64498335172327
 21
34.55709610676271
 31
0.0
  0
LINE
  5
8139
330
17
100
AcDbEntity
  8
R-SWTS-DET2
100
AcDbLine
 10
17.09532155172327
 20
34.58709607676271
 30
0.0
 11
16.76998285172327
 21
34.58709607676271
 31
0.0
  0
LINE
  5
813A
330
17
100
AcDbEntity
  8
R-SWTS-DET2
100
AcDbLine
 10
17.16948285172328
 20
34.83709616676271
 30
0.0
 11
17.16948285172328
 21
34.77709616676271
 31
0.0
  0
LINE
  5
813B
330
17
100
AcDbEntity
  8
R-SWTS-DET2
100
AcDbLine
 10
17.12948285172328
 20
34.83709616676271
 30
0.0
 11
17.16948285172328
 21
34.83709616676271
 31
0.0
  0
LINE
  5
813C
330
17
100
AcDbEntity
  8
R-SWTS-DET2
100
AcDbLine
 10
17.20748285172328
 20
34.68459606676271
 30
0.0
 11
17.20748285172328
 21
34.29959626676271
 31
0.0
  0
LWPOLYLINE
  5
813D
330
17
100
AcDbEntity
  8
R-SWTS-DET2
100
AcDbPolyline
 90
        3
 70
     0
 43
0.0
 10
17.50948285172327
 20
34.75459616676271
 10
17.50948285172327
 20
34.62109616676271
 10
17.44448285172328
 20
34.25159616676271
  0
LINE
  5
813E
330
17
100
AcDbEntity
  8
R-SWTS-DET2
100
AcDbLine
 10
17.41748285172328
 20
34.32959616676271
 30
0.0
 11
17.46948285172328
 21
34.62459616676271
 31
0.0
  0
LINE
  5
813F
330
17
100
AcDbEntity
  8
R-SWTS-DET2
100
AcDbLine
 10
17.20748285172328
 20
34.69909616676271
 30
0.0
 11
17.20748285172328
 21
34.26509616676271
 31
0.0
  0
ARC
  5
8140
330
17
100
AcDbEntity
  8
R-SWTS-DET2
100
AcDbCircle
 10
17.34048285172328
 20
34.34309616676271
 30
0.0
 40
0.078005
100
AcDbArc
 50
270.0
 51
349.9999999999998
  0
ARC
  5
8141
330
17
100
AcDbEntity
  8
R-SWTS-DET2
100
AcDbCircle
 10
17.36748285172328
 20
34.26509616676271
 30
0.0
 40
0.078005
100
AcDbArc
 50
270.0
 51
349.9999999999998
  0
LINE
  5
8142
330
17
100
AcDbEntity
  8
R-SWTS-DET2
100
AcDbLine
 10
17.20748285172328
 20
34.26509616676271
 30
0.0
 11
17.34048285172328
 21
34.26509616676271
 31
0.0
  0
ARC
  5
8143
330
17
100
AcDbEntity
  8
R-SWTS-DET2
100
AcDbCircle
 10
17.48748285172328
 20
34.75459616676271
 30
0.0
 40
0.02217
100
AcDbArc
 50
0.0
 51
150.0
  0
LINE
  5
8144
330
17
100
AcDbEntity
  8
R-SWTS-DET2
100
AcDbLine
 10
17.46948285172328
 20
34.69909616676271
 30
0.0
 11
17.46948285172328
 21
34.62459616676271
 31
0.0
  0
LINE
  5
8145
330
17
100
AcDbEntity
  8
R-SWTS-DET2
100
AcDbLine
 10
17.42948285172328
 20
34.69909616676271
 30
0.0
 11
17.46798285172328
 21
34.76609616676271
 31
0.0
  0
LINE
  5
8146
330
17
100
AcDbEntity
  8
R-SWTS-DET2
100
AcDbLine
 10
17.42948285172328
 20
34.69909616676271
 30
0.0
 11
17.46948285172328
 21
34.69909616676271
 31
0.0
  0
LINE
  5
8147
330
17
100
AcDbEntity
  8
R-SWTS-DET2
100
AcDbLine
 10
17.21948285172327
 20
34.77709616676271
 30
0.0
 11
17.21948285172327
 21
34.69909616676271
 31
0.0
  0
LINE
  5
8148
330
17
100
AcDbEntity
  8
R-SWTS-DET2
100
AcDbLine
 10
17.20748285172328
 20
34.69909616676271
 30
0.0
 11
17.21948285172327
 21
34.69909616676271
 31
0.0
  0
MTEXT
  5
8319
102
{ACAD_XDICTIONARY
360
831A
102
}
330
17
100
AcDbEntity
  8
TEXT
100
AcDbMText
 10
1.000000043343135
 20
1.999999984525842
 30
0.0
 40
0.375
 41
15.4571868900598
 71
     1
 72
     5
  1
ENGINEERING CHANGE:  97910-094 (MARCH 2017)\PFILE NAME:  KCDC031 SHEET 08 OF 08.DWG
 73
     1
 44
1.0
1001
ACAD
1000
ACAD_MTEXT_COLUMN_INFO_BEGIN
1070
    75
1070
     2
1070
    79
1070
     0
1070
    76
1070
     1
1070
    78
1070
     0
1070
    48
1040
15.4571868900598
1070
    49
1040
1.25
1070
    50
1070
     1
1040
0.0
1000
ACAD_MTEXT_COLUMN_INFO_END
1000
MTEXTBEGIN
1070
    73
1070
     1
1070
    44
1040
1.0
1070
    74
1070
     0
1000
MTEXTEND
  0
INSERT
  5
87C6
330
17
100
AcDbEntity
  8
0
100
AcDbBlockReference
  2
Kawneer Logo English
 10
1.000000043343135
 20
2.499999984525842
 30
0.0
 41
5.337
 42
5.337
 43
5.337
  0
ENDSEC
  0
SECTION
  2
OBJECTS
  0
DICTIONARY
  5
C
330
0
100
AcDbDictionary
281
     1
  3
ACAD_CIP_PREVIOUS_PRODUCT_INFO
350
82F3
  3
ACAD_COLOR
350
825A
  3
ACAD_FIELDLIST
350
8317
  3
ACAD_GROUP
350
D
  3
ACAD_LAYOUT
350
485C
  3
ACAD_MATERIAL
350
8228
  3
ACAD_MLEADERSTYLE
350
826F
  3
ACAD_MLINESTYLE
350
1A
  3
ACAD_PLOTSETTINGS
350
485D
  3
ACAD_PLOTSTYLENAME
350
485A
  3
ACAD_SCALELIST
350
825D
  3
ACAD_TABLESTYLE
350
825B
  3
ACAD_VISUALSTYLE
350
8241
  3
ACDB_RECOMPOSE_DATA
350
8859
  3
ACDBVARIABLEDICTIONARY
350
3E
  3
DWGPROPS
350
885A
  0
DICTIONARY
  5
82AF
330
8
100
AcDbDictionary
280
     1
281
     1
  0
DICTIONARY
  5
828E
330
2
100
AcDbDictionary
280
     1
281
     1
  3
ACAD_LAYERSTATES
360
828F
  0
DICTIONARY
  5
829E
330
E
100
AcDbDictionary
280
     1
281
     1
  3
ADSK_XREC_LAYER_RECONCILED
360
829F
  0
DICTIONARY
  5
82A0
330
273
100
AcDbDictionary
280
     1
281
     1
  3
ADSK_XREC_LAYER_RECONCILED
360
82A1
  0
DICTIONARY
  5
82A2
330
42D
100
AcDbDictionary
280
     1
281
     1
  3
ADSK_XREC_LAYER_RECONCILED
360
82A3
  0
DICTIONARY
  5
82A4
330
42E
100
AcDbDictionary
280
     1
281
     1
  3
ADSK_XREC_LAYER_RECONCILED
360
82A5
  0
DICTIONARY
  5
82A6
330
71BB
100
AcDbDictionary
280
     1
281
     1
  3
ADSK_XREC_LAYER_RECONCILED
360
82A7
  0
DICTIONARY
  5
82A8
330
731F
100
AcDbDictionary
280
     1
281
     1
  3
ADSK_XREC_LAYER_RECONCILED
360
82A9
  0
DICTIONARY
  5
8308
330
8307
100
AcDbDictionary
280
     1
281
     1
  0
DICTIONARY
  5
4A11
330
17
100
AcDbDictionary
280
     1
281
     1
  3
ACAD_LAYOUTSELFREF
360
8224
  0
DICTIONARY
  5
4A0F
330
14
100
AcDbDictionary
280
     1
281
     1
  3
ACAD_LAYOUTSELFREF
360
8223
  0
DICTIONARY
  5
87C2
330
87B8
100
AcDbDictionary
280
     1
281
     1
  3
ACAD_SORTENTS
360
87C3
  0
DICTIONARY
  5
8857
330
87B9
100
AcDbDictionary
280
     1
281
     1
  3
ACAD_MTEXT_2008_RT
360
8858
  0
DICTIONARY
  5
831A
330
8319
100
AcDbDictionary
280
     1
281
     1
  0
XRECORD
  5
82F3
102
{ACAD_REACTORS
330
C
102
}
330
C
100
AcDbXrecord
280
     1
300
ACD
300
2012
300
85730ACD_2012_0F
  0
DICTIONARY
  5
825A
102
{ACAD_REACTORS
330
C
102
}
330
C
100
AcDbDictionary
281
     1
  0
FIELDLIST
  5
8317
102
{ACAD_REACTORS
330
C
102
}
330
C
100
AcDbIdSet
 90
        0
100
AcDbFieldList
  0
DICTIONARY
  5
D
102
{ACAD_REACTORS
330
C
102
}
330
C
100
AcDbDictionary
281
     1
  0
DICTIONARY
  5
485C
102
{ACAD_REACTORS
330
C
102
}
330
C
100
AcDbDictionary
281
     1
  3
Layout1
350
485F
  3
Model
350
485E
  0
DICTIONARY
  5
8228
102
{ACAD_REACTORS
330
C
102
}
330
C
100
AcDbDictionary
281
     1
  3
ByBlock
350
8231
  3
ByLayer
350
8229
  3
Global
350
8239
  0
DICTIONARY
  5
826F
102
{ACAD_REACTORS
330
C
102
}
330
C
100
AcDbDictionary
281
     1
  3
Standard
350
8270
  0
DICTIONARY
  5
1A
102
{ACAD_REACTORS
330
C
102
}
330
C
100
AcDbDictionary
281
     1
  3
STANDARD
350
1B
  0
DICTIONARY
  5
485D
102
{ACAD_REACTORS
330
C
102
}
330
C
100
AcDbDictionary
281
     1
  0
ACDBDICTIONARYWDFLT
  5
485A
102
{ACAD_REACTORS
330
C
102
}
330
C
100
AcDbDictionary
281
     1
  3
Normal
350
485B
100
AcDbDictionaryWithDefault
340
485B
  0
DICTIONARY
  5
825D
102
{ACAD_REACTORS
330
C
102
}
330
C
100
AcDbDictionary
281
     1
  3
A0
350
825E
  3
A1
350
8796
  3
A2
350
8797
  3
A3
350
8798
  3
A4
350
8799
  3
A5
350
879A
  3
A6
350
879B
  3
A7
350
879C
  3
A8
350
879D
  3
A9
350
879E
  3
B0
350
879F
  3
B1
350
87A0
  3
B2
350
87A1
  3
B3
350
87A2
  3
B4
350
87A3
  3
B5
350
87A4
  3
B6
350
87A5
  0
DICTIONARY
  5
825B
102
{ACAD_REACTORS
330
C
102
}
330
C
100
AcDbDictionary
281
     1
  3
Standard
350
825C
  0
DICTIONARY
  5
8241
102
{ACAD_REACTORS
330
C
102
}
330
C
100
AcDbDictionary
281
     1
  3
2dWireframe
350
8247
  3
3D Hidden
350
87B6
  3
3dWireframe
350
87B7
  3
Basic
350
8246
  3
Brighten
350
824D
  3
ColorChange
350
8251
  3
Conceptual
350
824A
  3
Dim
350
824C
  3
EdgeColorOff
350
8259
  3
Facepattern
350
8250
  3
Flat
350
8242
  3
FlatWithEdges
350
8243
  3
Gouraud
350
8244
  3
GouraudWithEdges
350
8245
  3
Hidden
350
8249
  3
JitterOff
350
8257
  3
Linepattern
350
824F
  3
OverhangOff
350
8258
  3
Realistic
350
824B
  3
Shaded
350
8256
  3
Shaded with edges
350
8255
  3
Shades of Gray
350
8252
  3
Sketchy
350
8253
  3
Thicken
350
824E
  3
Wireframe
350
8248
  3
X-Ray
350
8254
  0
XRECORD
  5
8859
102
{ACAD_REACTORS
330
C
102
}
330
C
100
AcDbXrecord
280
     1
 90
        1
330
825C
330
8319
330
87B9
  0
DICTIONARY
  5
3E
102
{ACAD_REACTORS
330
C
102
}
330
C
100
AcDbDictionary
281
     1
  3
CANNOSCALE
350
82EC
  3
CMLEADERSTYLE
350
82EB
  3
CTABLESTYLE
350
82EA
  3
DIMADEC
350
3F
  3
DIMASSOC
350
82EE
  3
INDEXCTL
350
82ED
  3
LAYEREVAL
350
878B
  3
LAYERNOTIFY
350
878C
  3
LIGHTINGUNITS
350
878A
  3
MSLTSCALE
350
8789
  3
SORTENTS
350
696F
  3
XCLIPFRAME
350
8855
  0
XRECORD
  5
885A
102
{ACAD_REACTORS
330
C
102
}
330
C
100
AcDbXrecord
280
     1
  1
DWGPROPS COOKIE
  2

  3

  4

  6

  7

  8
quadiss
  9

300
=
301
=
302
=
303
=
304
=
305
=
306
=
307
=
308
=
309
=
 40
0.9924078356481482
 41
2450777.537570949
 42
2457807.531257512
  1

 90
        0
  0
DICTIONARY
  5
828F
102
{ACAD_REACTORS
330
828E
102
}
330
828E
100
AcDbDictionary
281
     1
  0
XRECORD
  5
829F
102
{ACAD_REACTORS
330
829E
102
}
330
829E
100
AcDbXrecord
280
     1
290
     1
  0
XRECORD
  5
82A1
102
{ACAD_REACTORS
330
82A0
102
}
330
82A0
100
AcDbXrecord
280
     1
290
     1
  0
XRECORD
  5
82A3
102
{ACAD_REACTORS
330
82A2
102
}
330
82A2
100
AcDbXrecord
280
     1
290
     1
  0
XRECORD
  5
82A5
102
{ACAD_REACTORS
330
82A4
102
}
330
82A4
100
AcDbXrecord
280
     1
290
     1
  0
XRECORD
  5
82A7
102
{ACAD_REACTORS
330
82A6
102
}
330
82A6
100
AcDbXrecord
280
     1
290
     1
  0
XRECORD
  5
82A9
102
{ACAD_REACTORS
330
82A8
102
}
330
82A8
100
AcDbXrecord
280
     1
290
     1
  0
XRECORD
  5
8224
102
{ACAD_REACTORS
330
4A11
102
}
330
4A11
100
AcDbXrecord
280
     1
340
17
  0
XRECORD
  5
8223
102
{ACAD_REACTORS
330
4A0F
102
}
330
4A0F
100
AcDbXrecord
280
     1
340
14
  0
SORTENTSTABLE
  5
87C3
102
{ACAD_REACTORS
330
87C2
102
}
330
87C2
100
AcDbSortentsTable
330
87B8
  0
XRECORD
  5
8858
102
{ACAD_REACTORS
330
8857
102
}
330
8857
100
AcDbXrecord
280
     1
 40
102645.0
  1
\pxqr;{\fArial TUR|b0|i0|c0|p34;\T1.05;AN ARCONIC COMPANY}
  0
LAYOUT
  5
485F
102
{ACAD_XDICTIONARY
360
885D
102
}
102
{ACAD_REACTORS
330
485C
102
}
330
485C
100
AcDbPlotSettings
  1

  2
\\NOAKCI-SRV7\Marketing Communications - HP4550hdn
  4

  6

 40
0.0
 41
0.0
 42
0.0
 43
0.0
 44
0.0
 45
0.0
 46
0.0
 47
0.0
 48
0.0
 49
0.0
140
0.0
141
0.0
142
1.0
143
1.0
 70
   688
 72
     0
 73
     0
 74
     5
  7
monochrome.ctb
 75
    16
147
1.0
148
0.0
149
0.0
100
AcDbLayout
  1
Layout1
 70
     1
 71
     1
 10
0.0
 20
0.0
 11
12.0
 21
9.0
 12
0.0
 22
0.0
 32
0.0
 14
1.000000000000000E+20
 24
1.000000000000000E+20
 34
1.000000000000000E+20
 15
-1.000000000000000E+20
 25
-1.000000000000000E+20
 35
-1.000000000000000E+20
146
0.0
 13
0.0
 23
0.0
 33
0.0
 16
1.0
 26
0.0
 36
0.0
 17
0.0
 27
1.0
 37
0.0
 76
     0
330
14
  0
LAYOUT
  5
485E
102
{ACAD_XDICTIONARY
360
885B
102
}
102
{ACAD_REACTORS
330
485C
102
}
330
485C
100
AcDbPlotSettings
  1

  2
\\KWRKCI-HUB03\KCI_MKT_HP9000_PCL6
  4
11x17
  6

 40
3.174999952316284
 41
3.174999952316284
 42
3.17498779296875
 43
3.17498779296875
 44
279.3999938964844
 45
431.8000183105469
 46
0.0
 47
0.0
 48
0.0
 49
0.0
140
0.0
141
0.0
142
1.0
143
4.500213924051903
 70
 11952
 72
     0
 73
     1
 74
     1
  7
monochrome.ctb
 75
     0
147
0.2222116585736928
148
0.1168403262176014
149
0.0693620913564445
100
AcDbLayout
  1
Model
 70
     1
 71
     0
 10
0.0
 20
0.0
 11
12.0
 21
9.0
 12
0.0
 22
0.0
 32
0.0
 14
0.0
 24
0.0
 34
0.0
 15
0.0
 25
0.0
 35
0.0
146
0.0
 13
0.0
 23
0.0
 33
0.0
 16
1.0
 26
0.0
 36
0.0
 17
0.0
 27
1.0
 37
0.0
 76
     0
330
17
331
81FD
  0
MATERIAL
  5
8231
102
{ACAD_XDICTIONARY
360
8232
102
}
102
{ACAD_REACTORS
330
8228
102
}
330
8228
100
AcDbMaterial
  1
ByBlock
 72
     0
 43
0.0208333333333333
 43
0.0
 43
0.0
 43
0.0
 43
0.0
 43
0.0208333333333333
 43
0.0
 43
0.0
 43
0.0
 43
0.0
 43
1.0
 43
0.0
 43
0.0
 43
0.0
 43
0.0
 43
1.0
 77
     0
 47
0.0208333333333333
 47
0.0
 47
0.0
 47
0.0
 47
0.0
 47
0.0208333333333333
 47
0.0
 47
0.0
 47
0.0
 47
0.0
 47
1.0
 47
0.0
 47
0.0
 47
0.0
 47
0.0
 47
1.0
171
     0
 49
0.0208333333333333
 49
0.0
 49
0.0
 49
0.0
 49
0.0
 49
0.0208333333333333
 49
0.0
 49
0.0
 49
0.0
 49
0.0
 49
1.0
 49
0.0
 49
0.0
 49
0.0
 49
0.0
 49
1.0
175
     0
142
0.0208333333333333
142
0.0
142
0.0
142
0.0
142
0.0
142
0.0208333333333333
142
0.0
142
0.0
142
0.0
142
0.0
142
1.0
142
0.0
142
0.0
142
0.0
142
0.0
142
1.0
179
     0
144
0.0208333333333333
144
0.0
144
0.0
144
0.0
144
0.0
144
0.0208333333333333
144
0.0
144
0.0
144
0.0
144
0.0
144
1.0
144
0.0
144
0.0
144
0.0
144
0.0
144
1.0
147
0.0208333333333333
147
0.0
147
0.0
147
0.0
147
0.0
147
0.0208333333333333
147
0.0
147
0.0
147
0.0
147
0.0
147
1.0
147
0.0
147
0.0
147
0.0
147
0.0
147
1.0
  0
MATERIAL
  5
8229
102
{ACAD_XDICTIONARY
360
822A
102
}
102
{ACAD_REACTORS
330
8228
102
}
330
8228
100
AcDbMaterial
  1
ByLayer
 72
     0
 43
0.0208333333333333
 43
0.0
 43
0.0
 43
0.0
 43
0.0
 43
0.0208333333333333
 43
0.0
 43
0.0
 43
0.0
 43
0.0
 43
1.0
 43
0.0
 43
0.0
 43
0.0
 43
0.0
 43
1.0
 77
     0
 47
0.0208333333333333
 47
0.0
 47
0.0
 47
0.0
 47
0.0
 47
0.0208333333333333
 47
0.0
 47
0.0
 47
0.0
 47
0.0
 47
1.0
 47
0.0
 47
0.0
 47
0.0
 47
0.0
 47
1.0
171
     0
 49
0.0208333333333333
 49
0.0
 49
0.0
 49
0.0
 49
0.0
 49
0.0208333333333333
 49
0.0
 49
0.0
 49
0.0
 49
0.0
 49
1.0
 49
0.0
 49
0.0
 49
0.0
 49
0.0
 49
1.0
175
     0
142
0.0208333333333333
142
0.0
142
0.0
142
0.0
142
0.0
142
0.0208333333333333
142
0.0
142
0.0
142
0.0
142
0.0
142
1.0
142
0.0
142
0.0
142
0.0
142
0.0
142
1.0
179
     0
144
0.0208333333333333
144
0.0
144
0.0
144
0.0
144
0.0
144
0.0208333333333333
144
0.0
144
0.0
144
0.0
144
0.0
144
1.0
144
0.0
144
0.0
144
0.0
144
0.0
144
1.0
147
0.0208333333333333
147
0.0
147
0.0
147
0.0
147
0.0
147
0.0208333333333333
147
0.0
147
0.0
147
0.0
147
0.0
147
1.0
147
0.0
147
0.0
147
0.0
147
0.0
147
1.0
  0
MATERIAL
  5
8239
102
{ACAD_XDICTIONARY
360
823A
102
}
102
{ACAD_REACTORS
330
8228
102
}
330
8228
100
AcDbMaterial
  1
Global
 72
     0
 43
0.0208333333333333
 43
0.0
 43
0.0
 43
0.0
 43
0.0
 43
0.0208333333333333
 43
0.0
 43
0.0
 43
0.0
 43
0.0
 43
1.0
 43
0.0
 43
0.0
 43
0.0
 43
0.0
 43
1.0
 77
     0
 47
0.0208333333333333
 47
0.0
 47
0.0
 47
0.0
 47
0.0
 47
0.0208333333333333
 47
0.0
 47
0.0
 47
0.0
 47
0.0
 47
1.0
 47
0.0
 47
0.0
 47
0.0
 47
0.0
 47
1.0
171
     0
 49
0.0208333333333333
 49
0.0
 49
0.0
 49
0.0
 49
0.0
 49
0.0208333333333333
 49
0.0
 49
0.0
 49
0.0
 49
0.0
 49
1.0
 49
0.0
 49
0.0
 49
0.0
 49
0.0
 49
1.0
175
     0
142
0.0208333333333333
142
0.0
142
0.0
142
0.0
142
0.0
142
0.0208333333333333
142
0.0
142
0.0
142
0.0
142
0.0
142
1.0
142
0.0
142
0.0
142
0.0
142
0.0
142
1.0
179
     0
144
0.0208333333333333
144
0.0
144
0.0
144
0.0
144
0.0
144
0.0208333333333333
144
0.0
144
0.0
144
0.0
144
0.0
144
1.0
144
0.0
144
0.0
144
0.0
144
0.0
144
1.0
147
0.0208333333333333
147
0.0
147
0.0
147
0.0
147
0.0
147
0.0208333333333333
147
0.0
147
0.0
147
0.0
147
0.0
147
1.0
147
0.0
147
0.0
147
0.0
147
0.0
147
1.0
  0
MLEADERSTYLE
  5
8270
102
{ACAD_REACTORS
330
826F
102
}
330
826F
100
AcDbMLeaderStyle
170
     2
171
     1
172
     0
 90
        2
 40
0.0
 41
0.0
173
     1
 91
-1056964608
340
11
 92
       -2
290
     1
 42
0.09
291
     1
 43
0.36
  3
Standard
 44
0.18
300

342
F
174
     1
178
     6
175
     1
176
     0
 93
-1056964608
 45
0.18
292
     0
297
     0
 46
0.18
 94
-1056964608
 47
1.0
 49
1.0
140
1.0
293
     1
141
0.0
294
     1
177
     0
142
1.0
295
     0
296
     0
143
0.125
1001
ACAD_MLEADERVER
1070
     2
  0
MLINESTYLE
  5
1B
102
{ACAD_REACTORS
330
1A
102
}
330
1A
100
AcDbMlineStyle
  2
STANDARD
 70
     0
  3

 62
   256
 51
90.0
 52
90.0
 71
     2
 49
0.5
 62
   256
  6
BYLAYER
 49
-0.5
 62
   256
  6
BYLAYER
  0
ACDBPLACEHOLDER
  5
485B
102
{ACAD_REACTORS
330
485A
102
}
330
485A
  0
SCALE
  5
825E
102
{ACAD_REACTORS
330
825D
102
}
330
825D
100
AcDbScale
 70
     0
300
1:1
140
1.0
141
1.0
290
     1
  0
SCALE
  5
8796
102
{ACAD_REACTORS
330
825D
102
}
330
825D
100
AcDbScale
 70
     0
300
1/128" = 1'-0"
140
0.0078125
141
12.0
290
     0
  0
SCALE
  5
8797
102
{ACAD_REACTORS
330
825D
102
}
330
825D
100
AcDbScale
 70
     0
300
1/64" = 1'-0"
140
0.015625
141
12.0
290
     0
  0
SCALE
  5
8798
102
{ACAD_REACTORS
330
825D
102
}
330
825D
100
AcDbScale
 70
     0
300
1/32" = 1'-0"
140
0.03125
141
12.0
290
     0
  0
SCALE
  5
8799
102
{ACAD_REACTORS
330
825D
102
}
330
825D
100
AcDbScale
 70
     0
300
1/16" = 1'-0"
140
0.0625
141
12.0
290
     0
  0
SCALE
  5
879A
102
{ACAD_REACTORS
330
825D
102
}
330
825D
100
AcDbScale
 70
     0
300
3/32" = 1'-0"
140
0.09375
141
12.0
290
     0
  0
SCALE
  5
879B
102
{ACAD_REACTORS
330
825D
102
}
330
825D
100
AcDbScale
 70
     0
300
1/8" = 1'-0"
140
0.125
141
12.0
290
     0
  0
SCALE
  5
879C
102
{ACAD_REACTORS
330
825D
102
}
330
825D
100
AcDbScale
 70
     0
300
3/16" = 1'-0"
140
0.1875
141
12.0
290
     0
  0
SCALE
  5
879D
102
{ACAD_REACTORS
330
825D
102
}
330
825D
100
AcDbScale
 70
     0
300
1/4" = 1'-0"
140
0.25
141
12.0
290
     0
  0
SCALE
  5
879E
102
{ACAD_REACTORS
330
825D
102
}
330
825D
100
AcDbScale
 70
     0
300
3/8" = 1'-0"
140
0.375
141
12.0
290
     0
  0
SCALE
  5
879F
102
{ACAD_REACTORS
330
825D
102
}
330
825D
100
AcDbScale
 70
     0
300
1/2" = 1'-0"
140
0.5
141
12.0
290
     0
  0
SCALE
  5
87A0
102
{ACAD_REACTORS
330
825D
102
}
330
825D
100
AcDbScale
 70
     0
300
3/4" = 1'-0"
140
0.75
141
12.0
290
     0
  0
SCALE
  5
87A1
102
{ACAD_REACTORS
330
825D
102
}
330
825D
100
AcDbScale
 70
     0
300
1" = 1'-0"
140
1.0
141
12.0
290
     0
  0
SCALE
  5
87A2
102
{ACAD_REACTORS
330
825D
102
}
330
825D
100
AcDbScale
 70
     0
300
1-1/2" = 1'-0"
140
1.5
141
12.0
290
     0
  0
SCALE
  5
87A3
102
{ACAD_REACTORS
330
825D
102
}
330
825D
100
AcDbScale
 70
     0
300
3" = 1'-0"
140
3.0
141
12.0
290
     0
  0
SCALE
  5
87A4
102
{ACAD_REACTORS
330
825D
102
}
330
825D
100
AcDbScale
 70
     0
300
6" = 1'-0"
140
6.0
141
12.0
290
     0
  0
SCALE
  5
87A5
102
{ACAD_REACTORS
330
825D
102
}
330
825D
100
AcDbScale
 70
     0
300
1'-0" = 1'-0"
140
12.0
141
12.0
290
     0
  0
TABLESTYLE
  5
825C
102
{ACAD_XDICTIONARY
360
82AB
102
}
102
{ACAD_REACTORS
330
825B
102
}
330
825B
100
AcDbTableStyle
  3
Standard
 70
     0
 71
     0
 40
0.06
 41
0.06
280
     0
281
     0
  7
STANDARD
140
0.18
170
     2
 62
     0
 63
     7
283
     0
274
    -2
284
     1
 64
     0
275
    -2
285
     1
 65
     0
276
    -2
286
     1
 66
     0
277
    -2
287
     1
 67
     0
278
    -2
288
     1
 68
     0
279
    -2
289
     1
 69
     0
  7
STANDARD
140
0.25
170
     5
 62
     0
 63
     7
283
     0
274
    -2
284
     1
 64
     0
275
    -2
285
     1
 65
     0
276
    -2
286
     1
 66
     0
277
    -2
287
     1
 67
     0
278
    -2
288
     1
 68
     0
279
    -2
289
     1
 69
     0
  7
STANDARD
140
0.18
170
     5
 62
     0
 63
     7
283
     0
274
    -2
284
     1
 64
     0
275
    -2
285
     1
 65
     0
276
    -2
286
     1
 66
     0
277
    -2
287
     1
 67
     0
278
    -2
288
     1
 68
     0
279
    -2
289
     1
 69
     0
  0
VISUALSTYLE
  5
8247
102
{ACAD_XDICTIONARY
360
886C
102
}
102
{ACAD_REACTORS
330
8241
102
}
330
8241
100
AcDbVisualStyle
  2
2dWireframe
 70
     4
 71
     0
 72
     2
 73
     0
 90
        0
 40
-0.6
 41
-30.0
 62
     5
 63
     7
 74
     1
 91
        4
 64
     7
 65
   257
 75
     1
175
     1
 42
1.0
 92
        0
 66
   257
 43
1.0
 76
     1
 77
     6
 78
     2
 67
     7
 79
     5
170
     0
171
     0
290
     0
174
     0
 93
        1
 44
0.0
173
     0
291
     0
 45
0.0
1001
ACAD
1000
AcDbSavedByObjectVersion
1070
     0
  0
VISUALSTYLE
  5
87B6
102
{ACAD_XDICTIONARY
360
8893
102
}
102
{ACAD_REACTORS
330
8241
102
}
330
8241
100
AcDbVisualStyle
  2
3D Hidden
 70
     6
 71
     1
 72
     2
 73
     2
 90
        0
 40
-0.6
 41
-30.0
 62
     5
 63
     7
 74
     2
 91
        2
 64
     7
 65
   257
 75
     2
175
     1
 42
40.0
 92
        0
 66
   257
 43
1.0
 76
     1
 77
     6
 78
     2
 67
     7
 79
     3
170
     0
171
     0
290
     0
174
     0
 93
        1
 44
0.0
173
     0
291
     0
 45
0.0
1001
ACAD
1000
AcDbSavedByObjectVersion
1070
     0
  0
VISUALSTYLE
  5
87B7
102
{ACAD_XDICTIONARY
360
8895
102
}
102
{ACAD_REACTORS
330
8241
102
}
330
8241
100
AcDbVisualStyle
  2
3dWireframe
 70
     5
 71
     0
 72
     2
 73
     0
 90
        0
 40
-0.6
 41
-30.0
 62
     5
 63
     7
 74
     1
 91
        4
 64
     7
 65
   257
 75
     1
175
     1
 42
1.0
 92
        0
 66
   257
 43
1.0
 76
     1
 77
     6
 78
     2
 67
     7
 79
     5
170
     0
171
     0
290
     0
174
     0
 93
        1
 44
0.0
173
     0
291
     0
 45
0.0
1001
ACAD
1000
AcDbSavedByObjectVersion
1070
     0
  0
VISUALSTYLE
  5
8246
102
{ACAD_XDICTIONARY
360
886A
102
}
102
{ACAD_REACTORS
330
8241
102
}
330
8241
100
AcDbVisualStyle
  2
Basic
 70
     7
 71
     1
 72
     0
 73
     1
 90
        0
 40
-0.6
 41
-30.0
 62
     5
 63
     7
 74
     0
 91
        4
 64
     7
 65
   257
 75
     1
175
     1
 42
1.0
 92
        8
 66
     7
 43
1.0
 76
     1
 77
     6
 78
     2
 67
     7
 79
     5
170
     0
171
     0
290
     0
174
     0
 93
        1
 44
0.0
173
     0
291
     1
 45
0.0
1001
ACAD
1000
AcDbSavedByObjectVersion
1070
     0
  0
VISUALSTYLE
  5
824D
102
{ACAD_XDICTIONARY
360
8878
102
}
102
{ACAD_REACTORS
330
8241
102
}
330
8241
100
AcDbVisualStyle
  2
Brighten
 70
    12
 71
     2
 72
     2
 73
     0
 90
        0
 40
-0.6
 41
-30.0
 62
     5
 63
     7
 74
     1
 91
        4
 64
     7
 65
   257
 75
     1
175
     1
 42
1.0
 92
        8
 66
     7
 43
1.0
 76
     1
 77
     6
 78
     2
 67
     7
 79
     5
170
     0
171
     0
290
     0
174
     0
 93
        1
 44
50.0
173
     0
291
     1
 45
0.0
1001
ACAD
1000
AcDbSavedByObjectVersion
1070
     0
  0
VISUALSTYLE
  5
8251
102
{ACAD_XDICTIONARY
360
8880
102
}
102
{ACAD_REACTORS
330
8241
102
}
330
8241
100
AcDbVisualStyle
  2
ColorChange
 70
    16
 71
     2
 72
     2
 73
     3
 90
        0
 40
-0.6
 41
-30.0
 62
     5
 63
     8
 74
     1
 91
        4
 64
     7
 65
   257
 75
     1
175
     1
 42
1.0
 92
        8
 66
     8
 43
1.0
 76
     1
 77
     6
 78
     2
 67
     7
 79
     5
170
     0
171
     0
290
     0
174
     0
 93
        1
 44
0.0
173
     0
291
     1
 45
0.0
1001
ACAD
1000
AcDbSavedByObjectVersion
1070
     0
  0
VISUALSTYLE
  5
824A
102
{ACAD_XDICTIONARY
360
8872
102
}
102
{ACAD_REACTORS
330
8241
102
}
330
8241
100
AcDbVisualStyle
  2
Conceptual
 70
     9
 71
     3
 72
     2
 73
     0
 90
        0
 40
-0.6
 41
-30.0
 62
     5
 63
     7
 74
     2
 91
        2
 64
     7
 65
   257
 75
     1
175
     1
 42
179.0
 92
        8
 66
     7
 43
1.0
 76
     1
 77
     6
 78
     2
 67
     7
 79
     3
170
     0
171
     0
290
     0
174
     0
 93
        1
 44
0.0
173
     0
291
     0
 45
0.0
1001
ACAD
1000
AcDbSavedByObjectVersion
1070
     0
  0
VISUALSTYLE
  5
824C
102
{ACAD_XDICTIONARY
360
8876
102
}
102
{ACAD_REACTORS
330
8241
102
}
330
8241
100
AcDbVisualStyle
  2
Dim
 70
    11
 71
     2
 72
     2
 73
     0
 90
        0
 40
-0.6
 41
-30.0
 62
     5
 63
     7
 74
     1
 91
        4
 64
     7
 65
   257
 75
     1
175
     1
 42
1.0
 92
        8
 66
     7
 43
1.0
 76
     1
 77
     6
 78
     2
 67
     7
 79
     5
170
     0
171
     0
290
     0
174
     0
 93
        1
 44
-50.0
173
     0
291
     1
 45
0.0
1001
ACAD
1000
AcDbSavedByObjectVersion
1070
     0
  0
VISUALSTYLE
  5
8259
102
{ACAD_XDICTIONARY
360
8890
102
}
102
{ACAD_REACTORS
330
8241
102
}
330
8241
100
AcDbVisualStyle
  2
EdgeColorOff
 70
    22
 71
     2
 72
     2
 73
     0
 90
        0
 40
-0.6
 41
-30.0
 62
     5
 63
     7
 74
     1
 91
        4
 64
     7
 65
   257
 75
     1
175
     1
 42
1.0
 92
        8
 66
     7
 43
1.0
 76
     1
 77
     6
 78
     2
 67
     7
 79
     5
170
     0
171
     0
290
     0
174
     0
 93
        1
 44
0.0
173
     0
291
     1
 45
0.0
1001
ACAD
1000
AcDbSavedByObjectVersion
1070
     0
  0
VISUALSTYLE
  5
8250
102
{ACAD_XDICTIONARY
360
887E
102
}
102
{ACAD_REACTORS
330
8241
102
}
330
8241
100
AcDbVisualStyle
  2
Facepattern
 70
    15
 71
     2
 72
     2
 73
     0
 90
        0
 40
-0.6
 41
-30.0
 62
     5
 63
     7
 74
     1
 91
        4
 64
     7
 65
   257
 75
     1
175
     1
 42
1.0
 92
        8
 66
     7
 43
1.0
 76
     1
 77
     6
 78
     2
 67
     7
 79
     5
170
     0
171
     0
290
     0
174
     0
 93
        1
 44
0.0
173
     0
291
     1
 45
0.0
1001
ACAD
1000
AcDbSavedByObjectVersion
1070
     0
  0
VISUALSTYLE
  5
8242
102
{ACAD_XDICTIONARY
360
8862
102
}
102
{ACAD_REACTORS
330
8241
102
}
330
8241
100
AcDbVisualStyle
  2
Flat
 70
     0
 71
     2
 72
     1
 73
     1
 90
        2
 40
-0.6
 41
30.0
 62
     5
 63
     7
 74
     0
 91
        0
 64
     7
 65
   257
 75
     1
175
     1
 42
1.0
 92
        8
 66
     7
 43
1.0
 76
     1
 77
     6
 78
     2
 67
     7
 79
     5
170
     0
171
     0
290
     0
174
     0
 93
       13
 44
0.0
173
     0
291
     1
 45
0.0
1001
ACAD
1000
AcDbSavedByObjectVersion
1070
     0
  0
VISUALSTYLE
  5
8243
102
{ACAD_XDICTIONARY
360
8864
102
}
102
{ACAD_REACTORS
330
8241
102
}
330
8241
100
AcDbVisualStyle
  2
FlatWithEdges
 70
     1
 71
     2
 72
     1
 73
     1
 90
        2
 40
-0.6
 41
30.0
 62
     5
 63
     7
 74
     1
 91
        0
 64
     7
 65
   257
 75
     1
175
     1
 42
1.0
 92
        0
 66
   257
 43
1.0
 76
     1
 77
     6
 78
     2
 67
     7
 79
     5
170
     0
171
     0
290
     0
174
     0
 93
       13
 44
0.0
173
     0
291
     1
 45
0.0
1001
ACAD
1000
AcDbSavedByObjectVersion
1070
     0
  0
VISUALSTYLE
  5
8244
102
{ACAD_XDICTIONARY
360
8866
102
}
102
{ACAD_REACTORS
330
8241
102
}
330
8241
100
AcDbVisualStyle
  2
Gouraud
 70
     2
 71
     2
 72
     2
 73
     1
 90
        2
 40
-0.6
 41
30.0
 62
     5
 63
     7
 74
     0
 91
        0
 64
     7
 65
   257
 75
     1
175
     1
 42
1.0
 92
        0
 66
     7
 43
1.0
 76
     1
 77
     6
 78
     2
 67
     7
 79
     5
170
     0
171
     0
290
     0
174
     0
 93
       13
 44
0.0
173
     0
291
     1
 45
0.0
1001
ACAD
1000
AcDbSavedByObjectVersion
1070
     0
  0
VISUALSTYLE
  5
8245
102
{ACAD_XDICTIONARY
360
8868
102
}
102
{ACAD_REACTORS
330
8241
102
}
330
8241
100
AcDbVisualStyle
  2
GouraudWithEdges
 70
     3
 71
     2
 72
     2
 73
     1
 90
        2
 40
-0.6
 41
30.0
 62
     5
 63
     7
 74
     1
 91
        0
 64
     7
 65
   257
 75
     1
175
     1
 42
1.0
 92
        0
 66
   257
 43
1.0
 76
     1
 77
     6
 78
     2
 67
     7
 79
     5
170
     0
171
     0
290
     0
174
     0
 93
       13
 44
0.0
173
     0
291
     1
 45
0.0
1001
ACAD
1000
AcDbSavedByObjectVersion
1070
     0
  0
VISUALSTYLE
  5
8249
102
{ACAD_XDICTIONARY
360
8870
102
}
102
{ACAD_REACTORS
330
8241
102
}
330
8241
100
AcDbVisualStyle
  2
Hidden
 70
     6
 71
     1
 72
     2
 73
     2
 90
        0
 40
-0.6
 41
-30.0
 62
     5
 63
     7
 74
     2
 91
        2
 64
     7
 65
   257
 75
     2
175
     1
 42
40.0
 92
        0
 66
   257
 43
1.0
 76
     1
 77
     6
 78
     2
 67
     7
 79
     3
170
     0
171
     0
290
     0
174
     0
 93
        1
 44
0.0
173
     0
291
     0
 45
0.0
1001
ACAD
1000
AcDbSavedByObjectVersion
1070
     0
  0
VISUALSTYLE
  5
8257
102
{ACAD_XDICTIONARY
360
888C
102
}
102
{ACAD_REACTORS
330
8241
102
}
330
8241
100
AcDbVisualStyle
  2
JitterOff
 70
    20
 71
     2
 72
     2
 73
     0
 90
        0
 40
-0.6
 41
-30.0
 62
     5
 63
     7
 74
     1
 91
        4
 64
     7
 65
   257
 75
     1
175
     1
 42
1.0
 92
       10
 66
     7
 43
1.0
 76
     1
 77
     6
 78
     2
 67
     7
 79
     5
170
     0
171
     0
290
     0
174
     0
 93
        1
 44
0.0
173
     0
291
     1
 45
0.0
1001
ACAD
1000
AcDbSavedByObjectVersion
1070
     0
  0
VISUALSTYLE
  5
824F
102
{ACAD_XDICTIONARY
360
887C
102
}
102
{ACAD_REACTORS
330
8241
102
}
330
8241
100
AcDbVisualStyle
  2
Linepattern
 70
    14
 71
     2
 72
     2
 73
     0
 90
        0
 40
-0.6
 41
-30.0
 62
     5
 63
     7
 74
     1
 91
        4
 64
     7
 65
   257
 75
     7
175
     7
 42
1.0
 92
        8
 66
     7
 43
1.0
 76
     1
 77
     6
 78
     2
 67
     7
 79
     5
170
     0
171
     0
290
     0
174
     0
 93
        1
 44
0.0
173
     0
291
     1
 45
0.0
1001
ACAD
1000
AcDbSavedByObjectVersion
1070
     0
  0
VISUALSTYLE
  5
8258
102
{ACAD_XDICTIONARY
360
888E
102
}
102
{ACAD_REACTORS
330
8241
102
}
330
8241
100
AcDbVisualStyle
  2
OverhangOff
 70
    21
 71
     2
 72
     2
 73
     0
 90
        0
 40
-0.6
 41
-30.0
 62
     5
 63
     7
 74
     1
 91
        4
 64
     7
 65
   257
 75
     1
175
     1
 42
1.0
 92
        9
 66
     7
 43
1.0
 76
     1
 77
     6
 78
     2
 67
     7
 79
     5
170
     0
171
     0
290
     0
174
     0
 93
        1
 44
0.0
173
     0
291
     1
 45
0.0
1001
ACAD
1000
AcDbSavedByObjectVersion
1070
     0
  0
VISUALSTYLE
  5
824B
102
{ACAD_XDICTIONARY
360
8874
102
}
102
{ACAD_REACTORS
330
8241
102
}
330
8241
100
AcDbVisualStyle
  2
Realistic
 70
     8
 71
     2
 72
     2
 73
     0
 90
        2
 40
-0.6
 41
30.0
 62
     5
 63
     7
 74
     0
 91
        0
 64
     7
 65
   257
 75
     1
175
     1
 42
1.0
 92
        8
 66
   257
 43
1.0
 76
     1
 77
     6
 78
     2
 67
     7
 79
     3
170
     0
171
     0
290
     0
174
     0
 93
       13
 44
0.0
173
     0
291
     0
 45
0.0
1001
ACAD
1000
AcDbSavedByObjectVersion
1070
     0
  0
VISUALSTYLE
  5
8256
102
{ACAD_XDICTIONARY
360
888A
102
}
102
{ACAD_REACTORS
330
8241
102
}
330
8241
100
AcDbVisualStyle
  2
Shaded
 70
    27
 71
     2
 72
     2
 73
     1
 90
        2
 40
-0.6
 41
30.0
 62
     5
 63
     7
 74
     0
 91
        4
 64
     7
 65
   257
 75
     1
175
     1
 42
1.0
 92
        8
 66
   257
 43
1.0
 76
     1
 77
     6
 78
     2
 67
     8
 79
     3
170
     0
171
     0
290
     0
174
     0
 93
        5
 44
0.0
173
     0
291
     0
 45
0.0
1001
ACAD
1000
AcDbSavedByObjectVersion
1070
     0
  0
VISUALSTYLE
  5
8255
102
{ACAD_XDICTIONARY
360
8888
102
}
102
{ACAD_REACTORS
330
8241
102
}
330
8241
100
AcDbVisualStyle
  2
Shaded with edges
 70
    26
 71
     2
 72
     2
 73
     1
 90
        2
 40
-0.6
 41
30.0
 62
     5
 63
     7
 74
     1
 91
       10
 64
     7
 65
   257
 75
     2
175
     1
 42
1.0
 92
        8
 66
   257
 43
1.0
 76
     1
 77
     6
 78
     2
 67
     7
 79
     3
170
     0
171
     0
290
     0
174
     0
 93
        5
 44
0.0
173
     0
291
     0
 45
0.0
1001
ACAD
1000
AcDbSavedByObjectVersion
1070
     0
  0
VISUALSTYLE
  5
8252
102
{ACAD_XDICTIONARY
360
8882
102
}
102
{ACAD_REACTORS
330
8241
102
}
330
8241
100
AcDbVisualStyle
  2
Shades of Gray
 70
    23
 71
     2
 72
     2
 73
     3
 90
        0
 40
-0.6
 41
-30.0
 62
     5
 63
     7
 74
     2
 91
        2
 64
     7
 65
     7
 75
     1
175
     1
 42
40.0
 92
        8
 66
     7
 43
1.0
 76
     1
 77
     6
 78
     2
 67
     7
 79
     3
170
     0
171
     0
290
     0
174
     0
 93
        1
 44
0.0
173
     0
291
     0
 45
0.0
1001
ACAD
1000
AcDbSavedByObjectVersion
1070
     0
  0
VISUALSTYLE
  5
8253
102
{ACAD_XDICTIONARY
360
8884
102
}
102
{ACAD_REACTORS
330
8241
102
}
330
8241
100
AcDbVisualStyle
  2
Sketchy
 70
    24
 71
     1
 72
     2
 73
     2
 90
        0
 40
-0.6
 41
-30.0
 62
     5
 63
     7
 74
     2
 91
        2
 64
     7
 65
     7
 75
     1
175
     1
 42
40.0
 92
       11
 66
     7
 43
1.0
 76
     1
 77
     6
 78
     2
 67
     7
 79
     6
170
     0
171
     0
290
     0
174
     0
 93
        1
 44
0.0
173
     0
291
     0
 45
0.0
1001
ACAD
1000
AcDbSavedByObjectVersion
1070
     0
  0
VISUALSTYLE
  5
824E
102
{ACAD_XDICTIONARY
360
887A
102
}
102
{ACAD_REACTORS
330
8241
102
}
330
8241
100
AcDbVisualStyle
  2
Thicken
 70
    13
 71
     2
 72
     2
 73
     0
 90
        0
 40
-0.6
 41
-30.0
 62
     5
 63
     7
 74
     1
 91
        4
 64
     7
 65
   257
 75
     1
175
     1
 42
1.0
 92
       12
 66
     7
 43
1.0
 76
     1
 77
     6
 78
     2
 67
     7
 79
     5
170
     0
171
     0
290
     0
174
     0
 93
        1
 44
0.0
173
     0
291
     1
 45
0.0
1001
ACAD
1000
AcDbSavedByObjectVersion
1070
     0
  0
VISUALSTYLE
  5
8248
102
{ACAD_XDICTIONARY
360
886E
102
}
102
{ACAD_REACTORS
330
8241
102
}
330
8241
100
AcDbVisualStyle
  2
Wireframe
 70
     5
 71
     0
 72
     2
 73
     0
 90
        0
 40
-0.6
 41
-30.0
 62
     5
 63
     7
 74
     1
 91
        4
 64
     7
 65
   257
 75
     1
175
     1
 42
1.0
 92
        0
 66
   257
 43
1.0
 76
     1
 77
     6
 78
     2
 67
     7
 79
     3
170
     0
171
     0
290
     0
174
     0
 93
        1
 44
0.0
173
     0
291
     0
 45
0.0
1001
ACAD
1000
AcDbSavedByObjectVersion
1070
     0
  0
VISUALSTYLE
  5
8254
102
{ACAD_XDICTIONARY
360
8886
102
}
102
{ACAD_REACTORS
330
8241
102
}
330
8241
100
AcDbVisualStyle
  2
X-Ray
 70
    25
 71
     2
 72
     2
 73
     1
 90
        1
 40
0.5
 41
-30.0
 62
     5
 63
     7
 74
     1
 91
        0
 64
     7
 65
   257
 75
     1
175
     1
 42
1.0
 92
        8
 66
     7
 43
1.0
 76
     1
 77
     6
 78
     2
 67
     7
 79
     3
170
     0
171
     0
290
     0
174
     0
 93
       13
 44
0.0
173
     0
291
     0
 45
0.0
1001
ACAD
1000
AcDbSavedByObjectVersion
1070
     0
  0
DICTIONARYVAR
  5
82EC
102
{ACAD_REACTORS
330
3E
102
}
330
3E
100
DictionaryVariables
280
     0
  1
1:1
  0
DICTIONARYVAR
  5
82EB
102
{ACAD_REACTORS
330
3E
102
}
330
3E
100
DictionaryVariables
280
     0
  1
STANDARD
  0
DICTIONARYVAR
  5
82EA
102
{ACAD_REACTORS
330
3E
102
}
330
3E
100
DictionaryVariables
280
     0
  1
STANDARD
  0
DICTIONARYVAR
  5
3F
102
{ACAD_REACTORS
330
3E
102
}
330
3E
100
DictionaryVariables
280
     0
  1
0
  0
DICTIONARYVAR
  5
82EE
102
{ACAD_REACTORS
330
3E
102
}
330
3E
100
DictionaryVariables
280
     0
  1
1
  0
DICTIONARYVAR
  5
82ED
102
{ACAD_REACTORS
330
3E
102
}
330
3E
100
DictionaryVariables
280
     0
  1
0
  0
DICTIONARYVAR
  5
878B
102
{ACAD_REACTORS
330
3E
102
}
330
3E
100
DictionaryVariables
280
     0
  1
1
  0
DICTIONARYVAR
  5
878C
102
{ACAD_REACTORS
330
3E
102
}
330
3E
100
DictionaryVariables
280
     0
  1
15
  0
DICTIONARYVAR
  5
878A
102
{ACAD_REACTORS
330
3E
102
}
330
3E
100
DictionaryVariables
280
     0
  1
0
  0
DICTIONARYVAR
  5
8789
102
{ACAD_REACTORS
330
3E
102
}
330
3E
100
DictionaryVariables
280
     0
  1
0
  0
DICTIONARYVAR
  5
696F
102
{ACAD_REACTORS
330
3E
102
}
330
3E
100
DictionaryVariables
280
     0
  1
96
  0
DICTIONARYVAR
  5
8855
102
{ACAD_REACTORS
330
3E
102
}
330
3E
100
DictionaryVariables
280
     0
  1
2
  0
DICTIONARY
  5
885D
330
485F
100
AcDbDictionary
280
     1
281
     1
  3
ACAD_XREC_ROUNDTRIP
360
885E
  0
DICTIONARY
  5
885B
330
485E
100
AcDbDictionary
280
     1
281
     1
  3
ACAD_XREC_ROUNDTRIP
360
885C
  0
DICTIONARY
  5
8232
330
8231
100
AcDbDictionary
280
     1
281
     1
  3
ACAD_XREC_ROUNDTRIP
360
8860
  3
BUMPTILE
360
8234
  3
DIFFUSETILE
360
8233
  3
OPACITYTILE
360
8237
  3
REFLECTIONTILE
360
8236
  3
REFRACTIONTILE
360
8238
  3
SPECULARTILE
360
8235
  0
DICTIONARY
  5
822A
330
8229
100
AcDbDictionary
280
     1
281
     1
  3
ACAD_XREC_ROUNDTRIP
360
885F
  3
BUMPTILE
360
822C
  3
DIFFUSETILE
360
822B
  3
OPACITYTILE
360
822F
  3
REFLECTIONTILE
360
822E
  3
REFRACTIONTILE
360
8230
  3
SPECULARTILE
360
822D
  0
DICTIONARY
  5
823A
330
8239
100
AcDbDictionary
280
     1
281
     1
  3
ACAD_XREC_ROUNDTRIP
360
8861
  3
BUMPTILE
360
823C
  3
DIFFUSETILE
360
823B
  3
OPACITYTILE
360
823F
  3
REFLECTIONTILE
360
823E
  3
REFRACTIONTILE
360
8240
  3
SPECULARTILE
360
823D
  0
DICTIONARY
  5
82AB
330
825C
100
AcDbDictionary
280
     1
281
     1
  3
ACAD_ROUNDTRIP_2008_TABLESTYLE_CELLSTYLEMAP
360
8856
  3
ACAD_XREC_ROUNDTRIP
360
8892
  0
DICTIONARY
  5
886C
330
8247
100
AcDbDictionary
280
     1
281
     1
  3
ACAD_XREC_ROUNDTRIP
360
886D
  0
DICTIONARY
  5
8893
330
87B6
100
AcDbDictionary
280
     1
281
     1
  3
ACAD_XREC_ROUNDTRIP
360
8894
  0
DICTIONARY
  5
8895
330
87B7
100
AcDbDictionary
280
     1
281
     1
  3
ACAD_XREC_ROUNDTRIP
360
8896
  0
DICTIONARY
  5
886A
330
8246
100
AcDbDictionary
280
     1
281
     1
  3
ACAD_XREC_ROUNDTRIP
360
886B
  0
DICTIONARY
  5
8878
330
824D
100
AcDbDictionary
280
     1
281
     1
  3
ACAD_XREC_ROUNDTRIP
360
8879
  0
DICTIONARY
  5
8880
330
8251
100
AcDbDictionary
280
     1
281
     1
  3
ACAD_XREC_ROUNDTRIP
360
8881
  0
DICTIONARY
  5
8872
330
824A
100
AcDbDictionary
280
     1
281
     1
  3
ACAD_XREC_ROUNDTRIP
360
8873
  0
DICTIONARY
  5
8876
330
824C
100
AcDbDictionary
280
     1
281
     1
  3
ACAD_XREC_ROUNDTRIP
360
8877
  0
DICTIONARY
  5
8890
330
8259
100
AcDbDictionary
280
     1
281
     1
  3
ACAD_XREC_ROUNDTRIP
360
8891
  0
DICTIONARY
  5
887E
330
8250
100
AcDbDictionary
280
     1
281
     1
  3
ACAD_XREC_ROUNDTRIP
360
887F
  0
DICTIONARY
  5
8862
330
8242
100
AcDbDictionary
280
     1
281
     1
  3
ACAD_XREC_ROUNDTRIP
360
8863
  0
DICTIONARY
  5
8864
330
8243
100
AcDbDictionary
280
     1
281
     1
  3
ACAD_XREC_ROUNDTRIP
360
8865
  0
DICTIONARY
  5
8866
330
8244
100
AcDbDictionary
280
     1
281
     1
  3
ACAD_XREC_ROUNDTRIP
360
8867
  0
DICTIONARY
  5
8868
330
8245
100
AcDbDictionary
280
     1
281
     1
  3
ACAD_XREC_ROUNDTRIP
360
8869
  0
DICTIONARY
  5
8870
330
8249
100
AcDbDictionary
280
     1
281
     1
  3
ACAD_XREC_ROUNDTRIP
360
8871
  0
DICTIONARY
  5
888C
330
8257
100
AcDbDictionary
280
     1
281
     1
  3
ACAD_XREC_ROUNDTRIP
360
888D
  0
DICTIONARY
  5
887C
330
824F
100
AcDbDictionary
280
     1
281
     1
  3
ACAD_XREC_ROUNDTRIP
360
887D
  0
DICTIONARY
  5
888E
330
8258
100
AcDbDictionary
280
     1
281
     1
  3
ACAD_XREC_ROUNDTRIP
360
888F
  0
DICTIONARY
  5
8874
330
824B
100
AcDbDictionary
280
     1
281
     1
  3
ACAD_XREC_ROUNDTRIP
360
8875
  0
DICTIONARY
  5
888A
330
8256
100
AcDbDictionary
280
     1
281
     1
  3
ACAD_XREC_ROUNDTRIP
360
888B
  0
DICTIONARY
  5
8888
330
8255
100
AcDbDictionary
280
     1
281
     1
  3
ACAD_XREC_ROUNDTRIP
360
8889
  0
DICTIONARY
  5
8882
330
8252
100
AcDbDictionary
280
     1
281
     1
  3
ACAD_XREC_ROUNDTRIP
360
8883
  0
DICTIONARY
  5
8884
330
8253
100
AcDbDictionary
280
     1
281
     1
  3
ACAD_XREC_ROUNDTRIP
360
8885
  0
DICTIONARY
  5
887A
330
824E
100
AcDbDictionary
280
     1
281
     1
  3
ACAD_XREC_ROUNDTRIP
360
887B
  0
DICTIONARY
  5
886E
330
8248
100
AcDbDictionary
280
     1
281
     1
  3
ACAD_XREC_ROUNDTRIP
360
886F
  0
DICTIONARY
  5
8886
330
8254
100
AcDbDictionary
280
     1
281
     1
  3
ACAD_XREC_ROUNDTRIP
360
8887
  0
XRECORD
  5
885E
102
{ACAD_REACTORS
330
885D
102
}
330
885D
100
AcDbXrecord
280
     1
102
SHADEPLOT
 70
     0
102
SHADEPLOTRESLEVEL
 70
     2
102
SHADEPLOTCUSTOMDPI
 70
   300
  0
XRECORD
  5
885C
102
{ACAD_REACTORS
330
885B
102
}
330
885B
100
AcDbXrecord
280
     1
102
SHADEPLOT
 70
     0
102
SHADEPLOTRESLEVEL
 70
     2
102
SHADEPLOTCUSTOMDPI
 70
   300
  0
XRECORD
  5
8860
102
{ACAD_REACTORS
330
8232
102
}
330
8232
100
AcDbXrecord
280
     1
102
MATERIAL
148
0.0
149
0.0
149
0.0
 93
        0
 94
      127
282
     0
 72
     0
 77
     0
171
     0
175
     0
179
     0
273
     0
  0
XRECORD
  5
8234
102
{ACAD_REACTORS
330
8232
102
}
330
8232
100
AcDbXrecord
280
     1
270
     1
271
     1
  0
XRECORD
  5
8233
102
{ACAD_REACTORS
330
8232
102
}
330
8232
100
AcDbXrecord
280
     1
270
     1
271
     1
  0
XRECORD
  5
8237
102
{ACAD_REACTORS
330
8232
102
}
330
8232
100
AcDbXrecord
280
     1
270
     1
271
     1
  0
XRECORD
  5
8236
102
{ACAD_REACTORS
330
8232
102
}
330
8232
100
AcDbXrecord
280
     1
270
     1
271
     1
  0
XRECORD
  5
8238
102
{ACAD_REACTORS
330
8232
102
}
330
8232
100
AcDbXrecord
280
     1
270
     1
271
     1
  0
XRECORD
  5
8235
102
{ACAD_REACTORS
330
8232
102
}
330
8232
100
AcDbXrecord
280
     1
270
     1
271
     1
  0
XRECORD
  5
885F
102
{ACAD_REACTORS
330
822A
102
}
330
822A
100
AcDbXrecord
280
     1
102
MATERIAL
148
0.0
149
0.0
149
0.0
 93
        0
 94
      127
282
     0
 72
     0
 77
     0
171
     0
175
     0
179
     0
273
     0
  0
XRECORD
  5
822C
102
{ACAD_REACTORS
330
822A
102
}
330
822A
100
AcDbXrecord
280
     1
270
     1
271
     1
  0
XRECORD
  5
822B
102
{ACAD_REACTORS
330
822A
102
}
330
822A
100
AcDbXrecord
280
     1
270
     1
271
     1
  0
XRECORD
  5
822F
102
{ACAD_REACTORS
330
822A
102
}
330
822A
100
AcDbXrecord
280
     1
270
     1
271
     1
  0
XRECORD
  5
822E
102
{ACAD_REACTORS
330
822A
102
}
330
822A
100
AcDbXrecord
280
     1
270
     1
271
     1
  0
XRECORD
  5
8230
102
{ACAD_REACTORS
330
822A
102
}
330
822A
100
AcDbXrecord
280
     1
270
     1
271
     1
  0
XRECORD
  5
822D
102
{ACAD_REACTORS
330
822A
102
}
330
822A
100
AcDbXrecord
280
     1
270
     1
271
     1
  0
XRECORD
  5
8861
102
{ACAD_REACTORS
330
823A
102
}
330
823A
100
AcDbXrecord
280
     1
102
MATERIAL
148
0.0
149
0.0
149
0.0
 93
        0
 94
      127
282
     0
 72
     0
 77
     0
171
     0
175
     0
179
     0
273
     0
  0
XRECORD
  5
823C
102
{ACAD_REACTORS
330
823A
102
}
330
823A
100
AcDbXrecord
280
     1
270
     1
271
     1
  0
XRECORD
  5
823B
102
{ACAD_REACTORS
330
823A
102
}
330
823A
100
AcDbXrecord
280
     1
270
     1
271
     1
  0
XRECORD
  5
823F
102
{ACAD_REACTORS
330
823A
102
}
330
823A
100
AcDbXrecord
280
     1
270
     1
271
     1
  0
XRECORD
  5
823E
102
{ACAD_REACTORS
330
823A
102
}
330
823A
100
AcDbXrecord
280
     1
270
     1
271
     1
  0
XRECORD
  5
8240
102
{ACAD_REACTORS
330
823A
102
}
330
823A
100
AcDbXrecord
280
     1
270
     1
271
     1
  0
XRECORD
  5
823D
102
{ACAD_REACTORS
330
823A
102
}
330
823A
100
AcDbXrecord
280
     1
270
     1
271
     1
  0
CELLSTYLEMAP
  5
8856
102
{ACAD_REACTORS
330
82AB
102
}
330
82AB
100
AcDbCellStyleMap
 90
        3
300
CELLSTYLE
  1
TABLEFORMAT_BEGIN
 90
        5
170
     1
 91
        0
 92
    32768
 62
   257
 93
        1
300
CONTENTFORMAT
  1
CONTENTFORMAT_BEGIN
 90
        0
 91
        0
 92
      512
 93
        0
300

 40
0.0
140
1.0
 94
        5
 62
     0
340
F
144
0.25
309
CONTENTFORMAT_END
171
     0
 94
        0
309
TABLEFORMAT_END
  1
CELLSTYLE_BEGIN
 90
        1
 91
        1
300
_TITLE
309
CELLSTYLE_END
300
CELLSTYLE
  1
TABLEFORMAT_BEGIN
 90
        5
170
     1
 91
        0
 92
        0
 62
   257
 93
        1
300
CONTENTFORMAT
  1
CONTENTFORMAT_BEGIN
 90
        0
 91
        0
 92
      512
 93
        0
300

 40
0.0
140
1.0
 94
        5
 62
     0
340
F
144
0.18
309
CONTENTFORMAT_END
171
     0
 94
        0
309
TABLEFORMAT_END
  1
CELLSTYLE_BEGIN
 90
        2
 91
        1
300
_HEADER
309
CELLSTYLE_END
300
CELLSTYLE
  1
TABLEFORMAT_BEGIN
 90
        5
170
     1
 91
        0
 92
        0
 62
   257
 93
        1
300
CONTENTFORMAT
  1
CONTENTFORMAT_BEGIN
 90
        0
 91
        0
 92
      512
 93
        0
300

 40
0.0
140
1.0
 94
        2
 62
     0
340
F
144
0.18
309
CONTENTFORMAT_END
171
     0
 94
        0
309
TABLEFORMAT_END
  1
CELLSTYLE_BEGIN
 90
        3
 91
        2
300
_DATA
309
CELLSTYLE_END
  0
XRECORD
  5
8892
102
{ACAD_REACTORS
330
82AB
102
}
330
82AB
100
AcDbXrecord
280
     1
102
ACAD_ROUNDTRIP_PRE2007_TABLESTYLE
 90
      512
 91
        0
  1

 92
      512
 93
        0
  2

 94
      512
 95
        0
  3

  0
XRECORD
  5
886D
102
{ACAD_REACTORS
330
886C
102
}
330
886C
100
AcDbXrecord
280
     1
102
RTVSPropertyOp0
 70
     1
102
RTVSPropertyOp1
 70
     1
102
RTVSPropertyOp2
 70
     1
102
RTVSPropertyOp3
 70
     1
102
RTVSPropertyOp4
 70
     1
102
RTVSPropertyOp5
 70
     1
102
RTVSPropertyOp6
 70
     1
102
RTVSPropertyOp7
 70
     1
102
RTVSPropertyOp8
 70
     1
102
RTVSPropertyOp9
 70
     1
102
RTVSPropertyOp10
 70
     1
102
RTVSPropertyOp11
 70
     1
102
RTVSPropertyOp12
 70
     1
102
RTVSPropertyOp13
 70
     1
102
RTVSPropertyOp14
 70
     1
102
RTVSPropertyOp15
 70
     1
102
RTVSPropertyOp16
 70
     1
102
RTVSPropertyOp17
 70
     1
102
RTVSPropertyOp18
 70
     1
102
RTVSPropertyOp19
 70
     1
102
RTVSPropertyOp20
 70
     1
102
RTVSPropertyOp21
 70
     1
102
RTVSPropertyOp22
 70
     1
102
RTVSPropertyOp23
 70
     1
102
RTVSPropertyOp24
 70
     1
102
RTVSPropertyOp25
 70
     1
102
RTVSPropertyOp26
 70
     1
102
RTVSPropertyOp27
 70
     1
102
RTVSPropertyOp28
 70
     1
102
RTVSPropertyOp29
 70
     1
102
RTVSPropertyOp30
 70
     1
102
RTVSPropertyOp31
 70
     1
102
RTVSPropertyOp32
 70
     1
  0
XRECORD
  5
8894
102
{ACAD_REACTORS
330
8893
102
}
330
8893
100
AcDbXrecord
280
     1
102
RTVSPropertyOp0
 70
     1
102
RTVSPropertyOp1
 70
     1
102
RTVSPropertyOp2
 70
     1
102
RTVSPropertyOp3
 70
     1
102
RTVSPropertyOp4
 70
     1
102
RTVSPropertyOp5
 70
     1
102
RTVSPropertyOp6
 70
     1
102
RTVSPropertyOp7
 70
     1
102
RTVSPropertyOp8
 70
     1
102
RTVSPropertyOp9
 70
     1
102
RTVSPropertyOp10
 70
     1
102
RTVSPropertyOp11
 70
     1
102
RTVSPropertyOp12
 70
     1
102
RTVSPropertyOp13
 70
     1
102
RTVSPropertyOp14
 70
     1
102
RTVSPropertyOp15
 70
     1
102
RTVSPropertyOp16
 70
     1
102
RTVSPropertyOp17
 70
     1
102
RTVSPropertyOp18
 70
     1
102
RTVSPropertyOp19
 70
     1
102
RTVSPropertyOp20
 70
     1
102
RTVSPropertyOp21
 70
     1
102
RTVSPropertyOp22
 70
     1
102
RTVSPropertyOp23
 70
     1
102
RTVSPropertyOp24
 70
     1
102
RTVSPropertyOp25
 70
     1
102
RTVSPropertyOp26
 70
     1
102
RTVSPropertyOp27
 70
     1
102
RTVSPropertyOp28
 70
     1
102
RTVSPropertyOp29
 70
     1
102
RTVSPropertyOp30
 70
     1
102
RTVSPropertyOp31
 70
     1
102
RTVSPropertyOp32
 70
     1
  0
XRECORD
  5
8896
102
{ACAD_REACTORS
330
8895
102
}
330
8895
100
AcDbXrecord
280
     1
102
RTVSPropertyOp0
 70
     1
102
RTVSPropertyOp1
 70
     1
102
RTVSPropertyOp2
 70
     1
102
RTVSPropertyOp3
 70
     1
102
RTVSPropertyOp4
 70
     1
102
RTVSPropertyOp5
 70
     1
102
RTVSPropertyOp6
 70
     1
102
RTVSPropertyOp7
 70
     1
102
RTVSPropertyOp8
 70
     1
102
RTVSPropertyOp9
 70
     1
102
RTVSPropertyOp10
 70
     1
102
RTVSPropertyOp11
 70
     1
102
RTVSPropertyOp12
 70
     1
102
RTVSPropertyOp13
 70
     1
102
RTVSPropertyOp14
 70
     1
102
RTVSPropertyOp15
 70
     1
102
RTVSPropertyOp16
 70
     1
102
RTVSPropertyOp17
 70
     1
102
RTVSPropertyOp18
 70
     1
102
RTVSPropertyOp19
 70
     1
102
RTVSPropertyOp20
 70
     1
102
RTVSPropertyOp21
 70
     1
102
RTVSPropertyOp22
 70
     1
102
RTVSPropertyOp23
 70
     1
102
RTVSPropertyOp24
 70
     1
102
RTVSPropertyOp25
 70
     1
102
RTVSPropertyOp26
 70
     1
102
RTVSPropertyOp27
 70
     1
102
RTVSPropertyOp28
 70
     1
102
RTVSPropertyOp29
 70
     1
102
RTVSPropertyOp30
 70
     1
102
RTVSPropertyOp31
 70
     1
102
RTVSPropertyOp32
 70
     1
  0
XRECORD
  5
886B
102
{ACAD_REACTORS
330
886A
102
}
330
886A
100
AcDbXrecord
280
     1
102
RTVSPropertyOp0
 70
     1
102
RTVSPropertyOp1
 70
     1
102
RTVSPropertyOp2
 70
     1
102
RTVSPropertyOp3
 70
     1
102
RTVSPropertyOp4
 70
     1
102
RTVSPropertyOp5
 70
     1
102
RTVSPropertyOp6
 70
     1
102
RTVSPropertyOp7
 70
     1
102
RTVSPropertyOp8
 70
     1
102
RTVSPropertyOp9
 70
     1
102
RTVSPropertyOp10
 70
     1
102
RTVSPropertyOp11
 70
     1
102
RTVSPropertyOp12
 70
     1
102
RTVSPropertyOp13
 70
     1
102
RTVSPropertyOp14
 70
     1
102
RTVSPropertyOp15
 70
     1
102
RTVSPropertyOp16
 70
     1
102
RTVSPropertyOp17
 70
     1
102
RTVSPropertyOp18
 70
     1
102
RTVSPropertyOp19
 70
     1
102
RTVSPropertyOp20
 70
     1
102
RTVSPropertyOp21
 70
     1
102
RTVSPropertyOp22
 70
     1
102
RTVSPropertyOp23
 70
     1
102
RTVSPropertyOp24
 70
     1
102
RTVSPropertyOp25
 70
     1
102
RTVSPropertyOp26
 70
     1
102
RTVSPropertyOp27
 70
     1
102
RTVSPropertyOp28
 70
     1
102
RTVSPropertyOp29
 70
     1
102
RTVSPropertyOp30
 70
     1
102
RTVSPropertyOp31
 70
     1
102
RTVSPropertyOp32
 70
     1
  0
XRECORD
  5
8879
102
{ACAD_REACTORS
330
8878
102
}
330
8878
100
AcDbXrecord
280
     1
102
RTVSPropertyOp0
 70
     1
102
RTVSPropertyOp1
 70
     1
102
RTVSPropertyOp2
 70
     1
102
RTVSPropertyOp3
 70
     1
102
RTVSPropertyOp4
 70
     1
102
RTVSPropertyOp5
 70
     1
102
RTVSPropertyOp6
 70
     1
102
RTVSPropertyOp7
 70
     1
102
RTVSPropertyOp8
 70
     1
102
RTVSPropertyOp9
 70
     1
102
RTVSPropertyOp10
 70
     1
102
RTVSPropertyOp11
 70
     1
102
RTVSPropertyOp12
 70
     1
102
RTVSPropertyOp13
 70
     1
102
RTVSPropertyOp14
 70
     1
102
RTVSPropertyOp15
 70
     1
102
RTVSPropertyOp16
 70
     1
102
RTVSPropertyOp17
 70
     1
102
RTVSPropertyOp18
 70
     1
102
RTVSPropertyOp19
 70
     1
102
RTVSPropertyOp20
 70
     1
102
RTVSPropertyOp21
 70
     1
102
RTVSPropertyOp22
 70
     1
102
RTVSPropertyOp23
 70
     1
102
RTVSPropertyOp24
 70
     1
102
RTVSPropertyOp25
 70
     1
102
RTVSPropertyOp26
 70
     1
102
RTVSPropertyOp27
 70
     1
102
RTVSPropertyOp28
 70
     1
102
RTVSPropertyOp29
 70
     1
102
RTVSPropertyOp30
 70
     1
102
RTVSPropertyOp31
 70
     1
102
RTVSPropertyOp32
 70
     1
  0
XRECORD
  5
8881
102
{ACAD_REACTORS
330
8880
102
}
330
8880
100
AcDbXrecord
280
     1
102
RTVSPropertyOp0
 70
     1
102
RTVSPropertyOp1
 70
     1
102
RTVSPropertyOp2
 70
     1
102
RTVSPropertyOp3
 70
     1
102
RTVSPropertyOp4
 70
     1
102
RTVSPropertyOp5
 70
     1
102
RTVSPropertyOp6
 70
     1
102
RTVSPropertyOp7
 70
     1
102
RTVSPropertyOp8
 70
     1
102
RTVSPropertyOp9
 70
     1
102
RTVSPropertyOp10
 70
     1
102
RTVSPropertyOp11
 70
     1
102
RTVSPropertyOp12
 70
     1
102
RTVSPropertyOp13
 70
     1
102
RTVSPropertyOp14
 70
     1
102
RTVSPropertyOp15
 70
     1
102
RTVSPropertyOp16
 70
     1
102
RTVSPropertyOp17
 70
     1
102
RTVSPropertyOp18
 70
     1
102
RTVSPropertyOp19
 70
     1
102
RTVSPropertyOp20
 70
     1
102
RTVSPropertyOp21
 70
     1
102
RTVSPropertyOp22
 70
     1
102
RTVSPropertyOp23
 70
     1
102
RTVSPropertyOp24
 70
     1
102
RTVSPropertyOp25
 70
     1
102
RTVSPropertyOp26
 70
     1
102
RTVSPropertyOp27
 70
     1
102
RTVSPropertyOp28
 70
     1
102
RTVSPropertyOp29
 70
     1
102
RTVSPropertyOp30
 70
     1
102
RTVSPropertyOp31
 70
     1
102
RTVSPropertyOp32
 70
     1
  0
XRECORD
  5
8873
102
{ACAD_REACTORS
330
8872
102
}
330
8872
100
AcDbXrecord
280
     1
102
RTVSPropertyOp0
 70
     1
102
RTVSPropertyOp1
 70
     1
102
RTVSPropertyOp2
 70
     1
102
RTVSPropertyOp3
 70
     1
102
RTVSPropertyOp4
 70
     1
102
RTVSPropertyOp5
 70
     1
102
RTVSPropertyOp6
 70
     1
102
RTVSPropertyOp7
 70
     1
102
RTVSPropertyOp8
 70
     1
102
RTVSPropertyOp9
 70
     1
102
RTVSPropertyOp10
 70
     1
102
RTVSPropertyOp11
 70
     1
102
RTVSPropertyOp12
 70
     1
102
RTVSPropertyOp13
 70
     1
102
RTVSPropertyOp14
 70
     1
102
RTVSPropertyOp15
 70
     1
102
RTVSPropertyOp16
 70
     1
102
RTVSPropertyOp17
 70
     1
102
RTVSPropertyOp18
 70
     1
102
RTVSPropertyOp19
 70
     1
102
RTVSPropertyOp20
 70
     1
102
RTVSPropertyOp21
 70
     1
102
RTVSPropertyOp22
 70
     1
102
RTVSPropertyOp23
 70
     1
102
RTVSPropertyOp24
 70
     1
102
RTVSPropertyOp25
 70
     1
102
RTVSPropertyOp26
 70
     1
102
RTVSPropertyOp27
 70
     1
102
RTVSPropertyOp28
 70
     1
102
RTVSPropertyOp29
 70
     1
102
RTVSPropertyOp30
 70
     1
102
RTVSPropertyOp31
 70
     1
102
RTVSPropertyOp32
 70
     1
  0
XRECORD
  5
8877
102
{ACAD_REACTORS
330
8876
102
}
330
8876
100
AcDbXrecord
280
     1
102
RTVSPropertyOp0
 70
     1
102
RTVSPropertyOp1
 70
     1
102
RTVSPropertyOp2
 70
     1
102
RTVSPropertyOp3
 70
     1
102
RTVSPropertyOp4
 70
     1
102
RTVSPropertyOp5
 70
     1
102
RTVSPropertyOp6
 70
     1
102
RTVSPropertyOp7
 70
     1
102
RTVSPropertyOp8
 70
     1
102
RTVSPropertyOp9
 70
     1
102
RTVSPropertyOp10
 70
     1
102
RTVSPropertyOp11
 70
     1
102
RTVSPropertyOp12
 70
     1
102
RTVSPropertyOp13
 70
     1
102
RTVSPropertyOp14
 70
     1
102
RTVSPropertyOp15
 70
     1
102
RTVSPropertyOp16
 70
     1
102
RTVSPropertyOp17
 70
     1
102
RTVSPropertyOp18
 70
     1
102
RTVSPropertyOp19
 70
     1
102
RTVSPropertyOp20
 70
     1
102
RTVSPropertyOp21
 70
     1
102
RTVSPropertyOp22
 70
     1
102
RTVSPropertyOp23
 70
     1
102
RTVSPropertyOp24
 70
     1
102
RTVSPropertyOp25
 70
     1
102
RTVSPropertyOp26
 70
     1
102
RTVSPropertyOp27
 70
     1
102
RTVSPropertyOp28
 70
     1
102
RTVSPropertyOp29
 70
     1
102
RTVSPropertyOp30
 70
     1
102
RTVSPropertyOp31
 70
     1
102
RTVSPropertyOp32
 70
     1
  0
XRECORD
  5
8891
102
{ACAD_REACTORS
330
8890
102
}
330
8890
100
AcDbXrecord
280
     1
102
RTVSPropertyOp0
 70
     0
102
RTVSPropertyOp1
 70
     0
102
RTVSPropertyOp2
 70
     0
102
RTVSPropertyOp3
 70
     0
102
RTVSPropertyOp4
 70
     0
102
RTVSPropertyOp5
 70
     0
102
RTVSPropertyOp6
 70
     0
102
RTVSPropertyOp7
 70
     0
102
RTVSPropertyOp8
 70
     0
102
RTVSPropertyOp9
 70
     0
102
RTVSPropertyOp10
 70
     0
102
RTVSPropertyOp11
 70
     0
102
RTVSPropertyOp12
 70
     0
102
RTVSPropertyOp13
 70
     0
102
RTVSPropertyOp14
 70
     2
102
RTVSPropertyOp15
 70
     0
102
RTVSPropertyOp16
 70
     0
102
RTVSPropertyOp17
 70
     0
102
RTVSPropertyOp18
 70
     0
102
RTVSPropertyOp19
 70
     0
102
RTVSPropertyOp20
 70
     0
102
RTVSPropertyOp21
 70
     0
102
RTVSPropertyOp22
 70
     0
102
RTVSPropertyOp23
 70
     0
102
RTVSPropertyOp24
 70
     0
102
RTVSPropertyOp25
 70
     0
102
RTVSPropertyOp26
 70
     0
102
RTVSPropertyOp27
 70
     0
102
RTVSPropertyOp28
 70
     1
102
RTVSPropertyOp29
 70
     1
102
RTVSPropertyOp30
 70
     1
102
RTVSPropertyOp31
 70
     1
102
RTVSPropertyOp32
 70
     1
  0
XRECORD
  5
887F
102
{ACAD_REACTORS
330
887E
102
}
330
887E
100
AcDbXrecord
280
     1
102
RTVSPropertyOp0
 70
     1
102
RTVSPropertyOp1
 70
     1
102
RTVSPropertyOp2
 70
     1
102
RTVSPropertyOp3
 70
     1
102
RTVSPropertyOp4
 70
     1
102
RTVSPropertyOp5
 70
     1
102
RTVSPropertyOp6
 70
     1
102
RTVSPropertyOp7
 70
     1
102
RTVSPropertyOp8
 70
     1
102
RTVSPropertyOp9
 70
     1
102
RTVSPropertyOp10
 70
     1
102
RTVSPropertyOp11
 70
     1
102
RTVSPropertyOp12
 70
     1
102
RTVSPropertyOp13
 70
     1
102
RTVSPropertyOp14
 70
     1
102
RTVSPropertyOp15
 70
     1
102
RTVSPropertyOp16
 70
     1
102
RTVSPropertyOp17
 70
     1
102
RTVSPropertyOp18
 70
     1
102
RTVSPropertyOp19
 70
     1
102
RTVSPropertyOp20
 70
     1
102
RTVSPropertyOp21
 70
     1
102
RTVSPropertyOp22
 70
     1
102
RTVSPropertyOp23
 70
     1
102
RTVSPropertyOp24
 70
     1
102
RTVSPropertyOp25
 70
     1
102
RTVSPropertyOp26
 70
     1
102
RTVSPropertyOp27
 70
     1
102
RTVSPropertyOp28
 70
     1
102
RTVSPropertyOp29
 70
     1
102
RTVSPropertyOp30
 70
     1
102
RTVSPropertyOp31
 70
     1
102
RTVSPropertyOp32
 70
     1
  0
XRECORD
  5
8863
102
{ACAD_REACTORS
330
8862
102
}
330
8862
100
AcDbXrecord
280
     1
102
RTVSPropertyOp0
 70
     1
102
RTVSPropertyOp1
 70
     1
102
RTVSPropertyOp2
 70
     1
102
RTVSPropertyOp3
 70
     1
102
RTVSPropertyOp4
 70
     1
102
RTVSPropertyOp5
 70
     1
102
RTVSPropertyOp6
 70
     1
102
RTVSPropertyOp7
 70
     1
102
RTVSPropertyOp8
 70
     1
102
RTVSPropertyOp9
 70
     1
102
RTVSPropertyOp10
 70
     1
102
RTVSPropertyOp11
 70
     1
102
RTVSPropertyOp12
 70
     1
102
RTVSPropertyOp13
 70
     1
102
RTVSPropertyOp14
 70
     1
102
RTVSPropertyOp15
 70
     1
102
RTVSPropertyOp16
 70
     1
102
RTVSPropertyOp17
 70
     1
102
RTVSPropertyOp18
 70
     1
102
RTVSPropertyOp19
 70
     1
102
RTVSPropertyOp20
 70
     1
102
RTVSPropertyOp21
 70
     1
102
RTVSPropertyOp22
 70
     1
102
RTVSPropertyOp23
 70
     1
102
RTVSPropertyOp24
 70
     1
102
RTVSPropertyOp25
 70
     1
102
RTVSPropertyOp26
 70
     1
102
RTVSPropertyOp27
 70
     1
102
RTVSPropertyOp28
 70
     1
102
RTVSPropertyOp29
 70
     1
102
RTVSPropertyOp30
 70
     1
102
RTVSPropertyOp31
 70
     1
102
RTVSPropertyOp32
 70
     1
  0
XRECORD
  5
8865
102
{ACAD_REACTORS
330
8864
102
}
330
8864
100
AcDbXrecord
280
     1
102
RTVSPropertyOp0
 70
     1
102
RTVSPropertyOp1
 70
     1
102
RTVSPropertyOp2
 70
     1
102
RTVSPropertyOp3
 70
     1
102
RTVSPropertyOp4
 70
     1
102
RTVSPropertyOp5
 70
     1
102
RTVSPropertyOp6
 70
     1
102
RTVSPropertyOp7
 70
     1
102
RTVSPropertyOp8
 70
     1
102
RTVSPropertyOp9
 70
     1
102
RTVSPropertyOp10
 70
     1
102
RTVSPropertyOp11
 70
     1
102
RTVSPropertyOp12
 70
     1
102
RTVSPropertyOp13
 70
     1
102
RTVSPropertyOp14
 70
     1
102
RTVSPropertyOp15
 70
     1
102
RTVSPropertyOp16
 70
     1
102
RTVSPropertyOp17
 70
     1
102
RTVSPropertyOp18
 70
     1
102
RTVSPropertyOp19
 70
     1
102
RTVSPropertyOp20
 70
     1
102
RTVSPropertyOp21
 70
     1
102
RTVSPropertyOp22
 70
     1
102
RTVSPropertyOp23
 70
     1
102
RTVSPropertyOp24
 70
     1
102
RTVSPropertyOp25
 70
     1
102
RTVSPropertyOp26
 70
     1
102
RTVSPropertyOp27
 70
     1
102
RTVSPropertyOp28
 70
     1
102
RTVSPropertyOp29
 70
     1
102
RTVSPropertyOp30
 70
     1
102
RTVSPropertyOp31
 70
     1
102
RTVSPropertyOp32
 70
     1
  0
XRECORD
  5
8867
102
{ACAD_REACTORS
330
8866
102
}
330
8866
100
AcDbXrecord
280
     1
102
RTVSPropertyOp0
 70
     1
102
RTVSPropertyOp1
 70
     1
102
RTVSPropertyOp2
 70
     1
102
RTVSPropertyOp3
 70
     1
102
RTVSPropertyOp4
 70
     1
102
RTVSPropertyOp5
 70
     1
102
RTVSPropertyOp6
 70
     1
102
RTVSPropertyOp7
 70
     1
102
RTVSPropertyOp8
 70
     1
102
RTVSPropertyOp9
 70
     1
102
RTVSPropertyOp10
 70
     1
102
RTVSPropertyOp11
 70
     1
102
RTVSPropertyOp12
 70
     1
102
RTVSPropertyOp13
 70
     1
102
RTVSPropertyOp14
 70
     1
102
RTVSPropertyOp15
 70
     1
102
RTVSPropertyOp16
 70
     1
102
RTVSPropertyOp17
 70
     1
102
RTVSPropertyOp18
 70
     1
102
RTVSPropertyOp19
 70
     1
102
RTVSPropertyOp20
 70
     1
102
RTVSPropertyOp21
 70
     1
102
RTVSPropertyOp22
 70
     1
102
RTVSPropertyOp23
 70
     1
102
RTVSPropertyOp24
 70
     1
102
RTVSPropertyOp25
 70
     1
102
RTVSPropertyOp26
 70
     1
102
RTVSPropertyOp27
 70
     1
102
RTVSPropertyOp28
 70
     1
102
RTVSPropertyOp29
 70
     1
102
RTVSPropertyOp30
 70
     1
102
RTVSPropertyOp31
 70
     1
102
RTVSPropertyOp32
 70
     1
  0
XRECORD
  5
8869
102
{ACAD_REACTORS
330
8868
102
}
330
8868
100
AcDbXrecord
280
     1
102
RTVSPropertyOp0
 70
     1
102
RTVSPropertyOp1
 70
     1
102
RTVSPropertyOp2
 70
     1
102
RTVSPropertyOp3
 70
     1
102
RTVSPropertyOp4
 70
     1
102
RTVSPropertyOp5
 70
     1
102
RTVSPropertyOp6
 70
     1
102
RTVSPropertyOp7
 70
     1
102
RTVSPropertyOp8
 70
     1
102
RTVSPropertyOp9
 70
     1
102
RTVSPropertyOp10
 70
     1
102
RTVSPropertyOp11
 70
     1
102
RTVSPropertyOp12
 70
     1
102
RTVSPropertyOp13
 70
     1
102
RTVSPropertyOp14
 70
     1
102
RTVSPropertyOp15
 70
     1
102
RTVSPropertyOp16
 70
     1
102
RTVSPropertyOp17
 70
     1
102
RTVSPropertyOp18
 70
     1
102
RTVSPropertyOp19
 70
     1
102
RTVSPropertyOp20
 70
     1
102
RTVSPropertyOp21
 70
     1
102
RTVSPropertyOp22
 70
     1
102
RTVSPropertyOp23
 70
     1
102
RTVSPropertyOp24
 70
     1
102
RTVSPropertyOp25
 70
     1
102
RTVSPropertyOp26
 70
     1
102
RTVSPropertyOp27
 70
     1
102
RTVSPropertyOp28
 70
     1
102
RTVSPropertyOp29
 70
     1
102
RTVSPropertyOp30
 70
     1
102
RTVSPropertyOp31
 70
     1
102
RTVSPropertyOp32
 70
     1
  0
XRECORD
  5
8871
102
{ACAD_REACTORS
330
8870
102
}
330
8870
100
AcDbXrecord
280
     1
102
RTVSPropertyOp0
 70
     1
102
RTVSPropertyOp1
 70
     1
102
RTVSPropertyOp2
 70
     1
102
RTVSPropertyOp3
 70
     1
102
RTVSPropertyOp4
 70
     1
102
RTVSPropertyOp5
 70
     1
102
RTVSPropertyOp6
 70
     1
102
RTVSPropertyOp7
 70
     1
102
RTVSPropertyOp8
 70
     1
102
RTVSPropertyOp9
 70
     1
102
RTVSPropertyOp10
 70
     1
102
RTVSPropertyOp11
 70
     1
102
RTVSPropertyOp12
 70
     1
102
RTVSPropertyOp13
 70
     1
102
RTVSPropertyOp14
 70
     1
102
RTVSPropertyOp15
 70
     1
102
RTVSPropertyOp16
 70
     1
102
RTVSPropertyOp17
 70
     1
102
RTVSPropertyOp18
 70
     1
102
RTVSPropertyOp19
 70
     1
102
RTVSPropertyOp20
 70
     1
102
RTVSPropertyOp21
 70
     1
102
RTVSPropertyOp22
 70
     1
102
RTVSPropertyOp23
 70
     1
102
RTVSPropertyOp24
 70
     1
102
RTVSPropertyOp25
 70
     1
102
RTVSPropertyOp26
 70
     1
102
RTVSPropertyOp27
 70
     1
102
RTVSPropertyOp28
 70
     1
102
RTVSPropertyOp29
 70
     1
102
RTVSPropertyOp30
 70
     1
102
RTVSPropertyOp31
 70
     1
102
RTVSPropertyOp32
 70
     1
  0
XRECORD
  5
888D
102
{ACAD_REACTORS
330
888C
102
}
330
888C
100
AcDbXrecord
280
     1
102
RTVSPropertyOp0
 70
     0
102
RTVSPropertyOp1
 70
     0
102
RTVSPropertyOp2
 70
     0
102
RTVSPropertyOp3
 70
     0
102
RTVSPropertyOp4
 70
     0
102
RTVSPropertyOp5
 70
     0
102
RTVSPropertyOp6
 70
     0
102
RTVSPropertyOp7
 70
     0
102
RTVSPropertyOp8
 70
     0
102
RTVSPropertyOp9
 70
     0
102
RTVSPropertyOp10
 70
     0
102
RTVSPropertyOp11
 70
     0
102
RTVSPropertyOp12
 70
     0
102
RTVSPropertyOp13
 70
     0
102
RTVSPropertyOp14
 70
     2
102
RTVSPropertyOp15
 70
     0
102
RTVSPropertyOp16
 70
     0
102
RTVSPropertyOp17
 70
     0
102
RTVSPropertyOp18
 70
     0
102
RTVSPropertyOp19
 70
     0
102
RTVSPropertyOp20
 70
     0
102
RTVSPropertyOp21
 70
     0
102
RTVSPropertyOp22
 70
     0
102
RTVSPropertyOp23
 70
     0
102
RTVSPropertyOp24
 70
     0
102
RTVSPropertyOp25
 70
     0
102
RTVSPropertyOp26
 70
     0
102
RTVSPropertyOp27
 70
     0
102
RTVSPropertyOp28
 70
     1
102
RTVSPropertyOp29
 70
     1
102
RTVSPropertyOp30
 70
     1
102
RTVSPropertyOp31
 70
     1
102
RTVSPropertyOp32
 70
     1
  0
XRECORD
  5
887D
102
{ACAD_REACTORS
330
887C
102
}
330
887C
100
AcDbXrecord
280
     1
102
RTVSPropertyOp0
 70
     1
102
RTVSPropertyOp1
 70
     1
102
RTVSPropertyOp2
 70
     1
102
RTVSPropertyOp3
 70
     1
102
RTVSPropertyOp4
 70
     1
102
RTVSPropertyOp5
 70
     1
102
RTVSPropertyOp6
 70
     1
102
RTVSPropertyOp7
 70
     1
102
RTVSPropertyOp8
 70
     1
102
RTVSPropertyOp9
 70
     1
102
RTVSPropertyOp10
 70
     1
102
RTVSPropertyOp11
 70
     1
102
RTVSPropertyOp12
 70
     1
102
RTVSPropertyOp13
 70
     1
102
RTVSPropertyOp14
 70
     1
102
RTVSPropertyOp15
 70
     1
102
RTVSPropertyOp16
 70
     1
102
RTVSPropertyOp17
 70
     1
102
RTVSPropertyOp18
 70
     1
102
RTVSPropertyOp19
 70
     1
102
RTVSPropertyOp20
 70
     1
102
RTVSPropertyOp21
 70
     1
102
RTVSPropertyOp22
 70
     1
102
RTVSPropertyOp23
 70
     1
102
RTVSPropertyOp24
 70
     1
102
RTVSPropertyOp25
 70
     1
102
RTVSPropertyOp26
 70
     1
102
RTVSPropertyOp27
 70
     1
102
RTVSPropertyOp28
 70
     1
102
RTVSPropertyOp29
 70
     1
102
RTVSPropertyOp30
 70
     1
102
RTVSPropertyOp31
 70
     1
102
RTVSPropertyOp32
 70
     1
  0
XRECORD
  5
888F
102
{ACAD_REACTORS
330
888E
102
}
330
888E
100
AcDbXrecord
280
     1
102
RTVSPropertyOp0
 70
     0
102
RTVSPropertyOp1
 70
     0
102
RTVSPropertyOp2
 70
     0
102
RTVSPropertyOp3
 70
     0
102
RTVSPropertyOp4
 70
     0
102
RTVSPropertyOp5
 70
     0
102
RTVSPropertyOp6
 70
     0
102
RTVSPropertyOp7
 70
     0
102
RTVSPropertyOp8
 70
     0
102
RTVSPropertyOp9
 70
     0
102
RTVSPropertyOp10
 70
     0
102
RTVSPropertyOp11
 70
     0
102
RTVSPropertyOp12
 70
     0
102
RTVSPropertyOp13
 70
     0
102
RTVSPropertyOp14
 70
     2
102
RTVSPropertyOp15
 70
     0
102
RTVSPropertyOp16
 70
     0
102
RTVSPropertyOp17
 70
     0
102
RTVSPropertyOp18
 70
     0
102
RTVSPropertyOp19
 70
     0
102
RTVSPropertyOp20
 70
     0
102
RTVSPropertyOp21
 70
     0
102
RTVSPropertyOp22
 70
     0
102
RTVSPropertyOp23
 70
     0
102
RTVSPropertyOp24
 70
     0
102
RTVSPropertyOp25
 70
     0
102
RTVSPropertyOp26
 70
     0
102
RTVSPropertyOp27
 70
     0
102
RTVSPropertyOp28
 70
     1
102
RTVSPropertyOp29
 70
     1
102
RTVSPropertyOp30
 70
     1
102
RTVSPropertyOp31
 70
     1
102
RTVSPropertyOp32
 70
     1
  0
XRECORD
  5
8875
102
{ACAD_REACTORS
330
8874
102
}
330
8874
100
AcDbXrecord
280
     1
102
RTVSPropertyOp0
 70
     1
102
RTVSPropertyOp1
 70
     1
102
RTVSPropertyOp2
 70
     1
102
RTVSPropertyOp3
 70
     1
102
RTVSPropertyOp4
 70
     1
102
RTVSPropertyOp5
 70
     1
102
RTVSPropertyOp6
 70
     1
102
RTVSPropertyOp7
 70
     1
102
RTVSPropertyOp8
 70
     1
102
RTVSPropertyOp9
 70
     1
102
RTVSPropertyOp10
 70
     1
102
RTVSPropertyOp11
 70
     1
102
RTVSPropertyOp12
 70
     1
102
RTVSPropertyOp13
 70
     1
102
RTVSPropertyOp14
 70
     1
102
RTVSPropertyOp15
 70
     1
102
RTVSPropertyOp16
 70
     1
102
RTVSPropertyOp17
 70
     1
102
RTVSPropertyOp18
 70
     1
102
RTVSPropertyOp19
 70
     1
102
RTVSPropertyOp20
 70
     1
102
RTVSPropertyOp21
 70
     1
102
RTVSPropertyOp22
 70
     1
102
RTVSPropertyOp23
 70
     1
102
RTVSPropertyOp24
 70
     1
102
RTVSPropertyOp25
 70
     1
102
RTVSPropertyOp26
 70
     1
102
RTVSPropertyOp27
 70
     1
102
RTVSPropertyOp28
 70
     1
102
RTVSPropertyOp29
 70
     1
102
RTVSPropertyOp30
 70
     1
102
RTVSPropertyOp31
 70
     1
102
RTVSPropertyOp32
 70
     1
  0
XRECORD
  5
888B
102
{ACAD_REACTORS
330
888A
102
}
330
888A
100
AcDbXrecord
280
     1
102
RTVSPropertyOp0
 70
     1
102
RTVSPropertyOp1
 70
     1
102
RTVSPropertyOp2
 70
     1
102
RTVSPropertyOp3
 70
     1
102
RTVSPropertyOp4
 70
     1
102
RTVSPropertyOp5
 70
     1
102
RTVSPropertyOp6
 70
     1
102
RTVSPropertyOp7
 70
     1
102
RTVSPropertyOp8
 70
     1
102
RTVSPropertyOp9
 70
     1
102
RTVSPropertyOp10
 70
     1
102
RTVSPropertyOp11
 70
     1
102
RTVSPropertyOp12
 70
     1
102
RTVSPropertyOp13
 70
     1
102
RTVSPropertyOp14
 70
     1
102
RTVSPropertyOp15
 70
     1
102
RTVSPropertyOp16
 70
     1
102
RTVSPropertyOp17
 70
     1
102
RTVSPropertyOp18
 70
     1
102
RTVSPropertyOp19
 70
     1
102
RTVSPropertyOp20
 70
     1
102
RTVSPropertyOp21
 70
     1
102
RTVSPropertyOp22
 70
     1
102
RTVSPropertyOp23
 70
     1
102
RTVSPropertyOp24
 70
     1
102
RTVSPropertyOp25
 70
     1
102
RTVSPropertyOp26
 70
     1
102
RTVSPropertyOp27
 70
     1
102
RTVSPropertyOp28
 70
     1
102
RTVSPropertyOp29
 70
     1
102
RTVSPropertyOp30
 70
     1
102
RTVSPropertyOp31
 70
     1
102
RTVSPropertyOp32
 70
     1
  0
XRECORD
  5
8889
102
{ACAD_REACTORS
330
8888
102
}
330
8888
100
AcDbXrecord
280
     1
102
RTVSPropertyOp0
 70
     1
102
RTVSPropertyOp1
 70
     1
102
RTVSPropertyOp2
 70
     1
102
RTVSPropertyOp3
 70
     1
102
RTVSPropertyOp4
 70
     1
102
RTVSPropertyOp5
 70
     1
102
RTVSPropertyOp6
 70
     1
102
RTVSPropertyOp7
 70
     1
102
RTVSPropertyOp8
 70
     1
102
RTVSPropertyOp9
 70
     1
102
RTVSPropertyOp10
 70
     1
102
RTVSPropertyOp11
 70
     1
102
RTVSPropertyOp12
 70
     1
102
RTVSPropertyOp13
 70
     1
102
RTVSPropertyOp14
 70
     1
102
RTVSPropertyOp15
 70
     1
102
RTVSPropertyOp16
 70
     1
102
RTVSPropertyOp17
 70
     1
102
RTVSPropertyOp18
 70
     1
102
RTVSPropertyOp19
 70
     1
102
RTVSPropertyOp20
 70
     1
102
RTVSPropertyOp21
 70
     1
102
RTVSPropertyOp22
 70
     1
102
RTVSPropertyOp23
 70
     1
102
RTVSPropertyOp24
 70
     1
102
RTVSPropertyOp25
 70
     1
102
RTVSPropertyOp26
 70
     1
102
RTVSPropertyOp27
 70
     1
102
RTVSPropertyOp28
 70
     1
102
RTVSPropertyOp29
 70
     1
102
RTVSPropertyOp30
 70
     1
102
RTVSPropertyOp31
 70
     1
102
RTVSPropertyOp32
 70
     1
  0
XRECORD
  5
8883
102
{ACAD_REACTORS
330
8882
102
}
330
8882
100
AcDbXrecord
280
     1
102
RTVSPropertyOp0
 70
     1
102
RTVSPropertyOp1
 70
     1
102
RTVSPropertyOp2
 70
     1
102
RTVSPropertyOp3
 70
     1
102
RTVSPropertyOp4
 70
     1
102
RTVSPropertyOp5
 70
     1
102
RTVSPropertyOp6
 70
     1
102
RTVSPropertyOp7
 70
     1
102
RTVSPropertyOp8
 70
     1
102
RTVSPropertyOp9
 70
     1
102
RTVSPropertyOp10
 70
     1
102
RTVSPropertyOp11
 70
     1
102
RTVSPropertyOp12
 70
     1
102
RTVSPropertyOp13
 70
     1
102
RTVSPropertyOp14
 70
     1
102
RTVSPropertyOp15
 70
     1
102
RTVSPropertyOp16
 70
     1
102
RTVSPropertyOp17
 70
     1
102
RTVSPropertyOp18
 70
     1
102
RTVSPropertyOp19
 70
     1
102
RTVSPropertyOp20
 70
     1
102
RTVSPropertyOp21
 70
     1
102
RTVSPropertyOp22
 70
     1
102
RTVSPropertyOp23
 70
     1
102
RTVSPropertyOp24
 70
     1
102
RTVSPropertyOp25
 70
     1
102
RTVSPropertyOp26
 70
     1
102
RTVSPropertyOp27
 70
     1
102
RTVSPropertyOp28
 70
     1
102
RTVSPropertyOp29
 70
     1
102
RTVSPropertyOp30
 70
     1
102
RTVSPropertyOp31
 70
     1
102
RTVSPropertyOp32
 70
     1
  0
XRECORD
  5
8885
102
{ACAD_REACTORS
330
8884
102
}
330
8884
100
AcDbXrecord
280
     1
102
RTVSPropertyOp0
 70
     1
102
RTVSPropertyOp1
 70
     1
102
RTVSPropertyOp2
 70
     1
102
RTVSPropertyOp3
 70
     1
102
RTVSPropertyOp4
 70
     1
102
RTVSPropertyOp5
 70
     1
102
RTVSPropertyOp6
 70
     1
102
RTVSPropertyOp7
 70
     1
102
RTVSPropertyOp8
 70
     1
102
RTVSPropertyOp9
 70
     1
102
RTVSPropertyOp10
 70
     1
102
RTVSPropertyOp11
 70
     1
102
RTVSPropertyOp12
 70
     1
102
RTVSPropertyOp13
 70
     1
102
RTVSPropertyOp14
 70
     1
102
RTVSPropertyOp15
 70
     1
102
RTVSPropertyOp16
 70
     1
102
RTVSPropertyOp17
 70
     1
102
RTVSPropertyOp18
 70
     1
102
RTVSPropertyOp19
 70
     1
102
RTVSPropertyOp20
 70
     1
102
RTVSPropertyOp21
 70
     1
102
RTVSPropertyOp22
 70
     1
102
RTVSPropertyOp23
 70
     1
102
RTVSPropertyOp24
 70
     1
102
RTVSPropertyOp25
 70
     1
102
RTVSPropertyOp26
 70
     1
102
RTVSPropertyOp27
 70
     1
102
RTVSPropertyOp28
 70
     1
102
RTVSPropertyOp29
 70
     1
102
RTVSPropertyOp30
 70
     1
102
RTVSPropertyOp31
 70
     1
102
RTVSPropertyOp32
 70
     1
  0
XRECORD
  5
887B
102
{ACAD_REACTORS
330
887A
102
}
330
887A
100
AcDbXrecord
280
     1
102
RTVSPropertyOp0
 70
     1
102
RTVSPropertyOp1
 70
     1
102
RTVSPropertyOp2
 70
     1
102
RTVSPropertyOp3
 70
     1
102
RTVSPropertyOp4
 70
     1
102
RTVSPropertyOp5
 70
     1
102
RTVSPropertyOp6
 70
     1
102
RTVSPropertyOp7
 70
     1
102
RTVSPropertyOp8
 70
     1
102
RTVSPropertyOp9
 70
     1
102
RTVSPropertyOp10
 70
     1
102
RTVSPropertyOp11
 70
     1
102
RTVSPropertyOp12
 70
     1
102
RTVSPropertyOp13
 70
     1
102
RTVSPropertyOp14
 70
     1
102
RTVSPropertyOp15
 70
     1
102
RTVSPropertyOp16
 70
     1
102
RTVSPropertyOp17
 70
     1
102
RTVSPropertyOp18
 70
     1
102
RTVSPropertyOp19
 70
     1
102
RTVSPropertyOp20
 70
     1
102
RTVSPropertyOp21
 70
     1
102
RTVSPropertyOp22
 70
     1
102
RTVSPropertyOp23
 70
     1
102
RTVSPropertyOp24
 70
     1
102
RTVSPropertyOp25
 70
     1
102
RTVSPropertyOp26
 70
     1
102
RTVSPropertyOp27
 70
     1
102
RTVSPropertyOp28
 70
     1
102
RTVSPropertyOp29
 70
     1
102
RTVSPropertyOp30
 70
     1
102
RTVSPropertyOp31
 70
     1
102
RTVSPropertyOp32
 70
     1
  0
XRECORD
  5
886F
102
{ACAD_REACTORS
330
886E
102
}
330
886E
100
AcDbXrecord
280
     1
102
RTVSPropertyOp0
 70
     1
102
RTVSPropertyOp1
 70
     1
102
RTVSPropertyOp2
 70
     1
102
RTVSPropertyOp3
 70
     1
102
RTVSPropertyOp4
 70
     1
102
RTVSPropertyOp5
 70
     1
102
RTVSPropertyOp6
 70
     1
102
RTVSPropertyOp7
 70
     1
102
RTVSPropertyOp8
 70
     1
102
RTVSPropertyOp9
 70
     1
102
RTVSPropertyOp10
 70
     1
102
RTVSPropertyOp11
 70
     1
102
RTVSPropertyOp12
 70
     1
102
RTVSPropertyOp13
 70
     1
102
RTVSPropertyOp14
 70
     1
102
RTVSPropertyOp15
 70
     1
102
RTVSPropertyOp16
 70
     1
102
RTVSPropertyOp17
 70
     1
102
RTVSPropertyOp18
 70
     1
102
RTVSPropertyOp19
 70
     1
102
RTVSPropertyOp20
 70
     1
102
RTVSPropertyOp21
 70
     1
102
RTVSPropertyOp22
 70
     1
102
RTVSPropertyOp23
 70
     1
102
RTVSPropertyOp24
 70
     1
102
RTVSPropertyOp25
 70
     1
102
RTVSPropertyOp26
 70
     1
102
RTVSPropertyOp27
 70
     1
102
RTVSPropertyOp28
 70
     1
102
RTVSPropertyOp29
 70
     1
102
RTVSPropertyOp30
 70
     1
102
RTVSPropertyOp31
 70
     1
102
RTVSPropertyOp32
 70
     1
  0
XRECORD
  5
8887
102
{ACAD_REACTORS
330
8886
102
}
330
8886
100
AcDbXrecord
280
     1
102
RTVSPropertyOp0
 70
     1
102
RTVSPropertyOp1
 70
     1
102
RTVSPropertyOp2
 70
     1
102
RTVSPropertyOp3
 70
     1
102
RTVSPropertyOp4
 70
     1
102
RTVSPropertyOp5
 70
     1
102
RTVSPropertyOp6
 70
     1
102
RTVSPropertyOp7
 70
     1
102
RTVSPropertyOp8
 70
     1
102
RTVSPropertyOp9
 70
     1
102
RTVSPropertyOp10
 70
     1
102
RTVSPropertyOp11
 70
     1
102
RTVSPropertyOp12
 70
     1
102
RTVSPropertyOp13
 70
     1
102
RTVSPropertyOp14
 70
     1
102
RTVSPropertyOp15
 70
     1
102
RTVSPropertyOp16
 70
     1
102
RTVSPropertyOp17
 70
     1
102
RTVSPropertyOp18
 70
     1
102
RTVSPropertyOp19
 70
     1
102
RTVSPropertyOp20
 70
     1
102
RTVSPropertyOp21
 70
     1
102
RTVSPropertyOp22
 70
     1
102
RTVSPropertyOp23
 70
     1
102
RTVSPropertyOp24
 70
     1
102
RTVSPropertyOp25
 70
     1
102
RTVSPropertyOp26
 70
     1
102
RTVSPropertyOp27
 70
     1
102
RTVSPropertyOp28
 70
     1
102
RTVSPropertyOp29
 70
     1
102
RTVSPropertyOp30
 70
     1
102
RTVSPropertyOp31
 70
     1
102
RTVSPropertyOp32
 70
     1
  0
ENDSEC
  0
EOF
