  0
SECTION
  2
HEADER
  9
$ACADVER
  1
AC1015
  9
$ACADMAINTVER
 70
    20
  9
$DWGCODEPAGE
  3
ANSI_1252
  9
$INSBASE
 10
0.0
 20
0.0
 30
0.0
  9
$EXTMIN
 10
-27.62978165118266
 20
-7.46894860267639
 30
-0.7812499999994206
  9
$EXTMAX
 10
34.24521834880447
 20
7.531051397323607
 30
29.22352621775554
  9
$LIMMIN
 10
0.0
 20
0.0
  9
$LIMMAX
 10
12.0
 20
9.0
  9
$ORTHOMODE
 70
     0
  9
$REGENMODE
 70
     1
  9
$FILLMODE
 70
     1
  9
$QTEXTMODE
 70
     0
  9
$MIRRTEXT
 70
     0
  9
$LTSCALE
 40
1.0
  9
$ATTMODE
 70
     1
  9
$TEXTSIZE
 40
0.2
  9
$TRACEWID
 40
0.05
  9
$TEXTSTYLE
  7
Standard
  9
$CLAYER
  8
0
  9
$CELTYPE
  6
ByLayer
  9
$CECOLOR
 62
   256
  9
$CELTSCALE
 40
1.0
  9
$DISPSILH
 70
     0
  9
$DIMSCALE
 40
1.0
  9
$DIMASZ
 40
0.18
  9
$DIMEXO
 40
0.0625
  9
$DIMDLI
 40
0.38
  9
$DIMRND
 40
0.0
  9
$DIMDLE
 40
0.0
  9
$DIMEXE
 40
0.18
  9
$DIMTP
 40
0.0
  9
$DIMTM
 40
0.0
  9
$DIMTXT
 40
0.18
  9
$DIMCEN
 40
0.09
  9
$DIMTSZ
 40
0.0
  9
$DIMTOL
 70
     0
  9
$DIMLIM
 70
     0
  9
$DIMTIH
 70
     1
  9
$DIMTOH
 70
     1
  9
$DIMSE1
 70
     0
  9
$DIMSE2
 70
     0
  9
$DIMTAD
 70
     0
  9
$DIMZIN
 70
     0
  9
$DIMBLK
  1

  9
$DIMASO
 70
     1
  9
$DIMSHO
 70
     1
  9
$DIMPOST
  1

  9
$DIMAPOST
  1

  9
$DIMALT
 70
     0
  9
$DIMALTD
 70
     2
  9
$DIMALTF
 40
25.4
  9
$DIMLFAC
 40
1.0
  9
$DIMTOFL
 70
     0
  9
$DIMTVP
 40
0.0
  9
$DIMTIX
 70
     0
  9
$DIMSOXD
 70
     0
  9
$DIMSAH
 70
     0
  9
$DIMBLK1
  1

  9
$DIMBLK2
  1

  9
$DIMSTYLE
  2
Standard
  9
$DIMCLRD
 70
     0
  9
$DIMCLRE
 70
     0
  9
$DIMCLRT
 70
     0
  9
$DIMTFAC
 40
1.0
  9
$DIMGAP
 40
0.09
  9
$DIMJUST
 70
     0
  9
$DIMSD1
 70
     0
  9
$DIMSD2
 70
     0
  9
$DIMTOLJ
 70
     1
  9
$DIMTZIN
 70
     0
  9
$DIMALTZ
 70
     0
  9
$DIMALTTZ
 70
     0
  9
$DIMUPT
 70
     0
  9
$DIMDEC
 70
     4
  9
$DIMTDEC
 70
     4
  9
$DIMALTU
 70
     4
  9
$DIMALTTD
 70
     2
  9
$DIMTXSTY
  7
Standard
  9
$DIMAUNIT
 70
     0
  9
$DIMADEC
 70
     0
  9
$DIMALTRND
 40
0.0
  9
$DIMAZIN
 70
     0
  9
$DIMDSEP
 70
    46
  9
$DIMATFIT
 70
     3
  9
$DIMFRAC
 70
     0
  9
$DIMLDRBLK
  1

  9
$DIMLUNIT
 70
     4
  9
$DIMLWD
 70
    -2
  9
$DIMLWE
 70
    -2
  9
$DIMTMOVE
 70
     0
  9
$LUNITS
 70
     4
  9
$LUPREC
 70
     4
  9
$SKETCHINC
 40
0.1
  9
$FILLETRAD
 40
0.0
  9
$AUNITS
 70
     0
  9
$AUPREC
 70
     0
  9
$MENU
  1
.
  9
$ELEVATION
 40
0.0
  9
$PELEVATION
 40
0.0
  9
$THICKNESS
 40
0.0
  9
$LIMCHECK
 70
     0
  9
$CHAMFERA
 40
0.0
  9
$CHAMFERB
 40
0.0
  9
$CHAMFERC
 40
0.0
  9
$CHAMFERD
 40
0.0
  9
$SKPOLY
 70
     0
  9
$TDCREATE
 40
2456030.397534387
  9
$TDUCREATE
 40
2456030.605867720
  9
$TDUPDATE
 40
2456030.398238298
  9
$TDUUPDATE
 40
2456030.606571632
  9
$TDINDWG
 40
0.0006643866
  9
$TDUSRTIMER
 40
0.0006643866
  9
$USRTIMER
 70
     1
  9
$ANGBASE
 50
0.0
  9
$ANGDIR
 70
     0
  9
$PDMODE
 70
     0
  9
$PDSIZE
 40
0.0
  9
$PLINEWID
 40
0.0
  9
$SPLFRAME
 70
     0
  9
$SPLINETYPE
 70
     6
  9
$SPLINESEGS
 70
     8
  9
$HANDSEED
  5
25D
  9
$SURFTAB1
 70
     6
  9
$SURFTAB2
 70
     6
  9
$SURFTYPE
 70
     6
  9
$SURFU
 70
     6
  9
$SURFV
 70
     6
  9
$UCSBASE
  2

  9
$UCSNAME
  2

  9
$UCSORG
 10
0.0
 20
0.0
 30
0.0
  9
$UCSXDIR
 10
1.0
 20
0.0
 30
0.0
  9
$UCSYDIR
 10
0.0
 20
1.0
 30
0.0
  9
$UCSORTHOREF
  2

  9
$UCSORTHOVIEW
 70
     0
  9
$UCSORGTOP
 10
0.0
 20
0.0
 30
0.0
  9
$UCSORGBOTTOM
 10
0.0
 20
0.0
 30
0.0
  9
$UCSORGLEFT
 10
0.0
 20
0.0
 30
0.0
  9
$UCSORGRIGHT
 10
0.0
 20
0.0
 30
0.0
  9
$UCSORGFRONT
 10
0.0
 20
0.0
 30
0.0
  9
$UCSORGBACK
 10
0.0
 20
0.0
 30
0.0
  9
$PUCSBASE
  2

  9
$PUCSNAME
  2

  9
$PUCSORG
 10
0.0
 20
0.0
 30
0.0
  9
$PUCSXDIR
 10
1.0
 20
0.0
 30
0.0
  9
$PUCSYDIR
 10
0.0
 20
1.0
 30
0.0
  9
$PUCSORTHOREF
  2

  9
$PUCSORTHOVIEW
 70
     0
  9
$PUCSORGTOP
 10
0.0
 20
0.0
 30
0.0
  9
$PUCSORGBOTTOM
 10
0.0
 20
0.0
 30
0.0
  9
$PUCSORGLEFT
 10
0.0
 20
0.0
 30
0.0
  9
$PUCSORGRIGHT
 10
0.0
 20
0.0
 30
0.0
  9
$PUCSORGFRONT
 10
0.0
 20
0.0
 30
0.0
  9
$PUCSORGBACK
 10
0.0
 20
0.0
 30
0.0
  9
$USERI1
 70
     0
  9
$USERI2
 70
     0
  9
$USERI3
 70
     0
  9
$USERI4
 70
     0
  9
$USERI5
 70
     0
  9
$USERR1
 40
0.0
  9
$USERR2
 40
0.0
  9
$USERR3
 40
0.0
  9
$USERR4
 40
0.0
  9
$USERR5
 40
0.0
  9
$WORLDVIEW
 70
     1
  9
$SHADEDGE
 70
     3
  9
$SHADEDIF
 70
    70
  9
$TILEMODE
 70
     1
  9
$MAXACTVP
 70
    64
  9
$PINSBASE
 10
0.0
 20
0.0
 30
0.0
  9
$PLIMCHECK
 70
     0
  9
$PEXTMIN
 10
1.000000000000000E+20
 20
1.000000000000000E+20
 30
1.000000000000000E+20
  9
$PEXTMAX
 10
-1.000000000000000E+20
 20
-1.000000000000000E+20
 30
-1.000000000000000E+20
  9
$PLIMMIN
 10
0.0
 20
0.0
  9
$PLIMMAX
 10
12.0
 20
9.0
  9
$UNITMODE
 70
     0
  9
$VISRETAIN
 70
     1
  9
$PLINEGEN
 70
     0
  9
$PSLTSCALE
 70
     1
  9
$TREEDEPTH
 70
  3020
  9
$CMLSTYLE
  2
Standard
  9
$CMLJUST
 70
     0
  9
$CMLSCALE
 40
1.0
  9
$PROXYGRAPHICS
 70
     1
  9
$MEASUREMENT
 70
     0
  9
$CELWEIGHT
370
    -1
  9
$ENDCAPS
280
     0
  9
$JOINSTYLE
280
     0
  9
$LWDISPLAY
290
     0
  9
$INSUNITS
 70
     1
  9
$HYPERLINKBASE
  1

  9
$STYLESHEET
  1

  9
$XEDIT
290
     1
  9
$CEPSNTYPE
380
     0
  9
$PSTYLEMODE
290
     1
  9
$FINGERPRINTGUID
  2
{43C11ADC-AEE6-44E3-B37E-02B3C272C0DD}
  9
$VERSIONGUID
  2
{F0A816E2-69F5-4C22-8782-6091EA5A8B14}
  9
$EXTNAMES
290
     1
  9
$PSVPSCALE
 40
0.0
  9
$OLESTARTUP
290
     0
  0
ENDSEC
  0
SECTION
  2
CLASSES
  0
CLASS
  1
ACDBDICTIONARYWDFLT
  2
AcDbDictionaryWithDefault
  3
ObjectDBX Classes
 90
        0
280
     0
281
     0
  0
CLASS
  1
MATERIAL
  2
AcDbMaterial
  3
ObjectDBX Classes
 90
     1153
280
     0
281
     0
  0
CLASS
  1
VISUALSTYLE
  2
AcDbVisualStyle
  3
ObjectDBX Classes
 90
     4095
280
     0
281
     0
  0
CLASS
  1
SCALE
  2
AcDbScale
  3
ObjectDBX Classes
 90
     1153
280
     0
281
     0
  0
CLASS
  1
TABLESTYLE
  2
AcDbTableStyle
  3
ObjectDBX Classes
 90
     4095
280
     0
281
     0
  0
CLASS
  1
MLEADERSTYLE
  2
AcDbMLeaderStyle
  3
ACDB_MLEADERSTYLE_CLASS
 90
     4095
280
     0
281
     0
  0
CLASS
  1
RASTERVARIABLES
  2
AcDbRasterVariables
  3
ISM
 90
        0
280
     0
281
     0
  0
CLASS
  1
DICTIONARYVAR
  2
AcDbDictionaryVar
  3
ObjectDBX Classes
 90
        0
280
     0
281
     0
  0
CLASS
  1
SUN
  2
AcDbSun
  3
SCENEOE
 90
     1153
280
     0
281
     0
  0
CLASS
  1
SOLID_BACKGROUND
  2
AcDbSolidBackground
  3
SCENEOE
 90
     4095
280
     0
281
     0
  0
CLASS
  1
NPOCOLLECTION
  2
AcDbImpNonPersistentObjectsCollection
  3
ObjectDBX Classes
 90
     1153
280
     0
281
     0
  0
CLASS
  1
GROUND_PLANE_BACKGROUND
  2
AcDbGroundPlaneBackground
  3
SCENEOE
 90
     4095
280
     0
281
     0
  0
CLASS
  1
CELLSTYLEMAP
  2
AcDbCellStyleMap
  3
ObjectDBX Classes
 90
     1152
280
     0
281
     0
  0
CLASS
  1
ACDBPLACEHOLDER
  2
AcDbPlaceHolder
  3
ObjectDBX Classes
 90
        0
280
     0
281
     0
  0
CLASS
  1
LAYOUT
  2
AcDbLayout
  3
ObjectDBX Classes
 90
        0
280
     0
281
     0
  0
ENDSEC
  0
SECTION
  2
TABLES
  0
TABLE
  2
VPORT
  5
8
330
0
100
AcDbSymbolTable
 70
     1
  0
VPORT
  5
57
330
8
100
AcDbSymbolTableRecord
100
AcDbViewportTableRecord
  2
*Active
 70
     0
 10
0.0
 20
0.0
 11
1.0
 21
1.0
 12
0.0
 22
0.0
 13
0.0
 23
0.0
 14
1.0
 24
1.0
 15
0.0
 25
0.0
 16
85.7611699597863
 26
-85.76116995978631
 36
85.76116995978631
 17
3.307718348810865
 27
0.0310513973235942
 37
14.22113810887805
 40
72.44571031145629
 41
1.402298850574712
 42
50.0
 43
0.0
 44
0.0
 50
0.0
 51
0.0000000000000086
 71
     0
 72
   100
 73
     1
 74
     1
 75
     0
 76
     0
 77
     0
 78
     0
281
     6
 65
     1
110
0.0
120
0.0
130
0.0
111
1.0
121
0.0
131
0.0
112
0.0
122
1.0
132
0.0
 79
     0
146
0.0
1001
ACAD_NAV_VCDISPLAY
1070
     3
  0
ENDTAB
  0
TABLE
  2
LTYPE
  5
5
330
0
100
AcDbSymbolTable
 70
     1
  0
LTYPE
  5
5B
330
5
100
AcDbSymbolTableRecord
100
AcDbLinetypeTableRecord
  2
ByBlock
 70
     0
  3

 72
    65
 73
     0
 40
0.0
  0
LTYPE
  5
5C
330
5
100
AcDbSymbolTableRecord
100
AcDbLinetypeTableRecord
  2
ByLayer
 70
     0
  3

 72
    65
 73
     0
 40
0.0
  0
LTYPE
  5
5D
330
5
100
AcDbSymbolTableRecord
100
AcDbLinetypeTableRecord
  2
Continuous
 70
     0
  3
Solid line
 72
    65
 73
     0
 40
0.0
  0
ENDTAB
  0
TABLE
  2
LAYER
  5
2
330
0
100
AcDbSymbolTable
 70
     4
  0
LAYER
  5
54
330
2
100
AcDbSymbolTableRecord
100
AcDbLayerTableRecord
  2
0
 70
     0
 62
     7
  6
Continuous
370
    -3
390
F
  0
LAYER
  5
7A
330
2
100
AcDbSymbolTableRecord
100
AcDbLayerTableRecord
  2
3D-S-COLS-ANLY
 70
     0
 62
     2
  6
Continuous
370
    -3
390
F
  0
LAYER
  5
13F
330
2
100
AcDbSymbolTableRecord
100
AcDbLayerTableRecord
  2
3D-GENM
 70
     0
 62
     6
  6
Continuous
370
    -3
390
F
  0
LAYER
  5
16E
330
2
100
AcDbSymbolTableRecord
100
AcDbLayerTableRecord
  2
3D-S-BEAM
 70
     0
 62
     4
  6
Continuous
370
    -3
390
F
  0
ENDTAB
  0
TABLE
  2
STYLE
  5
3
330
0
100
AcDbSymbolTable
 70
     2
  0
STYLE
  5
55
330
3
100
AcDbSymbolTableRecord
100
AcDbTextStyleTableRecord
  2
Standard
 70
     0
 40
0.0
 41
1.0
 50
0.0
 71
     0
 42
0.2
  3
txt
  4

  0
STYLE
  5
5A
330
3
100
AcDbSymbolTableRecord
100
AcDbTextStyleTableRecord
  2
Annotative
 70
     0
 40
0.0
 41
1.0
 50
0.0
 71
     0
 42
0.2
  3
txt
  4

1001
AcadAnnotative
1000
AnnotativeData
1002
{
1070
     1
1070
     1
1002
}
  0
ENDTAB
  0
TABLE
  2
VIEW
  5
6
330
0
100
AcDbSymbolTable
 70
     1
  0
VIEW
  5
1A5
330
6
100
AcDbSymbolTableRecord
100
AcDbViewTableRecord
  2
Preview
 70
     0
 40
2400.0
 10
0.0
 20
0.0
 41
2400.0
 11
40.64344616743794
 21
-40.64344616743793
 31
40.64344616743794
 12
3.307718348811146
 22
-0.0000000000016347
 32
14.22113810887744
 42
50.0
 43
0.0
 44
0.0
 50
0.0
 71
     0
281
     0
 72
     0
  0
ENDTAB
  0
TABLE
  2
UCS
  5
7
330
0
100
AcDbSymbolTable
 70
     0
  0
ENDTAB
  0
TABLE
  2
APPID
  5
9
330
0
100
AcDbSymbolTable
 70
     5
  0
APPID
  5
56
330
9
100
AcDbSymbolTableRecord
100
AcDbRegAppTableRecord
  2
ACAD
 70
     0
  0
APPID
  5
5E
330
9
100
AcDbSymbolTableRecord
100
AcDbRegAppTableRecord
  2
AcadAnnotative
 70
     0
  0
APPID
  5
74
330
9
100
AcDbSymbolTableRecord
100
AcDbRegAppTableRecord
  2
REVIT
 70
     0
  0
APPID
  5
1BE
330
9
100
AcDbSymbolTableRecord
100
AcDbRegAppTableRecord
  2
ACAD_NAV_VCDISPLAY
 70
     0
  0
APPID
  5
255
330
9
100
AcDbSymbolTableRecord
100
AcDbRegAppTableRecord
  2
ACAD_MLEADERVER
 70
     0
  0
ENDTAB
  0
TABLE
  2
DIMSTYLE
  5
A
330
0
100
AcDbSymbolTable
 70
     2
100
AcDbDimStyleTable
 71
     0
  0
DIMSTYLE
105
58
330
A
100
AcDbSymbolTableRecord
100
AcDbDimStyleTableRecord
  2
Standard
 70
     0
340
55
  0
DIMSTYLE
105
59
330
A
100
AcDbSymbolTableRecord
100
AcDbDimStyleTableRecord
  2
Annotative
 70
     0
340
55
1001
AcadAnnotative
1000
AnnotativeData
1002
{
1070
     1
1070
     1
1002
}
  0
ENDTAB
  0
TABLE
  2
BLOCK_RECORD
  5
1
330
0
100
AcDbSymbolTable
 70
     4
  0
BLOCK_RECORD
  5
6C
330
1
100
AcDbSymbolTableRecord
100
AcDbBlockTableRecord
  2
*Model_Space
340
6F
  0
BLOCK_RECORD
  5
68
330
1
100
AcDbSymbolTableRecord
100
AcDbBlockTableRecord
  2
*Paper_Space
340
6B
  0
BLOCK_RECORD
  5
70
330
1
100
AcDbSymbolTableRecord
100
AcDbBlockTableRecord
  2
*Paper_Space0
340
73
  0
BLOCK_RECORD
  5
7B
330
1
100
AcDbSymbolTableRecord
100
AcDbBlockTableRecord
  2
Outrigger-Kawneer-Square - 5_-142066-Preview
340
0
102
{BLKREFS
331
128
331
129
331
12A
331
12B
331
12C
331
12D
331
12E
331
12F
331
130
331
131
331
132
331
133
331
134
331
135
331
136
331
137
331
138
331
139
331
13A
331
13B
331
13C
331
13D
331
13E
102
}
  0
BLOCK_RECORD
  5
140
330
1
100
AcDbSymbolTableRecord
100
AcDbBlockTableRecord
  2
Blade-Kawneer-Square - Versoleil-153009-Preview
340
0
102
{BLKREFS
331
16D
331
1A1
331
1A2
331
1A3
331
1A4
102
}
  0
BLOCK_RECORD
  5
16F
330
1
100
AcDbSymbolTableRecord
100
AcDbBlockTableRecord
  2
Fascia-Kawneer-Rectangular - Versoleil-156651-Preview
340
0
102
{BLKREFS
331
1A0
102
}
  0
ENDTAB
  0
ENDSEC
  0
SECTION
  2
BLOCKS
  0
BLOCK
  5
6D
330
6C
100
AcDbEntity
  8
0
100
AcDbBlockBegin
  2
*Model_Space
 70
     0
 10
0.0
 20
0.0
 30
0.0
  3
*Model_Space
  1

  0
ENDBLK
  5
6E
330
6C
100
AcDbEntity
  8
0
100
AcDbBlockEnd
  0
BLOCK
  5
69
330
68
100
AcDbEntity
 67
     1
  8
0
100
AcDbBlockBegin
  2
*Paper_Space
 70
     0
 10
0.0
 20
0.0
 30
0.0
  3
*Paper_Space
  1

  0
ENDBLK
  5
6A
330
68
100
AcDbEntity
 67
     1
  8
0
100
AcDbBlockEnd
  0
BLOCK
  5
71
330
70
100
AcDbEntity
 67
     1
  8
0
100
AcDbBlockBegin
  2
*Paper_Space0
 70
     0
 10
0.0
 20
0.0
 30
0.0
  3
*Paper_Space0
  1

  0
ENDBLK
  5
72
330
70
100
AcDbEntity
 67
     1
  8
0
100
AcDbBlockEnd
  0
BLOCK
  5
126
330
7B
100
AcDbEntity
  8
0
100
AcDbBlockBegin
  2
Outrigger-Kawneer-Square - 5_-142066-Preview
 70
     0
 10
0.0
 20
0.0
 30
0.0
  3
Outrigger-Kawneer-Square - 5_-142066-Preview
  1

  0
POLYLINE
  5
7C
330
7B
100
AcDbEntity
  8
3D-S-COLS-ANLY
370
     9
100
AcDbPolyFaceMesh
 66
     1
 10
0.0
 20
0.0
 30
0.0
 70
    64
 71
     4
 72
     1
1001
REVIT
1002
{
1070
     3
1000
142059
1002
}
  0
VERTEX
  5
7D
330
7C
100
AcDbEntity
  8
3D-S-COLS-ANLY
370
     9
100
AcDbVertex
100
AcDbPolyFaceMeshVertex
 10
0.46875
 20
-2.499999940395354
 30
0.0000000000011031
 70
   192
  0
VERTEX
  5
7E
330
7C
100
AcDbEntity
  8
3D-S-COLS-ANLY
370
     9
100
AcDbVertex
100
AcDbPolyFaceMeshVertex
 10
0.46875
 20
2.499999940395354
 30
0.0000000000011697
 70
   192
  0
VERTEX
  5
7F
330
7C
100
AcDbEntity
  8
3D-S-COLS-ANLY
370
     9
100
AcDbVertex
100
AcDbPolyFaceMeshVertex
 10
0.46875
 20
2.499999940395354
 30
30.0
 70
   192
  0
VERTEX
  5
80
330
7C
100
AcDbEntity
  8
3D-S-COLS-ANLY
370
     9
100
AcDbVertex
100
AcDbPolyFaceMeshVertex
 10
0.46875
 20
-2.499999940395354
 30
30.0
 70
   192
  0
VERTEX
  5
81
330
7C
100
AcDbEntity
  8
3D-S-COLS-ANLY
370
     9
100
AcDbFaceRecord
 10
0.0
 20
0.0
 30
0.0
 70
   128
 71
     2
 72
     3
 73
     4
 74
     1
  0
SEQEND
  5
82
330
7C
100
AcDbEntity
  8
3D-S-COLS-ANLY
370
     9
  0
POLYLINE
  5
83
330
7B
100
AcDbEntity
  8
3D-S-COLS-ANLY
370
     9
100
AcDbPolyFaceMesh
 66
     1
 10
0.0
 20
0.0
 30
0.0
 70
    64
 71
     4
 72
     1
1001
REVIT
1002
{
1070
     3
1000
142059
1002
}
  0
VERTEX
  5
84
330
83
100
AcDbEntity
  8
3D-S-COLS-ANLY
370
     9
100
AcDbVertex
100
AcDbPolyFaceMeshVertex
 10
-0.46875
 20
-2.499999940395354
 30
0.0000000000010978
 70
   192
  0
VERTEX
  5
85
330
83
100
AcDbEntity
  8
3D-S-COLS-ANLY
370
     9
100
AcDbVertex
100
AcDbPolyFaceMeshVertex
 10
-0.46875
 20
-2.499999940395354
 30
30.0
 70
   192
  0
VERTEX
  5
86
330
83
100
AcDbEntity
  8
3D-S-COLS-ANLY
370
     9
100
AcDbVertex
100
AcDbPolyFaceMeshVertex
 10
-0.46875
 20
2.499999940395354
 30
30.0
 70
   192
  0
VERTEX
  5
87
330
83
100
AcDbEntity
  8
3D-S-COLS-ANLY
370
     9
100
AcDbVertex
100
AcDbPolyFaceMeshVertex
 10
-0.46875
 20
2.499999940395354
 30
0.0000000000011071
 70
   192
  0
VERTEX
  5
88
330
83
100
AcDbEntity
  8
3D-S-COLS-ANLY
370
     9
100
AcDbFaceRecord
 10
0.0
 20
0.0
 30
0.0
 70
   128
 71
     2
 72
     3
 73
     4
 74
     1
  0
SEQEND
  5
89
330
83
100
AcDbEntity
  8
3D-S-COLS-ANLY
370
     9
  0
POLYLINE
  5
8A
330
7B
100
AcDbEntity
  8
3D-S-COLS-ANLY
370
     9
100
AcDbPolyFaceMesh
 66
     1
 10
0.0
 20
0.0
 30
0.0
 70
    64
 71
     4
 72
     1
1001
REVIT
1002
{
1070
     3
1000
142059
1002
}
  0
VERTEX
  5
8B
330
8A
100
AcDbEntity
  8
3D-S-COLS-ANLY
370
     9
100
AcDbVertex
100
AcDbPolyFaceMeshVertex
 10
0.46875
 20
2.499999940395354
 30
0.0000000000011067
 70
   192
  0
VERTEX
  5
8C
330
8A
100
AcDbEntity
  8
3D-S-COLS-ANLY
370
     9
100
AcDbVertex
100
AcDbPolyFaceMeshVertex
 10
0.46875
 20
-2.499999940395354
 30
0.0000000000011031
 70
   192
  0
VERTEX
  5
8D
330
8A
100
AcDbEntity
  8
3D-S-COLS-ANLY
370
     9
100
AcDbVertex
100
AcDbPolyFaceMeshVertex
 10
-0.46875
 20
-2.499999940395354
 30
0.0000000000011031
 70
   192
  0
VERTEX
  5
8E
330
8A
100
AcDbEntity
  8
3D-S-COLS-ANLY
370
     9
100
AcDbVertex
100
AcDbPolyFaceMeshVertex
 10
-0.46875
 20
2.499999940395354
 30
0.0000000000011067
 70
   192
  0
VERTEX
  5
8F
330
8A
100
AcDbEntity
  8
3D-S-COLS-ANLY
370
     9
100
AcDbFaceRecord
 10
0.0
 20
0.0
 30
0.0
 70
   128
 71
     4
 72
     1
 73
     2
 74
     3
  0
SEQEND
  5
90
330
8A
100
AcDbEntity
  8
3D-S-COLS-ANLY
370
     9
  0
POLYLINE
  5
91
330
7B
100
AcDbEntity
  8
3D-S-COLS-ANLY
370
     9
100
AcDbPolyFaceMesh
 66
     1
 10
0.0
 20
0.0
 30
0.0
 70
    64
 71
     4
 72
     1
1001
REVIT
1002
{
1070
     3
1000
142059
1002
}
  0
VERTEX
  5
92
330
91
100
AcDbEntity
  8
3D-S-COLS-ANLY
370
     9
100
AcDbVertex
100
AcDbPolyFaceMeshVertex
 10
0.46875
 20
2.499999940395354
 30
30.0
 70
   192
  0
VERTEX
  5
93
330
91
100
AcDbEntity
  8
3D-S-COLS-ANLY
370
     9
100
AcDbVertex
100
AcDbPolyFaceMeshVertex
 10
0.46875
 20
2.499999940395354
 30
0.0000000000011697
 70
   192
  0
VERTEX
  5
94
330
91
100
AcDbEntity
  8
3D-S-COLS-ANLY
370
     9
100
AcDbVertex
100
AcDbPolyFaceMeshVertex
 10
-0.46875
 20
2.499999940395354
 30
0.0000000000011697
 70
   192
  0
VERTEX
  5
95
330
91
100
AcDbEntity
  8
3D-S-COLS-ANLY
370
     9
100
AcDbVertex
100
AcDbPolyFaceMeshVertex
 10
-0.46875
 20
2.499999940395354
 30
30.0
 70
   192
  0
VERTEX
  5
96
330
91
100
AcDbEntity
  8
3D-S-COLS-ANLY
370
     9
100
AcDbFaceRecord
 10
0.0
 20
0.0
 30
0.0
 70
   128
 71
     1
 72
     2
 73
     3
 74
     4
  0
SEQEND
  5
97
330
91
100
AcDbEntity
  8
3D-S-COLS-ANLY
370
     9
  0
POLYLINE
  5
98
330
7B
100
AcDbEntity
  8
3D-S-COLS-ANLY
370
     9
100
AcDbPolyFaceMesh
 66
     1
 10
0.0
 20
0.0
 30
0.0
 70
    64
 71
     4
 72
     1
1001
REVIT
1002
{
1070
     3
1000
142059
1002
}
  0
VERTEX
  5
99
330
98
100
AcDbEntity
  8
3D-S-COLS-ANLY
370
     9
100
AcDbVertex
100
AcDbPolyFaceMeshVertex
 10
0.46875
 20
-2.499999940395354
 30
30.0
 70
   192
  0
VERTEX
  5
9A
330
98
100
AcDbEntity
  8
3D-S-COLS-ANLY
370
     9
100
AcDbVertex
100
AcDbPolyFaceMeshVertex
 10
0.46875
 20
2.499999940395354
 30
30.0
 70
   192
  0
VERTEX
  5
9B
330
98
100
AcDbEntity
  8
3D-S-COLS-ANLY
370
     9
100
AcDbVertex
100
AcDbPolyFaceMeshVertex
 10
-0.46875
 20
2.499999940395354
 30
30.0
 70
   192
  0
VERTEX
  5
9C
330
98
100
AcDbEntity
  8
3D-S-COLS-ANLY
370
     9
100
AcDbVertex
100
AcDbPolyFaceMeshVertex
 10
-0.46875
 20
-2.499999940395354
 30
30.0
 70
   192
  0
VERTEX
  5
9D
330
98
100
AcDbEntity
  8
3D-S-COLS-ANLY
370
     9
100
AcDbFaceRecord
 10
0.0
 20
0.0
 30
0.0
 70
   128
 71
     1
 72
     2
 73
     3
 74
     4
  0
SEQEND
  5
9E
330
98
100
AcDbEntity
  8
3D-S-COLS-ANLY
370
     9
  0
POLYLINE
  5
9F
330
7B
100
AcDbEntity
  8
3D-S-COLS-ANLY
370
     9
100
AcDbPolyFaceMesh
 66
     1
 10
0.0
 20
0.0
 30
0.0
 70
    64
 71
     4
 72
     1
1001
REVIT
1002
{
1070
     3
1000
142059
1002
}
  0
VERTEX
  5
A0
330
9F
100
AcDbEntity
  8
3D-S-COLS-ANLY
370
     9
100
AcDbVertex
100
AcDbPolyFaceMeshVertex
 10
0.46875
 20
-2.499999940395354
 30
0.0000000000010978
 70
   192
  0
VERTEX
  5
A1
330
9F
100
AcDbEntity
  8
3D-S-COLS-ANLY
370
     9
100
AcDbVertex
100
AcDbPolyFaceMeshVertex
 10
0.46875
 20
-2.499999940395354
 30
30.0
 70
   192
  0
VERTEX
  5
A2
330
9F
100
AcDbEntity
  8
3D-S-COLS-ANLY
370
     9
100
AcDbVertex
100
AcDbPolyFaceMeshVertex
 10
-0.46875
 20
-2.499999940395354
 30
30.0
 70
   192
  0
VERTEX
  5
A3
330
9F
100
AcDbEntity
  8
3D-S-COLS-ANLY
370
     9
100
AcDbVertex
100
AcDbPolyFaceMeshVertex
 10
-0.46875
 20
-2.499999940395354
 30
0.0000000000011031
 70
   192
  0
VERTEX
  5
A4
330
9F
100
AcDbEntity
  8
3D-S-COLS-ANLY
370
     9
100
AcDbFaceRecord
 10
0.0
 20
0.0
 30
0.0
 70
   128
 71
     1
 72
     2
 73
     3
 74
     4
  0
SEQEND
  5
A5
330
9F
100
AcDbEntity
  8
3D-S-COLS-ANLY
370
     9
  0
POLYLINE
  5
A6
330
7B
100
AcDbEntity
  8
3D-S-COLS-ANLY
370
     9
100
AcDbPolyFaceMesh
 66
     1
 10
0.0
 20
0.0
 30
0.0
 70
    64
 71
    14
 72
     7
1001
REVIT
1002
{
1070
     3
1000
155699
1002
}
  0
VERTEX
  5
A7
330
A6
100
AcDbEntity
  8
3D-S-COLS-ANLY
370
     9
100
AcDbVertex
100
AcDbPolyFaceMeshVertex
 10
0.46875
 20
-4.722607970237731
 30
0.9839555919170377
 70
   192
  0
VERTEX
  5
A8
330
A6
100
AcDbEntity
  8
3D-S-COLS-ANLY
370
     9
100
AcDbVertex
100
AcDbPolyFaceMeshVertex
 10
0.46875
 20
-4.91659641265869
 30
0.8563673794269559
 70
   192
  0
VERTEX
  5
A9
330
A6
100
AcDbEntity
  8
3D-S-COLS-ANLY
370
     9
100
AcDbVertex
100
AcDbPolyFaceMeshVertex
 10
0.46875
 20
-5.134779453277587
 30
0.7769551277160644
 70
   192
  0
VERTEX
  5
AA
330
A6
100
AcDbEntity
  8
3D-S-COLS-ANLY
370
     9
100
AcDbVertex
100
AcDbPolyFaceMeshVertex
 10
0.46875
 20
-5.365395426750182
 30
0.75
 70
   192
  0
VERTEX
  5
AB
330
A6
100
AcDbEntity
  8
3D-S-COLS-ANLY
370
     9
100
AcDbVertex
100
AcDbPolyFaceMeshVertex
 10
0.46875
 20
-7.46894860267639
 30
0.75
 70
   192
  0
VERTEX
  5
AC
330
A6
100
AcDbEntity
  8
3D-S-COLS-ANLY
370
     9
100
AcDbVertex
100
AcDbPolyFaceMeshVertex
 10
0.46875
 20
-7.46894860267639
 30
0.000000000001247
 70
   192
  0
VERTEX
  5
AD
330
A6
100
AcDbEntity
  8
3D-S-COLS-ANLY
370
     9
100
AcDbVertex
100
AcDbPolyFaceMeshVertex
 10
0.46875
 20
7.531051397323607
 30
0.0000000000012736
 70
   192
  0
VERTEX
  5
AE
330
A6
100
AcDbEntity
  8
3D-S-COLS-ANLY
370
     9
100
AcDbVertex
100
AcDbPolyFaceMeshVertex
 10
0.46875
 20
7.531051397323607
 30
0.75
 70
   192
  0
VERTEX
  5
AF
330
A6
100
AcDbEntity
  8
3D-S-COLS-ANLY
370
     9
100
AcDbVertex
100
AcDbPolyFaceMeshVertex
 10
0.46875
 20
5.42749786376953
 30
0.75
 70
   192
  0
VERTEX
  5
B0
330
A6
100
AcDbEntity
  8
3D-S-COLS-ANLY
370
     9
100
AcDbVertex
100
AcDbPolyFaceMeshVertex
 10
0.46875
 20
5.196881890296935
 30
0.7769551277160644
 70
   192
  0
VERTEX
  5
B1
330
A6
100
AcDbEntity
  8
3D-S-COLS-ANLY
370
     9
100
AcDbVertex
100
AcDbPolyFaceMeshVertex
 10
0.46875
 20
4.97869849205017
 30
0.8563673794269559
 70
   192
  0
VERTEX
  5
B2
330
A6
100
AcDbEntity
  8
3D-S-COLS-ANLY
370
     9
100
AcDbVertex
100
AcDbPolyFaceMeshVertex
 10
0.46875
 20
4.78471004962921
 30
0.9839555919170377
 70
   192
  0
VERTEX
  5
B3
330
A6
100
AcDbEntity
  8
3D-S-COLS-ANLY
370
     9
100
AcDbVertex
100
AcDbPolyFaceMeshVertex
 10
0.46875
 20
2.501257359981536
 30
2.899999916553496
 70
   192
  0
VERTEX
  5
B4
330
A6
100
AcDbEntity
  8
3D-S-COLS-ANLY
370
     9
100
AcDbVertex
100
AcDbPolyFaceMeshVertex
 10
0.46875
 20
-2.439154922962188
 30
2.899999916553496
 70
   192
  0
VERTEX
  5
B5
330
A6
100
AcDbEntity
  8
3D-S-COLS-ANLY
370
     9
100
AcDbFaceRecord
 10
0.0
 20
0.0
 30
0.0
 70
   128
 71
     8
 72
    -9
 73
     7
  0
VERTEX
  5
B6
330
A6
100
AcDbEntity
  8
3D-S-COLS-ANLY
370
     9
100
AcDbFaceRecord
 10
0.0
 20
0.0
 30
0.0
 70
   128
 71
    -7
 72
     9
 73
   -10
 74
    -3
  0
VERTEX
  5
B7
330
A6
100
AcDbEntity
  8
3D-S-COLS-ANLY
370
     9
100
AcDbFaceRecord
 10
0.0
 20
0.0
 30
0.0
 70
   128
 71
    10
 72
   -11
 73
     2
 74
    -3
  0
VERTEX
  5
B8
330
A6
100
AcDbEntity
  8
3D-S-COLS-ANLY
370
     9
100
AcDbFaceRecord
 10
0.0
 20
0.0
 30
0.0
 70
   128
 71
    -1
 72
    12
 73
    13
 74
    14
  0
VERTEX
  5
B9
330
A6
100
AcDbEntity
  8
3D-S-COLS-ANLY
370
     9
100
AcDbFaceRecord
 10
0.0
 20
0.0
 30
0.0
 70
   128
 71
    -2
 72
    11
 73
   -12
 74
     1
  0
VERTEX
  5
BA
330
A6
100
AcDbEntity
  8
3D-S-COLS-ANLY
370
     9
100
AcDbFaceRecord
 10
0.0
 20
0.0
 30
0.0
 70
   128
 71
     5
 72
    -6
 73
     4
  0
VERTEX
  5
BB
330
A6
100
AcDbEntity
  8
3D-S-COLS-ANLY
370
     9
100
AcDbFaceRecord
 10
0.0
 20
0.0
 30
0.0
 70
   128
 71
     3
 72
    -4
 73
     6
 74
    -7
  0
SEQEND
  5
BC
330
A6
100
AcDbEntity
  8
3D-S-COLS-ANLY
370
     9
  0
POLYLINE
  5
BD
330
7B
100
AcDbEntity
  8
3D-S-COLS-ANLY
370
     9
100
AcDbPolyFaceMesh
 66
     1
 10
0.0
 20
0.0
 30
0.0
 70
    64
 71
    14
 72
     7
1001
REVIT
1002
{
1070
     3
1000
155699
1002
}
  0
VERTEX
  5
BE
330
BD
100
AcDbEntity
  8
3D-S-COLS-ANLY
370
     9
100
AcDbVertex
100
AcDbPolyFaceMeshVertex
 10
-0.46875
 20
-4.722607970237731
 30
0.9839555919170377
 70
   192
  0
VERTEX
  5
BF
330
BD
100
AcDbEntity
  8
3D-S-COLS-ANLY
370
     9
100
AcDbVertex
100
AcDbPolyFaceMeshVertex
 10
-0.46875
 20
-2.439154922962188
 30
2.899999916553496
 70
   192
  0
VERTEX
  5
C0
330
BD
100
AcDbEntity
  8
3D-S-COLS-ANLY
370
     9
100
AcDbVertex
100
AcDbPolyFaceMeshVertex
 10
-0.46875
 20
2.501257359981536
 30
2.899999916553496
 70
   192
  0
VERTEX
  5
C1
330
BD
100
AcDbEntity
  8
3D-S-COLS-ANLY
370
     9
100
AcDbVertex
100
AcDbPolyFaceMeshVertex
 10
-0.46875
 20
4.78471004962921
 30
0.9839555919170377
 70
   192
  0
VERTEX
  5
C2
330
BD
100
AcDbEntity
  8
3D-S-COLS-ANLY
370
     9
100
AcDbVertex
100
AcDbPolyFaceMeshVertex
 10
-0.46875
 20
4.97869849205017
 30
0.8563673794269559
 70
   192
  0
VERTEX
  5
C3
330
BD
100
AcDbEntity
  8
3D-S-COLS-ANLY
370
     9
100
AcDbVertex
100
AcDbPolyFaceMeshVertex
 10
-0.46875
 20
5.196881890296935
 30
0.7769551277160644
 70
   192
  0
VERTEX
  5
C4
330
BD
100
AcDbEntity
  8
3D-S-COLS-ANLY
370
     9
100
AcDbVertex
100
AcDbPolyFaceMeshVertex
 10
-0.46875
 20
5.42749786376953
 30
0.75
 70
   192
  0
VERTEX
  5
C5
330
BD
100
AcDbEntity
  8
3D-S-COLS-ANLY
370
     9
100
AcDbVertex
100
AcDbPolyFaceMeshVertex
 10
-0.46875
 20
7.531051397323607
 30
0.75
 70
   192
  0
VERTEX
  5
C6
330
BD
100
AcDbEntity
  8
3D-S-COLS-ANLY
370
     9
100
AcDbVertex
100
AcDbPolyFaceMeshVertex
 10
-0.46875
 20
7.531051397323607
 30
0.0000000000012736
 70
   192
  0
VERTEX
  5
C7
330
BD
100
AcDbEntity
  8
3D-S-COLS-ANLY
370
     9
100
AcDbVertex
100
AcDbPolyFaceMeshVertex
 10
-0.46875
 20
-7.46894860267639
 30
0.000000000001247
 70
   192
  0
VERTEX
  5
C8
330
BD
100
AcDbEntity
  8
3D-S-COLS-ANLY
370
     9
100
AcDbVertex
100
AcDbPolyFaceMeshVertex
 10
-0.46875
 20
-7.46894860267639
 30
0.75
 70
   192
  0
VERTEX
  5
C9
330
BD
100
AcDbEntity
  8
3D-S-COLS-ANLY
370
     9
100
AcDbVertex
100
AcDbPolyFaceMeshVertex
 10
-0.46875
 20
-5.365395426750182
 30
0.75
 70
   192
  0
VERTEX
  5
CA
330
BD
100
AcDbEntity
  8
3D-S-COLS-ANLY
370
     9
100
AcDbVertex
100
AcDbPolyFaceMeshVertex
 10
-0.46875
 20
-5.134779453277587
 30
0.7769551277160644
 70
   192
  0
VERTEX
  5
CB
330
BD
100
AcDbEntity
  8
3D-S-COLS-ANLY
370
     9
100
AcDbVertex
100
AcDbPolyFaceMeshVertex
 10
-0.46875
 20
-4.91659641265869
 30
0.8563673794269559
 70
   192
  0
VERTEX
  5
CC
330
BD
100
AcDbEntity
  8
3D-S-COLS-ANLY
370
     9
100
AcDbFaceRecord
 10
0.0
 20
0.0
 30
0.0
 70
   128
 71
    -9
 72
     7
 73
     8
  0
VERTEX
  5
CD
330
BD
100
AcDbEntity
  8
3D-S-COLS-ANLY
370
     9
100
AcDbFaceRecord
 10
0.0
 20
0.0
 30
0.0
 70
   128
 71
     6
 72
    -7
 73
    -9
 74
   -13
  0
VERTEX
  5
CE
330
BD
100
AcDbEntity
  8
3D-S-COLS-ANLY
370
     9
100
AcDbFaceRecord
 10
0.0
 20
0.0
 30
0.0
 70
   128
 71
   -14
 72
     5
 73
    -6
 74
    13
  0
VERTEX
  5
CF
330
BD
100
AcDbEntity
  8
3D-S-COLS-ANLY
370
     9
100
AcDbFaceRecord
 10
0.0
 20
0.0
 30
0.0
 70
   128
 71
     3
 72
    -4
 73
     1
 74
     2
  0
VERTEX
  5
D0
330
BD
100
AcDbEntity
  8
3D-S-COLS-ANLY
370
     9
100
AcDbFaceRecord
 10
0.0
 20
0.0
 30
0.0
 70
   128
 71
     4
 72
    -5
 73
    14
 74
    -1
  0
VERTEX
  5
D1
330
BD
100
AcDbEntity
  8
3D-S-COLS-ANLY
370
     9
100
AcDbFaceRecord
 10
0.0
 20
0.0
 30
0.0
 70
   128
 71
   -12
 72
    10
 73
    11
  0
VERTEX
  5
D2
330
BD
100
AcDbEntity
  8
3D-S-COLS-ANLY
370
     9
100
AcDbFaceRecord
 10
0.0
 20
0.0
 30
0.0
 70
   128
 71
   -10
 72
    12
 73
   -13
 74
     9
  0
SEQEND
  5
D3
330
BD
100
AcDbEntity
  8
3D-S-COLS-ANLY
370
     9
  0
POLYLINE
  5
D4
330
7B
100
AcDbEntity
  8
3D-S-COLS-ANLY
370
     9
100
AcDbPolyFaceMesh
 66
     1
 10
0.0
 20
0.0
 30
0.0
 70
    64
 71
     8
 72
     3
1001
REVIT
1002
{
1070
     3
1000
155699
1002
}
  0
VERTEX
  5
D5
330
D4
100
AcDbEntity
  8
3D-S-COLS-ANLY
370
     9
100
AcDbVertex
100
AcDbPolyFaceMeshVertex
 10
0.46875
 20
-5.365395426750182
 30
0.75
 70
   192
  0
VERTEX
  5
D6
330
D4
100
AcDbEntity
  8
3D-S-COLS-ANLY
370
     9
100
AcDbVertex
100
AcDbPolyFaceMeshVertex
 10
0.46875
 20
-5.134779453277587
 30
0.7769551277160644
 70
   192
  0
VERTEX
  5
D7
330
D4
100
AcDbEntity
  8
3D-S-COLS-ANLY
370
     9
100
AcDbVertex
100
AcDbPolyFaceMeshVertex
 10
0.46875
 20
-4.91659641265869
 30
0.8563673794269559
 70
   192
  0
VERTEX
  5
D8
330
D4
100
AcDbEntity
  8
3D-S-COLS-ANLY
370
     9
100
AcDbVertex
100
AcDbPolyFaceMeshVertex
 10
0.46875
 20
-4.722607970237731
 30
0.9839555919170377
 70
   192
  0
VERTEX
  5
D9
330
D4
100
AcDbEntity
  8
3D-S-COLS-ANLY
370
     9
100
AcDbVertex
100
AcDbPolyFaceMeshVertex
 10
-0.46875
 20
-4.722607970237731
 30
0.9839555919170377
 70
   192
  0
VERTEX
  5
DA
330
D4
100
AcDbEntity
  8
3D-S-COLS-ANLY
370
     9
100
AcDbVertex
100
AcDbPolyFaceMeshVertex
 10
-0.46875
 20
-4.91659641265869
 30
0.8563673794269559
 70
   192
  0
VERTEX
  5
DB
330
D4
100
AcDbEntity
  8
3D-S-COLS-ANLY
370
     9
100
AcDbVertex
100
AcDbPolyFaceMeshVertex
 10
-0.46875
 20
-5.134779453277587
 30
0.7769551277160644
 70
   192
  0
VERTEX
  5
DC
330
D4
100
AcDbEntity
  8
3D-S-COLS-ANLY
370
     9
100
AcDbVertex
100
AcDbPolyFaceMeshVertex
 10
-0.46875
 20
-5.365395426750182
 30
0.75
 70
   192
  0
VERTEX
  5
DD
330
D4
100
AcDbEntity
  8
3D-S-COLS-ANLY
370
     9
100
AcDbFaceRecord
 10
0.0
 20
0.0
 30
0.0
 70
   128
 71
    -6
 72
     3
 73
     4
 74
     5
  0
VERTEX
  5
DE
330
D4
100
AcDbEntity
  8
3D-S-COLS-ANLY
370
     9
100
AcDbFaceRecord
 10
0.0
 20
0.0
 30
0.0
 70
   128
 71
    -3
 72
     6
 73
    -7
 74
     2
  0
VERTEX
  5
DF
330
D4
100
AcDbEntity
  8
3D-S-COLS-ANLY
370
     9
100
AcDbFaceRecord
 10
0.0
 20
0.0
 30
0.0
 70
   128
 71
     8
 72
     1
 73
    -2
 74
     7
  0
SEQEND
  5
E0
330
D4
100
AcDbEntity
  8
3D-S-COLS-ANLY
370
     9
  0
POLYLINE
  5
E1
330
7B
100
AcDbEntity
  8
3D-S-COLS-ANLY
370
     9
100
AcDbPolyFaceMesh
 66
     1
 10
0.0
 20
0.0
 30
0.0
 70
    64
 71
     4
 72
     1
1001
REVIT
1002
{
1070
     3
1000
155699
1002
}
  0
VERTEX
  5
E2
330
E1
100
AcDbEntity
  8
3D-S-COLS-ANLY
370
     9
100
AcDbVertex
100
AcDbPolyFaceMeshVertex
 10
0.46875
 20
-7.46894860267639
 30
0.75
 70
   192
  0
VERTEX
  5
E3
330
E1
100
AcDbEntity
  8
3D-S-COLS-ANLY
370
     9
100
AcDbVertex
100
AcDbPolyFaceMeshVertex
 10
0.46875
 20
-5.365395426750182
 30
0.75
 70
   192
  0
VERTEX
  5
E4
330
E1
100
AcDbEntity
  8
3D-S-COLS-ANLY
370
     9
100
AcDbVertex
100
AcDbPolyFaceMeshVertex
 10
-0.46875
 20
-5.365395426750182
 30
0.75
 70
   192
  0
VERTEX
  5
E5
330
E1
100
AcDbEntity
  8
3D-S-COLS-ANLY
370
     9
100
AcDbVertex
100
AcDbPolyFaceMeshVertex
 10
-0.46875
 20
-7.46894860267639
 30
0.75
 70
   192
  0
VERTEX
  5
E6
330
E1
100
AcDbEntity
  8
3D-S-COLS-ANLY
370
     9
100
AcDbFaceRecord
 10
0.0
 20
0.0
 30
0.0
 70
   128
 71
     1
 72
     2
 73
     3
 74
     4
  0
SEQEND
  5
E7
330
E1
100
AcDbEntity
  8
3D-S-COLS-ANLY
370
     9
  0
POLYLINE
  5
E8
330
7B
100
AcDbEntity
  8
3D-S-COLS-ANLY
370
     9
100
AcDbPolyFaceMesh
 66
     1
 10
0.0
 20
0.0
 30
0.0
 70
    64
 71
     4
 72
     1
1001
REVIT
1002
{
1070
     3
1000
155699
1002
}
  0
VERTEX
  5
E9
330
E8
100
AcDbEntity
  8
3D-S-COLS-ANLY
370
     9
100
AcDbVertex
100
AcDbPolyFaceMeshVertex
 10
0.46875
 20
-7.46894860267639
 30
0.000000000001245
 70
   192
  0
VERTEX
  5
EA
330
E8
100
AcDbEntity
  8
3D-S-COLS-ANLY
370
     9
100
AcDbVertex
100
AcDbPolyFaceMeshVertex
 10
0.46875
 20
-7.46894860267639
 30
0.75
 70
   192
  0
VERTEX
  5
EB
330
E8
100
AcDbEntity
  8
3D-S-COLS-ANLY
370
     9
100
AcDbVertex
100
AcDbPolyFaceMeshVertex
 10
-0.46875
 20
-7.46894860267639
 30
0.75
 70
   192
  0
VERTEX
  5
EC
330
E8
100
AcDbEntity
  8
3D-S-COLS-ANLY
370
     9
100
AcDbVertex
100
AcDbPolyFaceMeshVertex
 10
-0.46875
 20
-7.46894860267639
 30
0.000000000001245
 70
   192
  0
VERTEX
  5
ED
330
E8
100
AcDbEntity
  8
3D-S-COLS-ANLY
370
     9
100
AcDbFaceRecord
 10
0.0
 20
0.0
 30
0.0
 70
   128
 71
     1
 72
     2
 73
     3
 74
     4
  0
SEQEND
  5
EE
330
E8
100
AcDbEntity
  8
3D-S-COLS-ANLY
370
     9
  0
POLYLINE
  5
EF
330
7B
100
AcDbEntity
  8
3D-S-COLS-ANLY
370
     9
100
AcDbPolyFaceMesh
 66
     1
 10
0.0
 20
0.0
 30
0.0
 70
    64
 71
     4
 72
     1
1001
REVIT
1002
{
1070
     3
1000
155699
1002
}
  0
VERTEX
  5
F0
330
EF
100
AcDbEntity
  8
3D-S-COLS-ANLY
370
     9
100
AcDbVertex
100
AcDbPolyFaceMeshVertex
 10
0.46875
 20
7.531051397323607
 30
0.0000000000012733
 70
   192
  0
VERTEX
  5
F1
330
EF
100
AcDbEntity
  8
3D-S-COLS-ANLY
370
     9
100
AcDbVertex
100
AcDbPolyFaceMeshVertex
 10
0.46875
 20
-7.46894860267639
 30
0.000000000001245
 70
   192
  0
VERTEX
  5
F2
330
EF
100
AcDbEntity
  8
3D-S-COLS-ANLY
370
     9
100
AcDbVertex
100
AcDbPolyFaceMeshVertex
 10
-0.46875
 20
-7.46894860267639
 30
0.000000000001245
 70
   192
  0
VERTEX
  5
F3
330
EF
100
AcDbEntity
  8
3D-S-COLS-ANLY
370
     9
100
AcDbVertex
100
AcDbPolyFaceMeshVertex
 10
-0.46875
 20
7.531051397323607
 30
0.0000000000012733
 70
   192
  0
VERTEX
  5
F4
330
EF
100
AcDbEntity
  8
3D-S-COLS-ANLY
370
     9
100
AcDbFaceRecord
 10
0.0
 20
0.0
 30
0.0
 70
   128
 71
     1
 72
     2
 73
     3
 74
     4
  0
SEQEND
  5
F5
330
EF
100
AcDbEntity
  8
3D-S-COLS-ANLY
370
     9
  0
POLYLINE
  5
F6
330
7B
100
AcDbEntity
  8
3D-S-COLS-ANLY
370
     9
100
AcDbPolyFaceMesh
 66
     1
 10
0.0
 20
0.0
 30
0.0
 70
    64
 71
     4
 72
     1
1001
REVIT
1002
{
1070
     3
1000
155699
1002
}
  0
VERTEX
  5
F7
330
F6
100
AcDbEntity
  8
3D-S-COLS-ANLY
370
     9
100
AcDbVertex
100
AcDbPolyFaceMeshVertex
 10
0.46875
 20
7.531051397323607
 30
0.75
 70
   192
  0
VERTEX
  5
F8
330
F6
100
AcDbEntity
  8
3D-S-COLS-ANLY
370
     9
100
AcDbVertex
100
AcDbPolyFaceMeshVertex
 10
0.46875
 20
7.531051397323607
 30
0.0000000000012733
 70
   192
  0
VERTEX
  5
F9
330
F6
100
AcDbEntity
  8
3D-S-COLS-ANLY
370
     9
100
AcDbVertex
100
AcDbPolyFaceMeshVertex
 10
-0.46875
 20
7.531051397323607
 30
0.0000000000012733
 70
   192
  0
VERTEX
  5
FA
330
F6
100
AcDbEntity
  8
3D-S-COLS-ANLY
370
     9
100
AcDbVertex
100
AcDbPolyFaceMeshVertex
 10
-0.46875
 20
7.531051397323607
 30
0.75
 70
   192
  0
VERTEX
  5
FB
330
F6
100
AcDbEntity
  8
3D-S-COLS-ANLY
370
     9
100
AcDbFaceRecord
 10
0.0
 20
0.0
 30
0.0
 70
   128
 71
     1
 72
     2
 73
     3
 74
     4
  0
SEQEND
  5
FC
330
F6
100
AcDbEntity
  8
3D-S-COLS-ANLY
370
     9
  0
POLYLINE
  5
FD
330
7B
100
AcDbEntity
  8
3D-S-COLS-ANLY
370
     9
100
AcDbPolyFaceMesh
 66
     1
 10
0.0
 20
0.0
 30
0.0
 70
    64
 71
     4
 72
     1
1001
REVIT
1002
{
1070
     3
1000
155699
1002
}
  0
VERTEX
  5
FE
330
FD
100
AcDbEntity
  8
3D-S-COLS-ANLY
370
     9
100
AcDbVertex
100
AcDbPolyFaceMeshVertex
 10
0.46875
 20
5.42749786376953
 30
0.75
 70
   192
  0
VERTEX
  5
FF
330
FD
100
AcDbEntity
  8
3D-S-COLS-ANLY
370
     9
100
AcDbVertex
100
AcDbPolyFaceMeshVertex
 10
0.46875
 20
7.531051397323607
 30
0.75
 70
   192
  0
VERTEX
  5
100
330
FD
100
AcDbEntity
  8
3D-S-COLS-ANLY
370
     9
100
AcDbVertex
100
AcDbPolyFaceMeshVertex
 10
-0.46875
 20
7.531051397323607
 30
0.75
 70
   192
  0
VERTEX
  5
101
330
FD
100
AcDbEntity
  8
3D-S-COLS-ANLY
370
     9
100
AcDbVertex
100
AcDbPolyFaceMeshVertex
 10
-0.46875
 20
5.42749786376953
 30
0.75
 70
   192
  0
VERTEX
  5
102
330
FD
100
AcDbEntity
  8
3D-S-COLS-ANLY
370
     9
100
AcDbFaceRecord
 10
0.0
 20
0.0
 30
0.0
 70
   128
 71
     4
 72
     1
 73
     2
 74
     3
  0
SEQEND
  5
103
330
FD
100
AcDbEntity
  8
3D-S-COLS-ANLY
370
     9
  0
POLYLINE
  5
104
330
7B
100
AcDbEntity
  8
3D-S-COLS-ANLY
370
     9
100
AcDbPolyFaceMesh
 66
     1
 10
0.0
 20
0.0
 30
0.0
 70
    64
 71
     8
 72
     3
1001
REVIT
1002
{
1070
     3
1000
155699
1002
}
  0
VERTEX
  5
105
330
104
100
AcDbEntity
  8
3D-S-COLS-ANLY
370
     9
100
AcDbVertex
100
AcDbPolyFaceMeshVertex
 10
0.46875
 20
4.78471004962921
 30
0.9839555919170377
 70
   192
  0
VERTEX
  5
106
330
104
100
AcDbEntity
  8
3D-S-COLS-ANLY
370
     9
100
AcDbVertex
100
AcDbPolyFaceMeshVertex
 10
0.46875
 20
4.97869849205017
 30
0.8563673794269559
 70
   192
  0
VERTEX
  5
107
330
104
100
AcDbEntity
  8
3D-S-COLS-ANLY
370
     9
100
AcDbVertex
100
AcDbPolyFaceMeshVertex
 10
0.46875
 20
5.196881890296935
 30
0.7769551277160644
 70
   192
  0
VERTEX
  5
108
330
104
100
AcDbEntity
  8
3D-S-COLS-ANLY
370
     9
100
AcDbVertex
100
AcDbPolyFaceMeshVertex
 10
0.46875
 20
5.42749786376953
 30
0.75
 70
   192
  0
VERTEX
  5
109
330
104
100
AcDbEntity
  8
3D-S-COLS-ANLY
370
     9
100
AcDbVertex
100
AcDbPolyFaceMeshVertex
 10
-0.46875
 20
5.42749786376953
 30
0.75
 70
   192
  0
VERTEX
  5
10A
330
104
100
AcDbEntity
  8
3D-S-COLS-ANLY
370
     9
100
AcDbVertex
100
AcDbPolyFaceMeshVertex
 10
-0.46875
 20
5.196881890296935
 30
0.7769551277160644
 70
   192
  0
VERTEX
  5
10B
330
104
100
AcDbEntity
  8
3D-S-COLS-ANLY
370
     9
100
AcDbVertex
100
AcDbPolyFaceMeshVertex
 10
-0.46875
 20
4.97869849205017
 30
0.8563673794269559
 70
   192
  0
VERTEX
  5
10C
330
104
100
AcDbEntity
  8
3D-S-COLS-ANLY
370
     9
100
AcDbVertex
100
AcDbPolyFaceMeshVertex
 10
-0.46875
 20
4.78471004962921
 30
0.9839555919170377
 70
   192
  0
VERTEX
  5
10D
330
104
100
AcDbEntity
  8
3D-S-COLS-ANLY
370
     9
100
AcDbFaceRecord
 10
0.0
 20
0.0
 30
0.0
 70
   128
 71
    -6
 72
     3
 73
     4
 74
     5
  0
VERTEX
  5
10E
330
104
100
AcDbEntity
  8
3D-S-COLS-ANLY
370
     9
100
AcDbFaceRecord
 10
0.0
 20
0.0
 30
0.0
 70
   128
 71
    -3
 72
     6
 73
    -7
 74
     2
  0
VERTEX
  5
10F
330
104
100
AcDbEntity
  8
3D-S-COLS-ANLY
370
     9
100
AcDbFaceRecord
 10
0.0
 20
0.0
 30
0.0
 70
   128
 71
     8
 72
     1
 73
    -2
 74
     7
  0
SEQEND
  5
110
330
104
100
AcDbEntity
  8
3D-S-COLS-ANLY
370
     9
  0
POLYLINE
  5
111
330
7B
100
AcDbEntity
  8
3D-S-COLS-ANLY
370
     9
100
AcDbPolyFaceMesh
 66
     1
 10
0.0
 20
0.0
 30
0.0
 70
    64
 71
     4
 72
     1
1001
REVIT
1002
{
1070
     3
1000
155699
1002
}
  0
VERTEX
  5
112
330
111
100
AcDbEntity
  8
3D-S-COLS-ANLY
370
     9
100
AcDbVertex
100
AcDbPolyFaceMeshVertex
 10
0.46875
 20
2.501257359981536
 30
2.899999916553496
 70
   192
  0
VERTEX
  5
113
330
111
100
AcDbEntity
  8
3D-S-COLS-ANLY
370
     9
100
AcDbVertex
100
AcDbPolyFaceMeshVertex
 10
0.46875
 20
4.78471004962921
 30
0.9839555919170377
 70
   192
  0
VERTEX
  5
114
330
111
100
AcDbEntity
  8
3D-S-COLS-ANLY
370
     9
100
AcDbVertex
100
AcDbPolyFaceMeshVertex
 10
-0.46875
 20
4.78471004962921
 30
0.9839555919170377
 70
   192
  0
VERTEX
  5
115
330
111
100
AcDbEntity
  8
3D-S-COLS-ANLY
370
     9
100
AcDbVertex
100
AcDbPolyFaceMeshVertex
 10
-0.46875
 20
2.501257359981536
 30
2.899999916553496
 70
   192
  0
VERTEX
  5
116
330
111
100
AcDbEntity
  8
3D-S-COLS-ANLY
370
     9
100
AcDbFaceRecord
 10
0.0
 20
0.0
 30
0.0
 70
   128
 71
     4
 72
     1
 73
     2
 74
     3
  0
SEQEND
  5
117
330
111
100
AcDbEntity
  8
3D-S-COLS-ANLY
370
     9
  0
POLYLINE
  5
118
330
7B
100
AcDbEntity
  8
3D-S-COLS-ANLY
370
     9
100
AcDbPolyFaceMesh
 66
     1
 10
0.0
 20
0.0
 30
0.0
 70
    64
 71
     4
 72
     1
1001
REVIT
1002
{
1070
     3
1000
155699
1002
}
  0
VERTEX
  5
119
330
118
100
AcDbEntity
  8
3D-S-COLS-ANLY
370
     9
100
AcDbVertex
100
AcDbPolyFaceMeshVertex
 10
0.46875
 20
-2.439154922962188
 30
2.899999916553496
 70
   192
  0
VERTEX
  5
11A
330
118
100
AcDbEntity
  8
3D-S-COLS-ANLY
370
     9
100
AcDbVertex
100
AcDbPolyFaceMeshVertex
 10
0.46875
 20
2.501257359981536
 30
2.899999916553496
 70
   192
  0
VERTEX
  5
11B
330
118
100
AcDbEntity
  8
3D-S-COLS-ANLY
370
     9
100
AcDbVertex
100
AcDbPolyFaceMeshVertex
 10
-0.46875
 20
2.501257359981536
 30
2.899999916553496
 70
   192
  0
VERTEX
  5
11C
330
118
100
AcDbEntity
  8
3D-S-COLS-ANLY
370
     9
100
AcDbVertex
100
AcDbPolyFaceMeshVertex
 10
-0.46875
 20
-2.439154922962188
 30
2.899999916553496
 70
   192
  0
VERTEX
  5
11D
330
118
100
AcDbEntity
  8
3D-S-COLS-ANLY
370
     9
100
AcDbFaceRecord
 10
0.0
 20
0.0
 30
0.0
 70
   128
 71
     1
 72
     2
 73
     3
 74
     4
  0
SEQEND
  5
11E
330
118
100
AcDbEntity
  8
3D-S-COLS-ANLY
370
     9
  0
POLYLINE
  5
11F
330
7B
100
AcDbEntity
  8
3D-S-COLS-ANLY
370
     9
100
AcDbPolyFaceMesh
 66
     1
 10
0.0
 20
0.0
 30
0.0
 70
    64
 71
     4
 72
     1
1001
REVIT
1002
{
1070
     3
1000
155699
1002
}
  0
VERTEX
  5
120
330
11F
100
AcDbEntity
  8
3D-S-COLS-ANLY
370
     9
100
AcDbVertex
100
AcDbPolyFaceMeshVertex
 10
0.46875
 20
-4.722607970237731
 30
0.9839555919170377
 70
   192
  0
VERTEX
  5
121
330
11F
100
AcDbEntity
  8
3D-S-COLS-ANLY
370
     9
100
AcDbVertex
100
AcDbPolyFaceMeshVertex
 10
0.46875
 20
-2.439154922962188
 30
2.899999916553496
 70
   192
  0
VERTEX
  5
122
330
11F
100
AcDbEntity
  8
3D-S-COLS-ANLY
370
     9
100
AcDbVertex
100
AcDbPolyFaceMeshVertex
 10
-0.46875
 20
-2.439154922962188
 30
2.899999916553496
 70
   192
  0
VERTEX
  5
123
330
11F
100
AcDbEntity
  8
3D-S-COLS-ANLY
370
     9
100
AcDbVertex
100
AcDbPolyFaceMeshVertex
 10
-0.46875
 20
-4.722607970237731
 30
0.9839555919170377
 70
   192
  0
VERTEX
  5
124
330
11F
100
AcDbEntity
  8
3D-S-COLS-ANLY
370
     9
100
AcDbFaceRecord
 10
0.0
 20
0.0
 30
0.0
 70
   128
 71
     4
 72
     1
 73
     2
 74
     3
  0
SEQEND
  5
125
330
11F
100
AcDbEntity
  8
3D-S-COLS-ANLY
370
     9
  0
ENDBLK
  5
127
330
7B
100
AcDbEntity
  8
0
100
AcDbBlockEnd
  0
BLOCK
  5
16B
330
140
100
AcDbEntity
  8
0
100
AcDbBlockBegin
  2
Blade-Kawneer-Square - Versoleil-153009-Preview
 70
     0
 10
0.0
 20
0.0
 30
0.0
  3
Blade-Kawneer-Square - Versoleil-153009-Preview
  1

  0
POLYLINE
  5
141
330
140
100
AcDbEntity
  8
3D-GENM
370
     9
100
AcDbPolyFaceMesh
 66
     1
 10
0.0
 20
0.0
 30
0.0
 70
    64
 71
     4
 72
     1
1001
REVIT
1002
{
1070
     3
1000
103689
1002
}
  0
VERTEX
  5
142
330
141
100
AcDbEntity
  8
3D-GENM
370
     9
100
AcDbVertex
100
AcDbPolyFaceMeshVertex
 10
30.0
 20
-1.249999970197677
 30
2.499999940395354
 70
   192
  0
VERTEX
  5
143
330
141
100
AcDbEntity
  8
3D-GENM
370
     9
100
AcDbVertex
100
AcDbPolyFaceMeshVertex
 10
30.0
 20
-1.249999970197677
 30
-0.0000000000000826
 70
   192
  0
VERTEX
  5
144
330
141
100
AcDbEntity
  8
3D-GENM
370
     9
100
AcDbVertex
100
AcDbPolyFaceMeshVertex
 10
30.0
 20
1.249999970197677
 30
-0.0000000000000799
 70
   192
  0
VERTEX
  5
145
330
141
100
AcDbEntity
  8
3D-GENM
370
     9
100
AcDbVertex
100
AcDbPolyFaceMeshVertex
 10
30.0
 20
1.249999970197677
 30
2.499999940395354
 70
   192
  0
VERTEX
  5
146
330
141
100
AcDbEntity
  8
3D-GENM
370
     9
100
AcDbFaceRecord
 10
0.0
 20
0.0
 30
0.0
 70
   128
 71
     3
 72
     4
 73
     1
 74
     2
  0
SEQEND
  5
147
330
141
100
AcDbEntity
  8
3D-GENM
370
     9
  0
POLYLINE
  5
148
330
140
100
AcDbEntity
  8
3D-GENM
370
     9
100
AcDbPolyFaceMesh
 66
     1
 10
0.0
 20
0.0
 30
0.0
 70
    64
 71
     4
 72
     1
1001
REVIT
1002
{
1070
     3
1000
103689
1002
}
  0
VERTEX
  5
149
330
148
100
AcDbEntity
  8
3D-GENM
370
     9
100
AcDbVertex
100
AcDbPolyFaceMeshVertex
 10
-30.0
 20
-1.249999970197677
 30
-0.0000000000000826
 70
   192
  0
VERTEX
  5
14A
330
148
100
AcDbEntity
  8
3D-GENM
370
     9
100
AcDbVertex
100
AcDbPolyFaceMeshVertex
 10
-30.0
 20
-1.249999970197677
 30
2.499999940395354
 70
   192
  0
VERTEX
  5
14B
330
148
100
AcDbEntity
  8
3D-GENM
370
     9
100
AcDbVertex
100
AcDbPolyFaceMeshVertex
 10
-30.0
 20
1.249999970197677
 30
2.499999940395354
 70
   192
  0
VERTEX
  5
14C
330
148
100
AcDbEntity
  8
3D-GENM
370
     9
100
AcDbVertex
100
AcDbPolyFaceMeshVertex
 10
-30.0
 20
1.249999970197677
 30
-0.0000000000000799
 70
   192
  0
VERTEX
  5
14D
330
148
100
AcDbEntity
  8
3D-GENM
370
     9
100
AcDbFaceRecord
 10
0.0
 20
0.0
 30
0.0
 70
   128
 71
     2
 72
     3
 73
     4
 74
     1
  0
SEQEND
  5
14E
330
148
100
AcDbEntity
  8
3D-GENM
370
     9
  0
POLYLINE
  5
14F
330
140
100
AcDbEntity
  8
3D-GENM
370
     9
100
AcDbPolyFaceMesh
 66
     1
 10
0.0
 20
0.0
 30
0.0
 70
    64
 71
     4
 72
     1
1001
REVIT
1002
{
1070
     3
1000
103689
1002
}
  0
VERTEX
  5
150
330
14F
100
AcDbEntity
  8
3D-GENM
370
     9
100
AcDbVertex
100
AcDbPolyFaceMeshVertex
 10
30.0
 20
-1.249999970197677
 30
2.499999940395354
 70
   192
  0
VERTEX
  5
151
330
14F
100
AcDbEntity
  8
3D-GENM
370
     9
100
AcDbVertex
100
AcDbPolyFaceMeshVertex
 10
-30.0
 20
-1.249999970197677
 30
2.499999940395354
 70
   192
  0
VERTEX
  5
152
330
14F
100
AcDbEntity
  8
3D-GENM
370
     9
100
AcDbVertex
100
AcDbPolyFaceMeshVertex
 10
-30.0
 20
-1.249999970197677
 30
-0.0000000000000821
 70
   192
  0
VERTEX
  5
153
330
14F
100
AcDbEntity
  8
3D-GENM
370
     9
100
AcDbVertex
100
AcDbPolyFaceMeshVertex
 10
30.0
 20
-1.249999970197677
 30
-0.0000000000000821
 70
   192
  0
VERTEX
  5
154
330
14F
100
AcDbEntity
  8
3D-GENM
370
     9
100
AcDbFaceRecord
 10
0.0
 20
0.0
 30
0.0
 70
   128
 71
     3
 72
     4
 73
     1
 74
     2
  0
SEQEND
  5
155
330
14F
100
AcDbEntity
  8
3D-GENM
370
     9
  0
POLYLINE
  5
156
330
140
100
AcDbEntity
  8
3D-GENM
370
     9
100
AcDbPolyFaceMesh
 66
     1
 10
0.0
 20
0.0
 30
0.0
 70
    64
 71
     4
 72
     1
1001
REVIT
1002
{
1070
     3
1000
103689
1002
}
  0
VERTEX
  5
157
330
156
100
AcDbEntity
  8
3D-GENM
370
     9
100
AcDbVertex
100
AcDbPolyFaceMeshVertex
 10
30.0
 20
1.249999970197677
 30
-0.0000000000000803
 70
   192
  0
VERTEX
  5
158
330
156
100
AcDbEntity
  8
3D-GENM
370
     9
100
AcDbVertex
100
AcDbPolyFaceMeshVertex
 10
30.0
 20
-1.249999970197677
 30
-0.0000000000000821
 70
   192
  0
VERTEX
  5
159
330
156
100
AcDbEntity
  8
3D-GENM
370
     9
100
AcDbVertex
100
AcDbPolyFaceMeshVertex
 10
-30.0
 20
-1.249999970197677
 30
-0.0000000000000821
 70
   192
  0
VERTEX
  5
15A
330
156
100
AcDbEntity
  8
3D-GENM
370
     9
100
AcDbVertex
100
AcDbPolyFaceMeshVertex
 10
-30.0
 20
1.249999970197677
 30
-0.0000000000000803
 70
   192
  0
VERTEX
  5
15B
330
156
100
AcDbEntity
  8
3D-GENM
370
     9
100
AcDbFaceRecord
 10
0.0
 20
0.0
 30
0.0
 70
   128
 71
     1
 72
     2
 73
     3
 74
     4
  0
SEQEND
  5
15C
330
156
100
AcDbEntity
  8
3D-GENM
370
     9
  0
POLYLINE
  5
15D
330
140
100
AcDbEntity
  8
3D-GENM
370
     9
100
AcDbPolyFaceMesh
 66
     1
 10
0.0
 20
0.0
 30
0.0
 70
    64
 71
     4
 72
     1
1001
REVIT
1002
{
1070
     3
1000
103689
1002
}
  0
VERTEX
  5
15E
330
15D
100
AcDbEntity
  8
3D-GENM
370
     9
100
AcDbVertex
100
AcDbPolyFaceMeshVertex
 10
30.0
 20
1.249999970197677
 30
-0.0000000000000803
 70
   192
  0
VERTEX
  5
15F
330
15D
100
AcDbEntity
  8
3D-GENM
370
     9
100
AcDbVertex
100
AcDbPolyFaceMeshVertex
 10
-30.0
 20
1.249999970197677
 30
-0.0000000000000803
 70
   192
  0
VERTEX
  5
160
330
15D
100
AcDbEntity
  8
3D-GENM
370
     9
100
AcDbVertex
100
AcDbPolyFaceMeshVertex
 10
-30.0
 20
1.249999970197677
 30
2.499999940395354
 70
   192
  0
VERTEX
  5
161
330
15D
100
AcDbEntity
  8
3D-GENM
370
     9
100
AcDbVertex
100
AcDbPolyFaceMeshVertex
 10
30.0
 20
1.249999970197677
 30
2.499999940395354
 70
   192
  0
VERTEX
  5
162
330
15D
100
AcDbEntity
  8
3D-GENM
370
     9
100
AcDbFaceRecord
 10
0.0
 20
0.0
 30
0.0
 70
   128
 71
     4
 72
     1
 73
     2
 74
     3
  0
SEQEND
  5
163
330
15D
100
AcDbEntity
  8
3D-GENM
370
     9
  0
POLYLINE
  5
164
330
140
100
AcDbEntity
  8
3D-GENM
370
     9
100
AcDbPolyFaceMesh
 66
     1
 10
0.0
 20
0.0
 30
0.0
 70
    64
 71
     4
 72
     1
1001
REVIT
1002
{
1070
     3
1000
103689
1002
}
  0
VERTEX
  5
165
330
164
100
AcDbEntity
  8
3D-GENM
370
     9
100
AcDbVertex
100
AcDbPolyFaceMeshVertex
 10
30.0
 20
-1.249999970197677
 30
2.499999940395354
 70
   192
  0
VERTEX
  5
166
330
164
100
AcDbEntity
  8
3D-GENM
370
     9
100
AcDbVertex
100
AcDbPolyFaceMeshVertex
 10
30.0
 20
1.249999970197677
 30
2.499999940395354
 70
   192
  0
VERTEX
  5
167
330
164
100
AcDbEntity
  8
3D-GENM
370
     9
100
AcDbVertex
100
AcDbPolyFaceMeshVertex
 10
-30.0
 20
1.249999970197677
 30
2.499999940395354
 70
   192
  0
VERTEX
  5
168
330
164
100
AcDbEntity
  8
3D-GENM
370
     9
100
AcDbVertex
100
AcDbPolyFaceMeshVertex
 10
-30.0
 20
-1.249999970197677
 30
2.499999940395354
 70
   192
  0
VERTEX
  5
169
330
164
100
AcDbEntity
  8
3D-GENM
370
     9
100
AcDbFaceRecord
 10
0.0
 20
0.0
 30
0.0
 70
   128
 71
     1
 72
     2
 73
     3
 74
     4
  0
SEQEND
  5
16A
330
164
100
AcDbEntity
  8
3D-GENM
370
     9
  0
ENDBLK
  5
16C
330
140
100
AcDbEntity
  8
0
100
AcDbBlockEnd
  0
BLOCK
  5
19E
330
16F
100
AcDbEntity
  8
0
100
AcDbBlockBegin
  2
Fascia-Kawneer-Rectangular - Versoleil-156651-Preview
 70
     0
 10
0.0
 20
0.0
 30
0.0
  3
Fascia-Kawneer-Rectangular - Versoleil-156651-Preview
  1

  0
POLYLINE
  5
170
330
16F
100
AcDbEntity
  8
3D-S-BEAM
370
     9
100
AcDbPolyFaceMesh
 66
     1
 10
0.0
 20
0.0
 30
0.0
 70
    64
 71
     4
 72
     1
1001
REVIT
1002
{
1070
     3
1000
141087
1002
}
  0
VERTEX
  5
171
330
170
100
AcDbEntity
  8
3D-S-BEAM
370
     9
100
AcDbVertex
100
AcDbPolyFaceMeshVertex
 10
30.0
 20
-2.499999940395354
 30
0.000000000001231
 70
   192
  0
VERTEX
  5
172
330
170
100
AcDbEntity
  8
3D-S-BEAM
370
     9
100
AcDbVertex
100
AcDbPolyFaceMeshVertex
 10
30.0
 20
2.499999940395354
 30
0.0000000000012363
 70
   192
  0
VERTEX
  5
173
330
170
100
AcDbEntity
  8
3D-S-BEAM
370
     9
100
AcDbVertex
100
AcDbPolyFaceMeshVertex
 10
30.0
 20
2.499999940395354
 30
2.501808285713195
 70
   192
  0
VERTEX
  5
174
330
170
100
AcDbEntity
  8
3D-S-BEAM
370
     9
100
AcDbVertex
100
AcDbPolyFaceMeshVertex
 10
30.0
 20
-2.499999940395354
 30
2.501808285713195
 70
   192
  0
VERTEX
  5
175
330
170
100
AcDbEntity
  8
3D-S-BEAM
370
     9
100
AcDbFaceRecord
 10
0.0
 20
0.0
 30
0.0
 70
   128
 71
     2
 72
     3
 73
     4
 74
     1
  0
SEQEND
  5
176
330
170
100
AcDbEntity
  8
3D-S-BEAM
370
     9
  0
POLYLINE
  5
177
330
16F
100
AcDbEntity
  8
3D-S-BEAM
370
     9
100
AcDbPolyFaceMesh
 66
     1
 10
0.0
 20
0.0
 30
0.0
 70
    64
 71
     4
 72
     1
1001
REVIT
1002
{
1070
     3
1000
141087
1002
}
  0
VERTEX
  5
178
330
177
100
AcDbEntity
  8
3D-S-BEAM
370
     9
100
AcDbVertex
100
AcDbPolyFaceMeshVertex
 10
-30.0
 20
-2.499999940395354
 30
0.0000000000012363
 70
   192
  0
VERTEX
  5
179
330
177
100
AcDbEntity
  8
3D-S-BEAM
370
     9
100
AcDbVertex
100
AcDbPolyFaceMeshVertex
 10
-30.0
 20
-2.499999940395354
 30
2.501808285713195
 70
   192
  0
VERTEX
  5
17A
330
177
100
AcDbEntity
  8
3D-S-BEAM
370
     9
100
AcDbVertex
100
AcDbPolyFaceMeshVertex
 10
-30.0
 20
2.499999940395354
 30
2.501808285713195
 70
   192
  0
VERTEX
  5
17B
330
177
100
AcDbEntity
  8
3D-S-BEAM
370
     9
100
AcDbVertex
100
AcDbPolyFaceMeshVertex
 10
-30.0
 20
2.499999940395354
 30
0.0000000000012403
 70
   192
  0
VERTEX
  5
17C
330
177
100
AcDbEntity
  8
3D-S-BEAM
370
     9
100
AcDbFaceRecord
 10
0.0
 20
0.0
 30
0.0
 70
   128
 71
     2
 72
     3
 73
     4
 74
     1
  0
SEQEND
  5
17D
330
177
100
AcDbEntity
  8
3D-S-BEAM
370
     9
  0
POLYLINE
  5
17E
330
16F
100
AcDbEntity
  8
3D-S-BEAM
370
     9
100
AcDbPolyFaceMesh
 66
     1
 10
0.0
 20
0.0
 30
0.0
 70
    64
 71
     4
 72
     1
1001
REVIT
1002
{
1070
     3
1000
141087
1002
}
  0
VERTEX
  5
17F
330
17E
100
AcDbEntity
  8
3D-S-BEAM
370
     9
100
AcDbVertex
100
AcDbPolyFaceMeshVertex
 10
30.0
 20
2.499999940395354
 30
0.0000000000012406
 70
   192
  0
VERTEX
  5
180
330
17E
100
AcDbEntity
  8
3D-S-BEAM
370
     9
100
AcDbVertex
100
AcDbPolyFaceMeshVertex
 10
30.0
 20
-2.499999940395354
 30
0.0000000000012312
 70
   192
  0
VERTEX
  5
181
330
17E
100
AcDbEntity
  8
3D-S-BEAM
370
     9
100
AcDbVertex
100
AcDbPolyFaceMeshVertex
 10
-30.0
 20
-2.499999940395354
 30
0.0000000000012312
 70
   192
  0
VERTEX
  5
182
330
17E
100
AcDbEntity
  8
3D-S-BEAM
370
     9
100
AcDbVertex
100
AcDbPolyFaceMeshVertex
 10
-30.0
 20
2.499999940395354
 30
0.0000000000012406
 70
   192
  0
VERTEX
  5
183
330
17E
100
AcDbEntity
  8
3D-S-BEAM
370
     9
100
AcDbFaceRecord
 10
0.0
 20
0.0
 30
0.0
 70
   128
 71
     4
 72
     1
 73
     2
 74
     3
  0
SEQEND
  5
184
330
17E
100
AcDbEntity
  8
3D-S-BEAM
370
     9
  0
POLYLINE
  5
185
330
16F
100
AcDbEntity
  8
3D-S-BEAM
370
     9
100
AcDbPolyFaceMesh
 66
     1
 10
0.0
 20
0.0
 30
0.0
 70
    64
 71
     4
 72
     1
1001
REVIT
1002
{
1070
     3
1000
141087
1002
}
  0
VERTEX
  5
186
330
185
100
AcDbEntity
  8
3D-S-BEAM
370
     9
100
AcDbVertex
100
AcDbPolyFaceMeshVertex
 10
30.0
 20
2.499999940395354
 30
2.501808285713195
 70
   192
  0
VERTEX
  5
187
330
185
100
AcDbEntity
  8
3D-S-BEAM
370
     9
100
AcDbVertex
100
AcDbPolyFaceMeshVertex
 10
30.0
 20
2.499999940395354
 30
0.0000000000012363
 70
   192
  0
VERTEX
  5
188
330
185
100
AcDbEntity
  8
3D-S-BEAM
370
     9
100
AcDbVertex
100
AcDbPolyFaceMeshVertex
 10
-30.0
 20
2.499999940395354
 30
0.0000000000012363
 70
   192
  0
VERTEX
  5
189
330
185
100
AcDbEntity
  8
3D-S-BEAM
370
     9
100
AcDbVertex
100
AcDbPolyFaceMeshVertex
 10
-30.0
 20
2.499999940395354
 30
2.501808285713195
 70
   192
  0
VERTEX
  5
18A
330
185
100
AcDbEntity
  8
3D-S-BEAM
370
     9
100
AcDbFaceRecord
 10
0.0
 20
0.0
 30
0.0
 70
   128
 71
     1
 72
     2
 73
     3
 74
     4
  0
SEQEND
  5
18B
330
185
100
AcDbEntity
  8
3D-S-BEAM
370
     9
  0
POLYLINE
  5
18C
330
16F
100
AcDbEntity
  8
3D-S-BEAM
370
     9
100
AcDbPolyFaceMesh
 66
     1
 10
0.0
 20
0.0
 30
0.0
 70
    64
 71
     4
 72
     1
1001
REVIT
1002
{
1070
     3
1000
141087
1002
}
  0
VERTEX
  5
18D
330
18C
100
AcDbEntity
  8
3D-S-BEAM
370
     9
100
AcDbVertex
100
AcDbPolyFaceMeshVertex
 10
30.0
 20
-2.499999940395354
 30
2.501808285713195
 70
   192
  0
VERTEX
  5
18E
330
18C
100
AcDbEntity
  8
3D-S-BEAM
370
     9
100
AcDbVertex
100
AcDbPolyFaceMeshVertex
 10
30.0
 20
2.499999940395354
 30
2.501808285713195
 70
   192
  0
VERTEX
  5
18F
330
18C
100
AcDbEntity
  8
3D-S-BEAM
370
     9
100
AcDbVertex
100
AcDbPolyFaceMeshVertex
 10
-30.0
 20
2.499999940395354
 30
2.501808285713195
 70
   192
  0
VERTEX
  5
190
330
18C
100
AcDbEntity
  8
3D-S-BEAM
370
     9
100
AcDbVertex
100
AcDbPolyFaceMeshVertex
 10
-30.0
 20
-2.499999940395354
 30
2.501808285713195
 70
   192
  0
VERTEX
  5
191
330
18C
100
AcDbEntity
  8
3D-S-BEAM
370
     9
100
AcDbFaceRecord
 10
0.0
 20
0.0
 30
0.0
 70
   128
 71
     4
 72
     1
 73
     2
 74
     3
  0
SEQEND
  5
192
330
18C
100
AcDbEntity
  8
3D-S-BEAM
370
     9
  0
POLYLINE
  5
193
330
16F
100
AcDbEntity
  8
3D-S-BEAM
370
     9
100
AcDbPolyFaceMesh
 66
     1
 10
0.0
 20
0.0
 30
0.0
 70
    64
 71
     4
 72
     1
1001
REVIT
1002
{
1070
     3
1000
141087
1002
}
  0
VERTEX
  5
194
330
193
100
AcDbEntity
  8
3D-S-BEAM
370
     9
100
AcDbVertex
100
AcDbPolyFaceMeshVertex
 10
30.0
 20
-2.499999940395354
 30
0.0000000000012363
 70
   192
  0
VERTEX
  5
195
330
193
100
AcDbEntity
  8
3D-S-BEAM
370
     9
100
AcDbVertex
100
AcDbPolyFaceMeshVertex
 10
30.0
 20
-2.499999940395354
 30
2.501808285713195
 70
   192
  0
VERTEX
  5
196
330
193
100
AcDbEntity
  8
3D-S-BEAM
370
     9
100
AcDbVertex
100
AcDbPolyFaceMeshVertex
 10
-30.0
 20
-2.499999940395354
 30
2.501808285713195
 70
   192
  0
VERTEX
  5
197
330
193
100
AcDbEntity
  8
3D-S-BEAM
370
     9
100
AcDbVertex
100
AcDbPolyFaceMeshVertex
 10
-30.0
 20
-2.499999940395354
 30
0.000000000001231
 70
   192
  0
VERTEX
  5
198
330
193
100
AcDbEntity
  8
3D-S-BEAM
370
     9
100
AcDbFaceRecord
 10
0.0
 20
0.0
 30
0.0
 70
   128
 71
     1
 72
     2
 73
     3
 74
     4
  0
SEQEND
  5
199
330
193
100
AcDbEntity
  8
3D-S-BEAM
370
     9
  0
LINE
  5
19A
330
16F
100
AcDbEntity
  8
3D-GENM
370
     9
100
AcDbLine
 10
-30.00000000000004
 20
2.499999999909515
 30
2.501808294565566
 11
-30.00000000000004
 21
2.499999999909515
 31
0.0000000000017936
1001
REVIT
1002
{
1070
     3
1000
107041
1002
}
  0
LINE
  5
19B
330
16F
100
AcDbEntity
  8
3D-GENM
370
     9
100
AcDbLine
 10
-30.00000000000004
 20
2.499999999909515
 30
0.0000000000017936
 11
30.00000000000014
 21
2.499999999909707
 31
0.0000000000017936
1001
REVIT
1002
{
1070
     3
1000
107041
1002
}
  0
LINE
  5
19C
330
16F
100
AcDbEntity
  8
3D-GENM
370
     9
100
AcDbLine
 10
30.00000000000014
 20
2.499999999909707
 30
0.0000000000017936
 11
30.00000000000014
 21
2.499999999909707
 31
2.501808294565566
1001
REVIT
1002
{
1070
     3
1000
107041
1002
}
  0
LINE
  5
19D
330
16F
100
AcDbEntity
  8
3D-GENM
370
     9
100
AcDbLine
 10
30.00000000000014
 20
2.499999999909707
 30
2.501808294565566
 11
-30.00000000000004
 21
2.499999999909515
 31
2.501808294565566
1001
REVIT
1002
{
1070
     3
1000
107041
1002
}
  0
ENDBLK
  5
19F
330
16F
100
AcDbEntity
  8
0
100
AcDbBlockEnd
  0
ENDSEC
  0
SECTION
  2
ENTITIES
  0
INSERT
  5
128
330
6C
100
AcDbEntity
  8
3D-S-COLS-ANLY
370
     9
100
AcDbBlockReference
  2
Outrigger-Kawneer-Square - 5_-142066-Preview
 10
-27.16103165118266
 20
0.0
 30
-0.7812500000005184
1001
REVIT
1002
{
1070
     1
1000
9383
1002
}
1002
{
1070
     5
1000
142066
1002
}
1002
{
1070
     4
1000
97641
1002
}
1002
{
1070
     2
1000
-2009030
1002
}
  0
INSERT
  5
129
330
6C
100
AcDbEntity
  8
3D-S-COLS-ANLY
370
     9
100
AcDbBlockReference
  2
Outrigger-Kawneer-Square - 5_-142066-Preview
 10
33.77646834880447
 20
0.0
 30
-0.7812500000005184
1001
REVIT
1002
{
1070
     1
1000
17865
1002
}
1002
{
1070
     5
1000
142066
1002
}
1002
{
1070
     4
1000
97641
1002
}
1002
{
1070
     2
1000
-2009030
1002
}
  0
INSERT
  5
12A
330
6C
100
AcDbEntity
  8
3D-S-COLS-ANLY
370
     9
100
AcDbBlockReference
  2
Outrigger-Kawneer-Square - 5_-142066-Preview
 10
-27.1610316511823
 20
0.0
 30
-0.7812500000005184
1001
REVIT
1002
{
1070
     1
1000
20682
1002
}
1002
{
1070
     5
1000
142066
1002
}
1002
{
1070
     4
1000
97641
1002
}
1002
{
1070
     2
1000
-2009030
1002
}
  0
INSERT
  5
12B
330
6C
100
AcDbEntity
  8
3D-S-COLS-ANLY
370
     9
100
AcDbBlockReference
  2
Outrigger-Kawneer-Square - 5_-142066-Preview
 10
-27.16103165118238
 20
0.0
 30
-0.7812500000005184
1001
REVIT
1002
{
1070
     1
1000
20692
1002
}
1002
{
1070
     5
1000
142066
1002
}
1002
{
1070
     4
1000
97641
1002
}
1002
{
1070
     2
1000
-2009030
1002
}
  0
INSERT
  5
12C
330
6C
100
AcDbEntity
  8
3D-S-COLS-ANLY
370
     9
100
AcDbBlockReference
  2
Outrigger-Kawneer-Square - 5_-142066-Preview
 10
-27.16103165118238
 20
0.0
 30
-0.7812500000005184
1001
REVIT
1002
{
1070
     1
1000
20702
1002
}
1002
{
1070
     5
1000
142066
1002
}
1002
{
1070
     4
1000
97641
1002
}
1002
{
1070
     2
1000
-2009030
1002
}
  0
INSERT
  5
12D
330
6C
100
AcDbEntity
  8
3D-S-COLS-ANLY
370
     9
100
AcDbBlockReference
  2
Outrigger-Kawneer-Square - 5_-142066-Preview
 10
-27.16103165118221
 20
0.0
 30
-0.7812500000005184
1001
REVIT
1002
{
1070
     1
1000
20712
1002
}
1002
{
1070
     5
1000
142066
1002
}
1002
{
1070
     4
1000
97641
1002
}
1002
{
1070
     2
1000
-2009030
1002
}
  0
INSERT
  5
12E
330
6C
100
AcDbEntity
  8
3D-S-COLS-ANLY
370
     9
100
AcDbBlockReference
  2
Outrigger-Kawneer-Square - 5_-142066-Preview
 10
-27.16103165118204
 20
0.0
 30
-0.7812500000005184
1001
REVIT
1002
{
1070
     1
1000
20722
1002
}
1002
{
1070
     5
1000
142066
1002
}
1002
{
1070
     4
1000
97641
1002
}
1002
{
1070
     2
1000
-2009030
1002
}
  0
INSERT
  5
12F
330
6C
100
AcDbEntity
  8
3D-S-COLS-ANLY
370
     9
100
AcDbBlockReference
  2
Outrigger-Kawneer-Square - 5_-142066-Preview
 10
-27.16103165118213
 20
0.0
 30
-0.7812500000005184
1001
REVIT
1002
{
1070
     1
1000
20734
1002
}
1002
{
1070
     5
1000
142066
1002
}
1002
{
1070
     4
1000
97641
1002
}
1002
{
1070
     2
1000
-2009030
1002
}
  0
INSERT
  5
130
330
6C
100
AcDbEntity
  8
3D-S-COLS-ANLY
370
     9
100
AcDbBlockReference
  2
Outrigger-Kawneer-Square - 5_-142066-Preview
 10
-27.16103165118213
 20
0.0
 30
-0.7812500000005184
1001
REVIT
1002
{
1070
     1
1000
20744
1002
}
1002
{
1070
     5
1000
142066
1002
}
1002
{
1070
     4
1000
97641
1002
}
1002
{
1070
     2
1000
-2009030
1002
}
  0
INSERT
  5
131
330
6C
100
AcDbEntity
  8
3D-S-COLS-ANLY
370
     9
100
AcDbBlockReference
  2
Outrigger-Kawneer-Square - 5_-142066-Preview
 10
-27.16103165118097
 20
0.0
 30
-0.7812500000005184
1001
REVIT
1002
{
1070
     1
1000
20752
1002
}
1002
{
1070
     5
1000
142066
1002
}
1002
{
1070
     4
1000
97641
1002
}
1002
{
1070
     2
1000
-2009030
1002
}
  0
INSERT
  5
132
330
6C
100
AcDbEntity
  8
3D-S-COLS-ANLY
370
     9
100
AcDbBlockReference
  2
Outrigger-Kawneer-Square - 5_-142066-Preview
 10
-27.16103165118046
 20
0.0
 30
-0.7812500000005184
1001
REVIT
1002
{
1070
     1
1000
20762
1002
}
1002
{
1070
     5
1000
142066
1002
}
1002
{
1070
     4
1000
97641
1002
}
1002
{
1070
     2
1000
-2009030
1002
}
  0
INSERT
  5
133
330
6C
100
AcDbEntity
  8
3D-S-COLS-ANLY
370
     9
100
AcDbBlockReference
  2
Outrigger-Kawneer-Square - 5_-142066-Preview
 10
-27.16103165118008
 20
0.0
 30
-0.7812500000005184
1001
REVIT
1002
{
1070
     1
1000
20772
1002
}
1002
{
1070
     5
1000
142066
1002
}
1002
{
1070
     4
1000
97641
1002
}
1002
{
1070
     2
1000
-2009030
1002
}
  0
INSERT
  5
134
330
6C
100
AcDbEntity
  8
3D-S-COLS-ANLY
370
     9
100
AcDbBlockReference
  2
Outrigger-Kawneer-Square - 5_-142066-Preview
 10
-27.16103165117944
 20
0.0
 30
-0.7812500000005184
1001
REVIT
1002
{
1070
     1
1000
20782
1002
}
1002
{
1070
     5
1000
142066
1002
}
1002
{
1070
     4
1000
97641
1002
}
1002
{
1070
     2
1000
-2009030
1002
}
  0
INSERT
  5
135
330
6C
100
AcDbEntity
  8
3D-S-COLS-ANLY
370
     9
100
AcDbBlockReference
  2
Outrigger-Kawneer-Square - 5_-142066-Preview
 10
-27.16103165117923
 20
0.0
 30
-0.7812500000005184
1001
REVIT
1002
{
1070
     1
1000
20792
1002
}
1002
{
1070
     5
1000
142066
1002
}
1002
{
1070
     4
1000
97641
1002
}
1002
{
1070
     2
1000
-2009030
1002
}
  0
INSERT
  5
136
330
6C
100
AcDbEntity
  8
3D-S-COLS-ANLY
370
     9
100
AcDbBlockReference
  2
Outrigger-Kawneer-Square - 5_-142066-Preview
 10
-27.16103165117863
 20
0.0
 30
-0.7812500000005184
1001
REVIT
1002
{
1070
     1
1000
20804
1002
}
1002
{
1070
     5
1000
142066
1002
}
1002
{
1070
     4
1000
97641
1002
}
1002
{
1070
     2
1000
-2009030
1002
}
  0
INSERT
  5
137
330
6C
100
AcDbEntity
  8
3D-S-COLS-ANLY
370
     9
100
AcDbBlockReference
  2
Outrigger-Kawneer-Square - 5_-142066-Preview
 10
-27.16103165117831
 20
0.0
 30
-0.7812500000005184
1001
REVIT
1002
{
1070
     1
1000
20814
1002
}
1002
{
1070
     5
1000
142066
1002
}
1002
{
1070
     4
1000
97641
1002
}
1002
{
1070
     2
1000
-2009030
1002
}
  0
INSERT
  5
138
330
6C
100
AcDbEntity
  8
3D-S-COLS-ANLY
370
     9
100
AcDbBlockReference
  2
Outrigger-Kawneer-Square - 5_-142066-Preview
 10
-27.16103165117803
 20
0.0
 30
-0.7812500000005184
1001
REVIT
1002
{
1070
     1
1000
20824
1002
}
1002
{
1070
     5
1000
142066
1002
}
1002
{
1070
     4
1000
97641
1002
}
1002
{
1070
     2
1000
-2009030
1002
}
  0
INSERT
  5
139
330
6C
100
AcDbEntity
  8
3D-S-COLS-ANLY
370
     9
100
AcDbBlockReference
  2
Outrigger-Kawneer-Square - 5_-142066-Preview
 10
-27.16103165117744
 20
0.0
 30
-0.7812500000005184
1001
REVIT
1002
{
1070
     1
1000
20834
1002
}
1002
{
1070
     5
1000
142066
1002
}
1002
{
1070
     4
1000
97641
1002
}
1002
{
1070
     2
1000
-2009030
1002
}
  0
INSERT
  5
13A
330
6C
100
AcDbEntity
  8
3D-S-COLS-ANLY
370
     9
100
AcDbBlockReference
  2
Outrigger-Kawneer-Square - 5_-142066-Preview
 10
-27.16103165117737
 20
0.0
 30
-0.7812500000005184
1001
REVIT
1002
{
1070
     1
1000
20844
1002
}
1002
{
1070
     5
1000
142066
1002
}
1002
{
1070
     4
1000
97641
1002
}
1002
{
1070
     2
1000
-2009030
1002
}
  0
INSERT
  5
13B
330
6C
100
AcDbEntity
  8
3D-S-COLS-ANLY
370
     9
100
AcDbBlockReference
  2
Outrigger-Kawneer-Square - 5_-142066-Preview
 10
-27.16103165117713
 20
0.0
 30
-0.7812500000005184
1001
REVIT
1002
{
1070
     1
1000
20854
1002
}
1002
{
1070
     5
1000
142066
1002
}
1002
{
1070
     4
1000
97641
1002
}
1002
{
1070
     2
1000
-2009030
1002
}
  0
INSERT
  5
13C
330
6C
100
AcDbEntity
  8
3D-S-COLS-ANLY
370
     9
100
AcDbBlockReference
  2
Outrigger-Kawneer-Square - 5_-142066-Preview
 10
-27.16103165117702
 20
0.0
 30
-0.7812500000005184
1001
REVIT
1002
{
1070
     1
1000
20864
1002
}
1002
{
1070
     5
1000
142066
1002
}
1002
{
1070
     4
1000
97641
1002
}
1002
{
1070
     2
1000
-2009030
1002
}
  0
INSERT
  5
13D
330
6C
100
AcDbEntity
  8
3D-S-COLS-ANLY
370
     9
100
AcDbBlockReference
  2
Outrigger-Kawneer-Square - 5_-142066-Preview
 10
-27.16103165117698
 20
0.0
 30
-0.7812500000005184
1001
REVIT
1002
{
1070
     1
1000
20874
1002
}
1002
{
1070
     5
1000
142066
1002
}
1002
{
1070
     4
1000
97641
1002
}
1002
{
1070
     2
1000
-2009030
1002
}
  0
INSERT
  5
13E
330
6C
100
AcDbEntity
  8
3D-S-COLS-ANLY
370
     9
100
AcDbBlockReference
  2
Outrigger-Kawneer-Square - 5_-142066-Preview
 10
-27.16103165117691
 20
0.0
 30
-0.7812500000005184
1001
REVIT
1002
{
1070
     1
1000
28566
1002
}
1002
{
1070
     5
1000
142066
1002
}
1002
{
1070
     4
1000
97641
1002
}
1002
{
1070
     2
1000
-2009030
1002
}
  0
INSERT
  5
16D
330
6C
100
AcDbEntity
  8
3D-GENM
370
     9
100
AcDbBlockReference
  2
Blade-Kawneer-Square - Versoleil-153009-Preview
 10
3.30771834880314
 20
0.0
 30
2.968749999844529
1001
REVIT
1002
{
1070
     1
1000
104998
1002
}
1002
{
1070
     5
1000
139474
1002
}
1002
{
1070
     4
1000
97641
1002
}
1002
{
1070
     2
1000
-2000151
1002
}
  0
INSERT
  5
1A0
330
6C
100
AcDbEntity
  8
3D-S-BEAM
370
     9
100
AcDbBlockReference
  2
Fascia-Kawneer-Rectangular - Versoleil-156651-Preview
 10
3.307718348802197
 20
0.0
 30
26.72171792318997
1001
REVIT
1002
{
1070
     1
1000
107080
1002
}
1002
{
1070
     5
1000
141099
1002
}
1002
{
1070
     4
1000
97641
1002
}
1002
{
1070
     2
1000
-2001354
1002
}
  0
INSERT
  5
1A1
330
6C
100
AcDbEntity
  8
3D-GENM
370
     9
100
AcDbBlockReference
  2
Blade-Kawneer-Square - Versoleil-153009-Preview
 10
3.307718348802287
 20
0.0
 30
7.968749999844527
1001
REVIT
1002
{
1070
     1
1000
110978
1002
}
1002
{
1070
     5
1000
139474
1002
}
1002
{
1070
     4
1000
97641
1002
}
1002
{
1070
     2
1000
-2000151
1002
}
  0
INSERT
  5
1A2
330
6C
100
AcDbEntity
  8
3D-GENM
370
     9
100
AcDbBlockReference
  2
Blade-Kawneer-Square - Versoleil-153009-Preview
 10
3.307718348801435
 20
0.0
 30
12.96874999984452
1001
REVIT
1002
{
1070
     1
1000
132816
1002
}
1002
{
1070
     5
1000
139474
1002
}
1002
{
1070
     4
1000
97641
1002
}
1002
{
1070
     2
1000
-2000151
1002
}
  0
INSERT
  5
1A3
330
6C
100
AcDbEntity
  8
3D-GENM
370
     9
100
AcDbBlockReference
  2
Blade-Kawneer-Square - Versoleil-153009-Preview
 10
3.307718348800582
 20
0.0
 30
17.96874999984452
1001
REVIT
1002
{
1070
     1
1000
132818
1002
}
1002
{
1070
     5
1000
139474
1002
}
1002
{
1070
     4
1000
97641
1002
}
1002
{
1070
     2
1000
-2000151
1002
}
  0
INSERT
  5
1A4
330
6C
100
AcDbEntity
  8
3D-GENM
370
     9
100
AcDbBlockReference
  2
Blade-Kawneer-Square - Versoleil-153009-Preview
 10
3.307718348799729
 20
0.0
 30
22.96874999984452
1001
REVIT
1002
{
1070
     1
1000
132820
1002
}
1002
{
1070
     5
1000
139474
1002
}
1002
{
1070
     4
1000
97641
1002
}
1002
{
1070
     2
1000
-2000151
1002
}
  0
ENDSEC
  0
SECTION
  2
OBJECTS
  0
DICTIONARY
  5
C
330
0
100
AcDbDictionary
281
     1
  3
ACAD_BACKGROUND
350
1B8
  3
ACAD_CIP_PREVIOUS_PRODUCT_INFO
350
1BC
  3
ACAD_COLOR
350
63
  3
ACAD_GROUP
350
D
  3
ACAD_IMAGE_VARS
350
75
  3
ACAD_LAYOUT
350
62
  3
ACAD_MATERIAL
350
10
  3
ACAD_MLEADERSTYLE
350
66
  3
ACAD_MLINESTYLE
350
5F
  3
ACAD_PLOTSETTINGS
350
61
  3
ACAD_PLOTSTYLENAME
350
E
  3
ACAD_SCALELIST
350
42
  3
ACAD_TABLESTYLE
350
64
  3
ACAD_VISUALSTYLE
350
29
  3
ACDB_RECOMPOSE_DATA
350
21F
  3
AcDbVariableDictionary
350
1B0
  3
DWGPROPS
350
220
  3
REVIT_DICTIONARY
350
1AA
  0
DICTIONARY
  5
1B8
102
{ACAD_REACTORS
330
C
102
}
330
C
100
AcDbDictionary
281
     1
  0
XRECORD
  5
1BC
102
{ACAD_REACTORS
330
C
102
}
330
C
100
AcDbXrecord
280
     1
300
ACD
300
2012
300
BDSADV_F_S
  0
DICTIONARY
  5
63
102
{ACAD_REACTORS
330
C
102
}
330
C
100
AcDbDictionary
281
     1
  0
DICTIONARY
  5
D
102
{ACAD_REACTORS
330
C
102
}
330
C
100
AcDbDictionary
281
     1
  0
RASTERVARIABLES
  5
75
102
{ACAD_REACTORS
330
C
102
}
330
C
100
AcDbRasterVariables
 90
        0
 70
     0
 71
     1
 72
     5
  0
DICTIONARY
  5
62
102
{ACAD_REACTORS
330
C
102
}
330
C
100
AcDbDictionary
281
     1
  3
Layout1
350
6B
  3
Layout2
350
73
  3
Model
350
6F
  0
DICTIONARY
  5
10
102
{ACAD_REACTORS
330
C
102
}
330
C
100
AcDbDictionary
281
     1
  3
ByBlock
350
19
  3
ByLayer
350
11
  3
Global
350
21
  3
RevitMaterialDefinition97641
350
1A7
  0
DICTIONARY
  5
66
102
{ACAD_REACTORS
330
C
102
}
330
C
100
AcDbDictionary
281
     1
  3
Standard
350
67
  0
DICTIONARY
  5
5F
102
{ACAD_REACTORS
330
C
102
}
330
C
100
AcDbDictionary
281
     1
  3
Standard
350
60
  0
DICTIONARY
  5
61
102
{ACAD_REACTORS
330
C
102
}
330
C
100
AcDbDictionary
281
     1
  0
ACDBDICTIONARYWDFLT
  5
E
102
{ACAD_REACTORS
330
C
102
}
330
C
100
AcDbDictionary
281
     1
  3
Normal
350
F
100
AcDbDictionaryWithDefault
340
F
  0
DICTIONARY
  5
42
102
{ACAD_REACTORS
330
C
102
}
330
C
100
AcDbDictionary
281
     1
  3
A0
350
43
  3
A1
350
44
  3
A2
350
45
  3
A3
350
46
  3
A4
350
47
  3
A5
350
48
  3
A6
350
49
  3
A7
350
4A
  3
A8
350
4B
  3
A9
350
4C
  3
B0
350
4D
  3
B1
350
4E
  3
B2
350
4F
  3
B3
350
50
  3
B4
350
51
  3
B5
350
52
  3
B6
350
53
  0
DICTIONARY
  5
64
102
{ACAD_REACTORS
330
C
102
}
330
C
100
AcDbDictionary
281
     1
  3
Standard
350
65
  0
DICTIONARY
  5
29
102
{ACAD_REACTORS
330
C
102
}
330
C
100
AcDbDictionary
281
     1
  3
2dWireframe
350
2F
  3
Basic
350
2E
  3
Brighten
350
35
  3
ColorChange
350
39
  3
Conceptual
350
32
  3
Dim
350
34
  3
EdgeColorOff
350
41
  3
Facepattern
350
38
  3
Flat
350
2A
  3
FlatWithEdges
350
2B
  3
Gouraud
350
2C
  3
GouraudWithEdges
350
2D
  3
Hidden
350
31
  3
JitterOff
350
3F
  3
Linepattern
350
37
  3
OverhangOff
350
40
  3
Realistic
350
33
  3
Shaded
350
3E
  3
Shaded with edges
350
3D
  3
Shades of Gray
350
3A
  3
Sketchy
350
3B
  3
Thicken
350
36
  3
Wireframe
350
30
  3
X-Ray
350
3C
  0
XRECORD
  5
21F
102
{ACAD_REACTORS
330
C
102
}
330
C
100
AcDbXrecord
280
     1
 90
        1
330
65
  0
DICTIONARY
  5
1B0
102
{ACAD_REACTORS
330
C
102
}
330
C
100
AcDbDictionary
281
     1
  3
CANNOSCALE
350
1B3
  3
CMLEADERSTYLE
350
1B2
  3
CTABLESTYLE
350
1B1
  3
DIMASSOC
350
217
  3
HIDETEXT
350
216
  3
INDEXCTL
350
215
  3
LATITUDE
350
219
  3
LAYEREVAL
350
212
  3
LAYERNOTIFY
350
213
  3
LIGHTINGUNITS
350
211
  3
LONGITUDE
350
21A
  3
MSLTSCALE
350
210
  3
SOLIDHIST
350
218
  3
SORTENTS
350
214
  3
TIMEZONE
350
21B
  3
XCLIPFRAME
350
21C
  0
XRECORD
  5
220
102
{ACAD_REACTORS
330
C
102
}
330
C
100
AcDbXrecord
280
     1
  1
DWGPROPS COOKIE
  2

  3

  4

  6

  7

  8
omarr
  9

300
=
301
=
302
=
303
=
304
=
305
=
306
=
307
=
308
=
309
=
 40
0.0006553819444444
 41
2456030.397534387
 42
2456030.398238298
  1

 90
        0
  0
DICTIONARY
  5
1AA
102
{ACAD_REACTORS
330
C
102
}
330
C
100
AcDbDictionary
281
     1
  3
DRAWING_TOOL
350
1AE
  3
REVIT_CATEGORY_MAPPING
350
1AC
  3
REVIT_SUB_CATEGORY_MAPPING
350
1AD
  3
REVIT_TYPE_MAPPING
350
1AB
  0
LAYOUT
  5
6B
102
{ACAD_XDICTIONARY
360
256
102
}
102
{ACAD_REACTORS
330
62
102
}
330
62
100
AcDbPlotSettings
  1

  2

  4

  6

 40
0.0
 41
0.0
 42
0.0
 43
0.0
 44
0.0
 45
0.0
 46
0.0
 47
0.0
 48
0.0
 49
0.0
140
0.0
141
0.0
142
1.0
143
1.0
 70
   688
 72
     0
 73
     0
 74
     5
  7

 75
    16
147
1.0
148
0.0
149
0.0
100
AcDbLayout
  1
Layout1
 70
     1
 71
     1
 10
0.0
 20
0.0
 11
12.0
 21
9.0
 12
0.0
 22
0.0
 32
0.0
 14
1.000000000000000E+20
 24
1.000000000000000E+20
 34
1.000000000000000E+20
 15
-1.000000000000000E+20
 25
-1.000000000000000E+20
 35
-1.000000000000000E+20
146
0.0
 13
0.0
 23
0.0
 33
0.0
 16
1.0
 26
0.0
 36
0.0
 17
0.0
 27
1.0
 37
0.0
 76
     0
330
68
  0
LAYOUT
  5
73
102
{ACAD_XDICTIONARY
360
25A
102
}
102
{ACAD_REACTORS
330
62
102
}
330
62
100
AcDbPlotSettings
  1

  2

  4

  6

 40
0.0
 41
0.0
 42
0.0
 43
0.0
 44
0.0
 45
0.0
 46
0.0
 47
0.0
 48
0.0
 49
0.0
140
0.0
141
0.0
142
1.0
143
1.0
 70
   688
 72
     0
 73
     0
 74
     5
  7

 75
    16
147
1.0
148
0.0
149
0.0
100
AcDbLayout
  1
Layout2
 70
     1
 71
     2
 10
0.0
 20
0.0
 11
12.0
 21
9.0
 12
0.0
 22
0.0
 32
0.0
 14
0.0
 24
0.0
 34
0.0
 15
0.0
 25
0.0
 35
0.0
146
0.0
 13
0.0
 23
0.0
 33
0.0
 16
1.0
 26
0.0
 36
0.0
 17
0.0
 27
1.0
 37
0.0
 76
     0
330
70
  0
LAYOUT
  5
6F
102
{ACAD_XDICTIONARY
360
258
102
}
102
{ACAD_REACTORS
330
62
102
}
330
62
100
AcDbPlotSettings
  1

  2

  4

  6

 40
0.0
 41
0.0
 42
0.0
 43
0.0
 44
0.0
 45
0.0
 46
0.0
 47
0.0
 48
0.0
 49
0.0
140
0.0
141
0.0
142
1.0
143
1.0
 70
  1712
 72
     0
 73
     0
 74
     0
  7

 75
     0
147
1.0
148
0.0
149
0.0
100
AcDbLayout
  1
Model
 70
     1
 71
     0
 10
0.0
 20
0.0
 11
12.0
 21
9.0
 12
0.0
 22
0.0
 32
0.0
 14
0.0
 24
0.0
 34
0.0
 15
0.0
 25
0.0
 35
0.0
146
0.0
 13
0.0
 23
0.0
 33
0.0
 16
1.0
 26
0.0
 36
0.0
 17
0.0
 27
1.0
 37
0.0
 76
     0
330
6C
331
57
  0
MATERIAL
  5
19
102
{ACAD_XDICTIONARY
360
1A
102
}
102
{ACAD_REACTORS
330
10
102
}
330
10
100
AcDbMaterial
  1
ByBlock
 72
     0
 43
0.0208333333333333
 43
0.0
 43
0.0
 43
0.0
 43
0.0
 43
0.0208333333333333
 43
0.0
 43
0.0
 43
0.0
 43
0.0
 43
1.0
 43
0.0
 43
0.0
 43
0.0
 43
0.0
 43
1.0
 77
     0
 47
0.0208333333333333
 47
0.0
 47
0.0
 47
0.0
 47
0.0
 47
0.0208333333333333
 47
0.0
 47
0.0
 47
0.0
 47
0.0
 47
1.0
 47
0.0
 47
0.0
 47
0.0
 47
0.0
 47
1.0
171
     0
 49
0.0208333333333333
 49
0.0
 49
0.0
 49
0.0
 49
0.0
 49
0.0208333333333333
 49
0.0
 49
0.0
 49
0.0
 49
0.0
 49
1.0
 49
0.0
 49
0.0
 49
0.0
 49
0.0
 49
1.0
175
     0
142
0.0208333333333333
142
0.0
142
0.0
142
0.0
142
0.0
142
0.0208333333333333
142
0.0
142
0.0
142
0.0
142
0.0
142
1.0
142
0.0
142
0.0
142
0.0
142
0.0
142
1.0
179
     0
144
0.0208333333333333
144
0.0
144
0.0
144
0.0
144
0.0
144
0.0208333333333333
144
0.0
144
0.0
144
0.0
144
0.0
144
1.0
144
0.0
144
0.0
144
0.0
144
0.0
144
1.0
147
0.0208333333333333
147
0.0
147
0.0
147
0.0
147
0.0
147
0.0208333333333333
147
0.0
147
0.0
147
0.0
147
0.0
147
1.0
147
0.0
147
0.0
147
0.0
147
0.0
147
1.0
  0
MATERIAL
  5
11
102
{ACAD_XDICTIONARY
360
12
102
}
102
{ACAD_REACTORS
330
10
102
}
330
10
100
AcDbMaterial
  1
ByLayer
 72
     0
 43
0.0208333333333333
 43
0.0
 43
0.0
 43
0.0
 43
0.0
 43
0.0208333333333333
 43
0.0
 43
0.0
 43
0.0
 43
0.0
 43
1.0
 43
0.0
 43
0.0
 43
0.0
 43
0.0
 43
1.0
 77
     0
 47
0.0208333333333333
 47
0.0
 47
0.0
 47
0.0
 47
0.0
 47
0.0208333333333333
 47
0.0
 47
0.0
 47
0.0
 47
0.0
 47
1.0
 47
0.0
 47
0.0
 47
0.0
 47
0.0
 47
1.0
171
     0
 49
0.0208333333333333
 49
0.0
 49
0.0
 49
0.0
 49
0.0
 49
0.0208333333333333
 49
0.0
 49
0.0
 49
0.0
 49
0.0
 49
1.0
 49
0.0
 49
0.0
 49
0.0
 49
0.0
 49
1.0
175
     0
142
0.0208333333333333
142
0.0
142
0.0
142
0.0
142
0.0
142
0.0208333333333333
142
0.0
142
0.0
142
0.0
142
0.0
142
1.0
142
0.0
142
0.0
142
0.0
142
0.0
142
1.0
179
     0
144
0.0208333333333333
144
0.0
144
0.0
144
0.0
144
0.0
144
0.0208333333333333
144
0.0
144
0.0
144
0.0
144
0.0
144
1.0
144
0.0
144
0.0
144
0.0
144
0.0
144
1.0
147
0.0208333333333333
147
0.0
147
0.0
147
0.0
147
0.0
147
0.0208333333333333
147
0.0
147
0.0
147
0.0
147
0.0
147
1.0
147
0.0
147
0.0
147
0.0
147
0.0
147
1.0
  0
MATERIAL
  5
21
102
{ACAD_XDICTIONARY
360
22
102
}
102
{ACAD_REACTORS
330
10
102
}
330
10
100
AcDbMaterial
  1
Global
 72
     0
 43
0.0208333333333333
 43
0.0
 43
0.0
 43
0.0
 43
0.0
 43
0.0208333333333333
 43
0.0
 43
0.0
 43
0.0
 43
0.0
 43
1.0
 43
0.0
 43
0.0
 43
0.0
 43
0.0
 43
1.0
 77
     0
 47
0.0208333333333333
 47
0.0
 47
0.0
 47
0.0
 47
0.0
 47
0.0208333333333333
 47
0.0
 47
0.0
 47
0.0
 47
0.0
 47
1.0
 47
0.0
 47
0.0
 47
0.0
 47
0.0
 47
1.0
171
     0
 49
0.0208333333333333
 49
0.0
 49
0.0
 49
0.0
 49
0.0
 49
0.0208333333333333
 49
0.0
 49
0.0
 49
0.0
 49
0.0
 49
1.0
 49
0.0
 49
0.0
 49
0.0
 49
0.0
 49
1.0
175
     0
142
0.0208333333333333
142
0.0
142
0.0
142
0.0
142
0.0
142
0.0208333333333333
142
0.0
142
0.0
142
0.0
142
0.0
142
1.0
142
0.0
142
0.0
142
0.0
142
0.0
142
1.0
179
     0
144
0.0208333333333333
144
0.0
144
0.0
144
0.0
144
0.0
144
0.0208333333333333
144
0.0
144
0.0
144
0.0
144
0.0
144
1.0
144
0.0
144
0.0
144
0.0
144
0.0
144
1.0
147
0.0208333333333333
147
0.0
147
0.0
147
0.0
147
0.0
147
0.0208333333333333
147
0.0
147
0.0
147
0.0
147
0.0
147
1.0
147
0.0
147
0.0
147
0.0
147
0.0
147
1.0
  0
MATERIAL
  5
1A7
102
{ACAD_XDICTIONARY
360
1A8
102
}
102
{ACAD_REACTORS
330
10
102
}
330
10
100
AcDbMaterial
  1
RevitMaterialDefinition97641
 70
     1
 90
-1025120795
 71
     1
 91
-1025120795
 73
     1
 76
     1
 45
0.5
 77
     0
175
     0
145
0.0
  0
MLEADERSTYLE
  5
67
102
{ACAD_REACTORS
330
66
102
}
330
66
100
AcDbMLeaderStyle
170
     2
171
     1
172
     0
 90
        2
 40
0.0
 41
0.0
173
     1
 91
-1056964608
340
5B
 92
       -2
290
     1
 42
0.09
291
     1
 43
0.36
  3
Standard
 44
0.18
300

342
55
174
     1
178
     6
175
     1
176
     0
 93
-1056964608
 45
0.18
292
     0
297
     0
 46
0.18
 94
-1056964608
 47
1.0
 49
1.0
140
1.0
293
     1
141
0.0
294
     1
177
     0
142
1.0
295
     0
296
     0
143
0.125
1001
ACAD_MLEADERVER
1070
     2
  0
MLINESTYLE
  5
60
102
{ACAD_REACTORS
330
5F
102
}
330
5F
100
AcDbMlineStyle
  2
STANDARD
 70
     0
  3

 62
   256
 51
90.0
 52
90.0
 71
     2
 49
0.5
 62
   256
  6
BYLAYER
 49
-0.5
 62
   256
  6
BYLAYER
  0
ACDBPLACEHOLDER
  5
F
102
{ACAD_REACTORS
330
E
102
}
330
E
  0
SCALE
  5
43
102
{ACAD_REACTORS
330
42
102
}
330
42
100
AcDbScale
 70
     0
300
1:1
140
1.0
141
1.0
290
     1
  0
SCALE
  5
44
102
{ACAD_REACTORS
330
42
102
}
330
42
100
AcDbScale
 70
     0
300
1/128" = 1'-0"
140
0.0078125
141
12.0
290
     0
  0
SCALE
  5
45
102
{ACAD_REACTORS
330
42
102
}
330
42
100
AcDbScale
 70
     0
300
1/64" = 1'-0"
140
0.015625
141
12.0
290
     0
  0
SCALE
  5
46
102
{ACAD_REACTORS
330
42
102
}
330
42
100
AcDbScale
 70
     0
300
1/32" = 1'-0"
140
0.03125
141
12.0
290
     0
  0
SCALE
  5
47
102
{ACAD_REACTORS
330
42
102
}
330
42
100
AcDbScale
 70
     0
300
1/16" = 1'-0"
140
0.0625
141
12.0
290
     0
  0
SCALE
  5
48
102
{ACAD_REACTORS
330
42
102
}
330
42
100
AcDbScale
 70
     0
300
3/32" = 1'-0"
140
0.09375
141
12.0
290
     0
  0
SCALE
  5
49
102
{ACAD_REACTORS
330
42
102
}
330
42
100
AcDbScale
 70
     0
300
1/8" = 1'-0"
140
0.125
141
12.0
290
     0
  0
SCALE
  5
4A
102
{ACAD_REACTORS
330
42
102
}
330
42
100
AcDbScale
 70
     0
300
3/16" = 1'-0"
140
0.1875
141
12.0
290
     0
  0
SCALE
  5
4B
102
{ACAD_REACTORS
330
42
102
}
330
42
100
AcDbScale
 70
     0
300
1/4" = 1'-0"
140
0.25
141
12.0
290
     0
  0
SCALE
  5
4C
102
{ACAD_REACTORS
330
42
102
}
330
42
100
AcDbScale
 70
     0
300
3/8" = 1'-0"
140
0.375
141
12.0
290
     0
  0
SCALE
  5
4D
102
{ACAD_REACTORS
330
42
102
}
330
42
100
AcDbScale
 70
     0
300
1/2" = 1'-0"
140
0.5
141
12.0
290
     0
  0
SCALE
  5
4E
102
{ACAD_REACTORS
330
42
102
}
330
42
100
AcDbScale
 70
     0
300
3/4" = 1'-0"
140
0.75
141
12.0
290
     0
  0
SCALE
  5
4F
102
{ACAD_REACTORS
330
42
102
}
330
42
100
AcDbScale
 70
     0
300
1" = 1'-0"
140
1.0
141
12.0
290
     0
  0
SCALE
  5
50
102
{ACAD_REACTORS
330
42
102
}
330
42
100
AcDbScale
 70
     0
300
1-1/2" = 1'-0"
140
1.5
141
12.0
290
     0
  0
SCALE
  5
51
102
{ACAD_REACTORS
330
42
102
}
330
42
100
AcDbScale
 70
     0
300
3" = 1'-0"
140
3.0
141
12.0
290
     0
  0
SCALE
  5
52
102
{ACAD_REACTORS
330
42
102
}
330
42
100
AcDbScale
 70
     0
300
6" = 1'-0"
140
6.0
141
12.0
290
     0
  0
SCALE
  5
53
102
{ACAD_REACTORS
330
42
102
}
330
42
100
AcDbScale
 70
     0
300
1'-0" = 1'-0"
140
12.0
141
12.0
290
     0
  0
TABLESTYLE
  5
65
102
{ACAD_XDICTIONARY
360
21D
102
}
102
{ACAD_REACTORS
330
64
102
}
330
64
100
AcDbTableStyle
  3
Standard
 70
     0
 71
     0
 40
0.06
 41
0.06
280
     0
281
     0
  7
Standard
140
0.18
170
     2
 62
     0
 63
     7
283
     0
274
    -2
284
     1
 64
     0
275
    -2
285
     1
 65
     0
276
    -2
286
     1
 66
     0
277
    -2
287
     1
 67
     0
278
    -2
288
     1
 68
     0
279
    -2
289
     1
 69
     0
  7
Standard
140
0.25
170
     5
 62
     0
 63
     7
283
     0
274
    -2
284
     1
 64
     0
275
    -2
285
     1
 65
     0
276
    -2
286
     1
 66
     0
277
    -2
287
     1
 67
     0
278
    -2
288
     1
 68
     0
279
    -2
289
     1
 69
     0
  7
Standard
140
0.18
170
     5
 62
     0
 63
     7
283
     0
274
    -2
284
     1
 64
     0
275
    -2
285
     1
 65
     0
276
    -2
286
     1
 66
     0
277
    -2
287
     1
 67
     0
278
    -2
288
     1
 68
     0
279
    -2
289
     1
 69
     0
  0
VISUALSTYLE
  5
2F
102
{ACAD_XDICTIONARY
360
22E
102
}
102
{ACAD_REACTORS
330
29
102
}
330
29
100
AcDbVisualStyle
  2
2dWireframe
 70
     4
 71
     0
 72
     2
 73
     0
 90
        0
 40
-0.6
 41
-30.0
 62
     5
 63
     7
 74
     1
 91
        4
 64
     7
 65
   257
 75
     1
175
     1
 42
1.0
 92
        0
 66
   257
 43
1.0
 76
     1
 77
     6
 78
     2
 67
     7
 79
     5
170
     0
171
     0
290
     0
174
     0
 93
        1
 44
0.0
173
     0
291
     0
 45
0.0
1001
ACAD
1000
AcDbSavedByObjectVersion
1070
     0
  0
VISUALSTYLE
  5
2E
102
{ACAD_XDICTIONARY
360
22C
102
}
102
{ACAD_REACTORS
330
29
102
}
330
29
100
AcDbVisualStyle
  2
Basic
 70
     7
 71
     1
 72
     0
 73
     1
 90
        0
 40
-0.6
 41
-30.0
 62
     5
 63
     7
 74
     0
 91
        4
 64
     7
 65
   257
 75
     1
175
     1
 42
1.0
 92
        8
 66
     7
 43
1.0
 76
     1
 77
     6
 78
     2
 67
     7
 79
     5
170
     0
171
     0
290
     0
174
     0
 93
        1
 44
0.0
173
     0
291
     1
 45
0.0
1001
ACAD
1000
AcDbSavedByObjectVersion
1070
     0
  0
VISUALSTYLE
  5
35
102
{ACAD_XDICTIONARY
360
23A
102
}
102
{ACAD_REACTORS
330
29
102
}
330
29
100
AcDbVisualStyle
  2
Brighten
 70
    12
 71
     2
 72
     2
 73
     0
 90
        0
 40
-0.6
 41
-30.0
 62
     5
 63
     7
 74
     1
 91
        4
 64
     7
 65
   257
 75
     1
175
     1
 42
1.0
 92
        8
 66
     7
 43
1.0
 76
     1
 77
     6
 78
     2
 67
     7
 79
     5
170
     0
171
     0
290
     0
174
     0
 93
        1
 44
50.0
173
     0
291
     1
 45
0.0
1001
ACAD
1000
AcDbSavedByObjectVersion
1070
     0
  0
VISUALSTYLE
  5
39
102
{ACAD_XDICTIONARY
360
242
102
}
102
{ACAD_REACTORS
330
29
102
}
330
29
100
AcDbVisualStyle
  2
ColorChange
 70
    16
 71
     2
 72
     2
 73
     3
 90
        0
 40
-0.6
 41
-30.0
 62
     5
 63
     8
 74
     1
 91
        4
 64
     7
 65
   257
 75
     1
175
     1
 42
1.0
 92
        8
 66
     8
 43
1.0
 76
     1
 77
     6
 78
     2
 67
     7
 79
     5
170
     0
171
     0
290
     0
174
     0
 93
        1
 44
0.0
173
     0
291
     1
 45
0.0
1001
ACAD
1000
AcDbSavedByObjectVersion
1070
     0
  0
VISUALSTYLE
  5
32
102
{ACAD_XDICTIONARY
360
234
102
}
102
{ACAD_REACTORS
330
29
102
}
330
29
100
AcDbVisualStyle
  2
Conceptual
 70
     9
 71
     3
 72
     2
 73
     0
 90
        0
 40
-0.6
 41
-30.0
 62
     5
 63
     7
 74
     2
 91
        2
 64
     7
 65
   257
 75
     1
175
     1
 42
179.0
 92
        8
 66
     7
 43
1.0
 76
     1
 77
     6
 78
     2
 67
     7
 79
     3
170
     0
171
     0
290
     0
174
     0
 93
        1
 44
0.0
173
     0
291
     0
 45
0.0
1001
ACAD
1000
AcDbSavedByObjectVersion
1070
     0
  0
VISUALSTYLE
  5
34
102
{ACAD_XDICTIONARY
360
238
102
}
102
{ACAD_REACTORS
330
29
102
}
330
29
100
AcDbVisualStyle
  2
Dim
 70
    11
 71
     2
 72
     2
 73
     0
 90
        0
 40
-0.6
 41
-30.0
 62
     5
 63
     7
 74
     1
 91
        4
 64
     7
 65
   257
 75
     1
175
     1
 42
1.0
 92
        8
 66
     7
 43
1.0
 76
     1
 77
     6
 78
     2
 67
     7
 79
     5
170
     0
171
     0
290
     0
174
     0
 93
        1
 44
-50.0
173
     0
291
     1
 45
0.0
1001
ACAD
1000
AcDbSavedByObjectVersion
1070
     0
  0
VISUALSTYLE
  5
41
102
{ACAD_XDICTIONARY
360
252
102
}
102
{ACAD_REACTORS
330
29
102
}
330
29
100
AcDbVisualStyle
  2
EdgeColorOff
 70
    22
 71
     2
 72
     2
 73
     0
 90
        0
 40
-0.6
 41
-30.0
 62
     5
 63
     7
 74
     1
 91
        4
 64
     7
 65
   257
 75
     1
175
     1
 42
1.0
 92
        8
 66
     7
 43
1.0
 76
     1
 77
     6
 78
     2
 67
     7
 79
     5
170
     0
171
     0
290
     0
174
     0
 93
        1
 44
0.0
173
     0
291
     1
 45
0.0
1001
ACAD
1000
AcDbSavedByObjectVersion
1070
     0
  0
VISUALSTYLE
  5
38
102
{ACAD_XDICTIONARY
360
240
102
}
102
{ACAD_REACTORS
330
29
102
}
330
29
100
AcDbVisualStyle
  2
Facepattern
 70
    15
 71
     2
 72
     2
 73
     0
 90
        0
 40
-0.6
 41
-30.0
 62
     5
 63
     7
 74
     1
 91
        4
 64
     7
 65
   257
 75
     1
175
     1
 42
1.0
 92
        8
 66
     7
 43
1.0
 76
     1
 77
     6
 78
     2
 67
     7
 79
     5
170
     0
171
     0
290
     0
174
     0
 93
        1
 44
0.0
173
     0
291
     1
 45
0.0
1001
ACAD
1000
AcDbSavedByObjectVersion
1070
     0
  0
VISUALSTYLE
  5
2A
102
{ACAD_XDICTIONARY
360
224
102
}
102
{ACAD_REACTORS
330
29
102
}
330
29
100
AcDbVisualStyle
  2
Flat
 70
     0
 71
     2
 72
     1
 73
     1
 90
        2
 40
-0.6
 41
30.0
 62
     5
 63
     7
 74
     0
 91
        0
 64
     7
 65
   257
 75
     1
175
     1
 42
1.0
 92
        8
 66
     7
 43
1.0
 76
     1
 77
     6
 78
     2
 67
     7
 79
     5
170
     0
171
     0
290
     0
174
     0
 93
       13
 44
0.0
173
     0
291
     1
 45
0.0
1001
ACAD
1000
AcDbSavedByObjectVersion
1070
     0
  0
VISUALSTYLE
  5
2B
102
{ACAD_XDICTIONARY
360
226
102
}
102
{ACAD_REACTORS
330
29
102
}
330
29
100
AcDbVisualStyle
  2
FlatWithEdges
 70
     1
 71
     2
 72
     1
 73
     1
 90
        2
 40
-0.6
 41
30.0
 62
     5
 63
     7
 74
     1
 91
        0
 64
     7
 65
   257
 75
     1
175
     1
 42
1.0
 92
        0
 66
   257
 43
1.0
 76
     1
 77
     6
 78
     2
 67
     7
 79
     5
170
     0
171
     0
290
     0
174
     0
 93
       13
 44
0.0
173
     0
291
     1
 45
0.0
1001
ACAD
1000
AcDbSavedByObjectVersion
1070
     0
  0
VISUALSTYLE
  5
2C
102
{ACAD_XDICTIONARY
360
228
102
}
102
{ACAD_REACTORS
330
29
102
}
330
29
100
AcDbVisualStyle
  2
Gouraud
 70
     2
 71
     2
 72
     2
 73
     1
 90
        2
 40
-0.6
 41
30.0
 62
     5
 63
     7
 74
     0
 91
        0
 64
     7
 65
   257
 75
     1
175
     1
 42
1.0
 92
        0
 66
     7
 43
1.0
 76
     1
 77
     6
 78
     2
 67
     7
 79
     5
170
     0
171
     0
290
     0
174
     0
 93
       13
 44
0.0
173
     0
291
     1
 45
0.0
1001
ACAD
1000
AcDbSavedByObjectVersion
1070
     0
  0
VISUALSTYLE
  5
2D
102
{ACAD_XDICTIONARY
360
22A
102
}
102
{ACAD_REACTORS
330
29
102
}
330
29
100
AcDbVisualStyle
  2
GouraudWithEdges
 70
     3
 71
     2
 72
     2
 73
     1
 90
        2
 40
-0.6
 41
30.0
 62
     5
 63
     7
 74
     1
 91
        0
 64
     7
 65
   257
 75
     1
175
     1
 42
1.0
 92
        0
 66
   257
 43
1.0
 76
     1
 77
     6
 78
     2
 67
     7
 79
     5
170
     0
171
     0
290
     0
174
     0
 93
       13
 44
0.0
173
     0
291
     1
 45
0.0
1001
ACAD
1000
AcDbSavedByObjectVersion
1070
     0
  0
VISUALSTYLE
  5
31
102
{ACAD_XDICTIONARY
360
232
102
}
102
{ACAD_REACTORS
330
29
102
}
330
29
100
AcDbVisualStyle
  2
Hidden
 70
     6
 71
     1
 72
     2
 73
     2
 90
        0
 40
-0.6
 41
-30.0
 62
     5
 63
     7
 74
     2
 91
        2
 64
     7
 65
   257
 75
     2
175
     1
 42
40.0
 92
        0
 66
   257
 43
1.0
 76
     1
 77
     6
 78
     2
 67
     7
 79
     3
170
     0
171
     0
290
     0
174
     0
 93
        1
 44
0.0
173
     0
291
     0
 45
0.0
1001
ACAD
1000
AcDbSavedByObjectVersion
1070
     0
  0
VISUALSTYLE
  5
3F
102
{ACAD_XDICTIONARY
360
24E
102
}
102
{ACAD_REACTORS
330
29
102
}
330
29
100
AcDbVisualStyle
  2
JitterOff
 70
    20
 71
     2
 72
     2
 73
     0
 90
        0
 40
-0.6
 41
-30.0
 62
     5
 63
     7
 74
     1
 91
        4
 64
     7
 65
   257
 75
     1
175
     1
 42
1.0
 92
       10
 66
     7
 43
1.0
 76
     1
 77
     6
 78
     2
 67
     7
 79
     5
170
     0
171
     0
290
     0
174
     0
 93
        1
 44
0.0
173
     0
291
     1
 45
0.0
1001
ACAD
1000
AcDbSavedByObjectVersion
1070
     0
  0
VISUALSTYLE
  5
37
102
{ACAD_XDICTIONARY
360
23E
102
}
102
{ACAD_REACTORS
330
29
102
}
330
29
100
AcDbVisualStyle
  2
Linepattern
 70
    14
 71
     2
 72
     2
 73
     0
 90
        0
 40
-0.6
 41
-30.0
 62
     5
 63
     7
 74
     1
 91
        4
 64
     7
 65
   257
 75
     7
175
     7
 42
1.0
 92
        8
 66
     7
 43
1.0
 76
     1
 77
     6
 78
     2
 67
     7
 79
     5
170
     0
171
     0
290
     0
174
     0
 93
        1
 44
0.0
173
     0
291
     1
 45
0.0
1001
ACAD
1000
AcDbSavedByObjectVersion
1070
     0
  0
VISUALSTYLE
  5
40
102
{ACAD_XDICTIONARY
360
250
102
}
102
{ACAD_REACTORS
330
29
102
}
330
29
100
AcDbVisualStyle
  2
OverhangOff
 70
    21
 71
     2
 72
     2
 73
     0
 90
        0
 40
-0.6
 41
-30.0
 62
     5
 63
     7
 74
     1
 91
        4
 64
     7
 65
   257
 75
     1
175
     1
 42
1.0
 92
        9
 66
     7
 43
1.0
 76
     1
 77
     6
 78
     2
 67
     7
 79
     5
170
     0
171
     0
290
     0
174
     0
 93
        1
 44
0.0
173
     0
291
     1
 45
0.0
1001
ACAD
1000
AcDbSavedByObjectVersion
1070
     0
  0
VISUALSTYLE
  5
33
102
{ACAD_XDICTIONARY
360
236
102
}
102
{ACAD_REACTORS
330
29
102
}
330
29
100
AcDbVisualStyle
  2
Realistic
 70
     8
 71
     2
 72
     3
 73
     0
 90
        2
 40
-0.6
 41
30.0
 62
     5
 63
     7
 74
     0
 91
        0
 64
     7
 65
   257
 75
     1
175
     1
 42
1.0
 92
        8
 66
   257
 43
1.0
 76
     1
 77
     6
 78
     2
 67
     7
 79
     3
170
     0
171
     0
290
     0
174
     0
 93
       13
 44
0.0
173
     0
291
     0
 45
0.0
1001
ACAD
1000
AcDbSavedByObjectVersion
1070
     0
  0
VISUALSTYLE
  5
3E
102
{ACAD_XDICTIONARY
360
24C
102
}
102
{ACAD_REACTORS
330
29
102
}
330
29
100
AcDbVisualStyle
  2
Shaded
 70
    27
 71
     2
 72
     2
 73
     1
 90
        2
 40
-0.6
 41
30.0
 62
     5
 63
     7
 74
     0
 91
        4
 64
     7
 65
   257
 75
     1
175
     1
 42
1.0
 92
        8
 66
   257
 43
1.0
 76
     1
 77
     6
 78
     2
 67
     8
 79
     3
170
     0
171
     0
290
     0
174
     0
 93
        5
 44
0.0
173
     0
291
     0
 45
0.0
1001
ACAD
1000
AcDbSavedByObjectVersion
1070
     0
  0
VISUALSTYLE
  5
3D
102
{ACAD_XDICTIONARY
360
24A
102
}
102
{ACAD_REACTORS
330
29
102
}
330
29
100
AcDbVisualStyle
  2
Shaded with edges
 70
    26
 71
     2
 72
     2
 73
     1
 90
        2
 40
-0.6
 41
30.0
 62
     5
 63
     7
 74
     1
 91
       10
 64
     7
 65
   257
 75
     2
175
     1
 42
1.0
 92
        8
 66
   257
 43
1.0
 76
     1
 77
     6
 78
     2
 67
     7
 79
     3
170
     0
171
     0
290
     0
174
     0
 93
        5
 44
0.0
173
     0
291
     0
 45
0.0
1001
ACAD
1000
AcDbSavedByObjectVersion
1070
     0
  0
VISUALSTYLE
  5
3A
102
{ACAD_XDICTIONARY
360
244
102
}
102
{ACAD_REACTORS
330
29
102
}
330
29
100
AcDbVisualStyle
  2
Shades of Gray
 70
    23
 71
     2
 72
     2
 73
     3
 90
        0
 40
-0.6
 41
-30.0
 62
     5
 63
     7
 74
     2
 91
        2
 64
     7
 65
     7
 75
     1
175
     1
 42
40.0
 92
        8
 66
     7
 43
1.0
 76
     1
 77
     6
 78
     2
 67
     7
 79
     3
170
     0
171
     0
290
     0
174
     0
 93
        1
 44
0.0
173
     0
291
     0
 45
0.0
1001
ACAD
1000
AcDbSavedByObjectVersion
1070
     0
  0
VISUALSTYLE
  5
3B
102
{ACAD_XDICTIONARY
360
246
102
}
102
{ACAD_REACTORS
330
29
102
}
330
29
100
AcDbVisualStyle
  2
Sketchy
 70
    24
 71
     1
 72
     2
 73
     2
 90
        0
 40
-0.6
 41
-30.0
 62
     5
 63
     7
 74
     2
 91
        2
 64
     7
 65
     7
 75
     1
175
     1
 42
40.0
 92
       11
 66
     7
 43
1.0
 76
     1
 77
     6
 78
     2
 67
     7
 79
     6
170
     0
171
     0
290
     0
174
     0
 93
        1
 44
0.0
173
     0
291
     0
 45
0.0
1001
ACAD
1000
AcDbSavedByObjectVersion
1070
     0
  0
VISUALSTYLE
  5
36
102
{ACAD_XDICTIONARY
360
23C
102
}
102
{ACAD_REACTORS
330
29
102
}
330
29
100
AcDbVisualStyle
  2
Thicken
 70
    13
 71
     2
 72
     2
 73
     0
 90
        0
 40
-0.6
 41
-30.0
 62
     5
 63
     7
 74
     1
 91
        4
 64
     7
 65
   257
 75
     1
175
     1
 42
1.0
 92
       12
 66
     7
 43
1.0
 76
     1
 77
     6
 78
     2
 67
     7
 79
     5
170
     0
171
     0
290
     0
174
     0
 93
        1
 44
0.0
173
     0
291
     1
 45
0.0
1001
ACAD
1000
AcDbSavedByObjectVersion
1070
     0
  0
VISUALSTYLE
  5
30
102
{ACAD_XDICTIONARY
360
230
102
}
102
{ACAD_REACTORS
330
29
102
}
330
29
100
AcDbVisualStyle
  2
Wireframe
 70
     5
 71
     0
 72
     2
 73
     0
 90
        0
 40
-0.6
 41
-30.0
 62
     5
 63
     7
 74
     1
 91
        4
 64
     7
 65
   257
 75
     1
175
     1
 42
1.0
 92
        0
 66
   257
 43
1.0
 76
     1
 77
     6
 78
     2
 67
     7
 79
     3
170
     0
171
     0
290
     0
174
     0
 93
        1
 44
0.0
173
     0
291
     0
 45
0.0
1001
ACAD
1000
AcDbSavedByObjectVersion
1070
     0
  0
VISUALSTYLE
  5
3C
102
{ACAD_XDICTIONARY
360
248
102
}
102
{ACAD_REACTORS
330
29
102
}
330
29
100
AcDbVisualStyle
  2
X-Ray
 70
    25
 71
     2
 72
     2
 73
     1
 90
        1
 40
0.5
 41
-30.0
 62
     5
 63
     7
 74
     1
 91
        0
 64
     7
 65
   257
 75
     1
175
     1
 42
1.0
 92
        8
 66
     7
 43
1.0
 76
     1
 77
     6
 78
     2
 67
     7
 79
     3
170
     0
171
     0
290
     0
174
     0
 93
       13
 44
0.0
173
     0
291
     0
 45
0.0
1001
ACAD
1000
AcDbSavedByObjectVersion
1070
     0
  0
DICTIONARYVAR
  5
1B3
102
{ACAD_REACTORS
330
1B0
102
}
330
1B0
100
DictionaryVariables
280
     0
  1
1:1
  0
DICTIONARYVAR
  5
1B2
102
{ACAD_REACTORS
330
1B0
102
}
330
1B0
100
DictionaryVariables
280
     0
  1
STANDARD
  0
DICTIONARYVAR
  5
1B1
102
{ACAD_REACTORS
330
1B0
102
}
330
1B0
100
DictionaryVariables
280
     0
  1
STANDARD
  0
DICTIONARYVAR
  5
217
102
{ACAD_REACTORS
330
1B0
102
}
330
1B0
100
DictionaryVariables
280
     0
  1
2
  0
DICTIONARYVAR
  5
216
102
{ACAD_REACTORS
330
1B0
102
}
330
1B0
100
DictionaryVariables
280
     0
  1
1
  0
DICTIONARYVAR
  5
215
102
{ACAD_REACTORS
330
1B0
102
}
330
1B0
100
DictionaryVariables
280
     0
  1
0
  0
DICTIONARYVAR
  5
219
102
{ACAD_REACTORS
330
1B0
102
}
330
1B0
100
DictionaryVariables
280
     0
  1
0.000000
  0
DICTIONARYVAR
  5
212
102
{ACAD_REACTORS
330
1B0
102
}
330
1B0
100
DictionaryVariables
280
     0
  1
0
  0
DICTIONARYVAR
  5
213
102
{ACAD_REACTORS
330
1B0
102
}
330
1B0
100
DictionaryVariables
280
     0
  1
0
  0
DICTIONARYVAR
  5
211
102
{ACAD_REACTORS
330
1B0
102
}
330
1B0
100
DictionaryVariables
280
     0
  1
2
  0
DICTIONARYVAR
  5
21A
102
{ACAD_REACTORS
330
1B0
102
}
330
1B0
100
DictionaryVariables
280
     0
  1
0.000000
  0
DICTIONARYVAR
  5
210
102
{ACAD_REACTORS
330
1B0
102
}
330
1B0
100
DictionaryVariables
280
     0
  1
1
  0
DICTIONARYVAR
  5
218
102
{ACAD_REACTORS
330
1B0
102
}
330
1B0
100
DictionaryVariables
280
     0
  1
1
  0
DICTIONARYVAR
  5
214
102
{ACAD_REACTORS
330
1B0
102
}
330
1B0
100
DictionaryVariables
280
     0
  1
127
  0
DICTIONARYVAR
  5
21B
102
{ACAD_REACTORS
330
1B0
102
}
330
1B0
100
DictionaryVariables
280
     0
  1
0
  0
DICTIONARYVAR
  5
21C
102
{ACAD_REACTORS
330
1B0
102
}
330
1B0
100
DictionaryVariables
280
     0
  1
2
  0
XRECORD
  5
1AE
102
{ACAD_REACTORS
330
1AA
102
}
330
1AA
100
AcDbXrecord
280
     1
  1
BUILDING_ID
  1
Sunshade-Linear-Kawneer-Curtain_Wall-Square
  1
FLOOR_ID
  1
19153
  0
XRECORD
  5
1AC
102
{ACAD_REACTORS
330
1AA
102
}
330
1AA
100
AcDbXrecord
280
     1
  1
-2000151
  1
Generic Models
  1
-2001354
  1
Structural Stiffeners
  1
-2009030
  1
Structural Connections
  0
XRECORD
  5
1AD
102
{ACAD_REACTORS
330
1AA
102
}
330
1AA
100
AcDbXrecord
280
     1
  1
103689
  1
Blade
  1
107041
  1
Fascias
  1
141087
  1
Fascias
  1
142059
  1
Outrigger
  1
155699
  1
Bracket
  0
XRECORD
  5
1AB
102
{ACAD_REACTORS
330
1AA
102
}
330
1AA
100
AcDbXrecord
280
     1
  1
139474
  1
Blade-Kawneer-Square : Versoleil
  1
141099
  1
Fascia-Kawneer-Rectangular : Versoleil
  1
142066
  1
Outrigger-Kawneer-Square : 5"
  0
DICTIONARY
  5
256
330
6B
100
AcDbDictionary
280
     1
281
     1
  3
ACAD_XREC_ROUNDTRIP
360
257
  0
DICTIONARY
  5
25A
330
73
100
AcDbDictionary
280
     1
281
     1
  3
ACAD_XREC_ROUNDTRIP
360
25B
  0
DICTIONARY
  5
258
330
6F
100
AcDbDictionary
280
     1
281
     1
  3
ACAD_XREC_ROUNDTRIP
360
259
  0
DICTIONARY
  5
1A
330
19
100
AcDbDictionary
280
     1
281
     1
  3
ACAD_XREC_ROUNDTRIP
360
222
  3
BUMPTILE
360
1C
  3
DIFFUSETILE
360
1B
  3
OPACITYTILE
360
1F
  3
REFLECTIONTILE
360
1E
  3
REFRACTIONTILE
360
20
  3
SPECULARTILE
360
1D
  0
DICTIONARY
  5
12
330
11
100
AcDbDictionary
280
     1
281
     1
  3
ACAD_XREC_ROUNDTRIP
360
221
  3
BUMPTILE
360
14
  3
DIFFUSETILE
360
13
  3
OPACITYTILE
360
17
  3
REFLECTIONTILE
360
16
  3
REFRACTIONTILE
360
18
  3
SPECULARTILE
360
15
  0
DICTIONARY
  5
22
330
21
100
AcDbDictionary
280
     1
281
     1
  3
ACAD_XREC_ROUNDTRIP
360
223
  3
BUMPTILE
360
24
  3
DIFFUSETILE
360
23
  3
FBXASSET
360
1BB
  3
OPACITYTILE
360
27
  3
REFLECTIONTILE
360
26
  3
REFRACTIONTILE
360
28
  3
SPECULARTILE
360
25
  0
DICTIONARY
  5
1A8
330
1A7
100
AcDbDictionary
280
     1
281
     1
  3
ACAD_XREC_ROUNDTRIP
360
25C
  3
VIZ XML Material Definition
360
1A9
  0
DICTIONARY
  5
21D
330
65
100
AcDbDictionary
280
     1
281
     1
  3
ACAD_ROUNDTRIP_2008_TABLESTYLE_CELLSTYLEMAP
360
21E
  3
ACAD_XREC_ROUNDTRIP
360
254
  0
DICTIONARY
  5
22E
330
2F
100
AcDbDictionary
280
     1
281
     1
  3
ACAD_XREC_ROUNDTRIP
360
22F
  0
DICTIONARY
  5
22C
330
2E
100
AcDbDictionary
280
     1
281
     1
  3
ACAD_XREC_ROUNDTRIP
360
22D
  0
DICTIONARY
  5
23A
330
35
100
AcDbDictionary
280
     1
281
     1
  3
ACAD_XREC_ROUNDTRIP
360
23B
  0
DICTIONARY
  5
242
330
39
100
AcDbDictionary
280
     1
281
     1
  3
ACAD_XREC_ROUNDTRIP
360
243
  0
DICTIONARY
  5
234
330
32
100
AcDbDictionary
280
     1
281
     1
  3
ACAD_XREC_ROUNDTRIP
360
235
  0
DICTIONARY
  5
238
330
34
100
AcDbDictionary
280
     1
281
     1
  3
ACAD_XREC_ROUNDTRIP
360
239
  0
DICTIONARY
  5
252
330
41
100
AcDbDictionary
280
     1
281
     1
  3
ACAD_XREC_ROUNDTRIP
360
253
  0
DICTIONARY
  5
240
330
38
100
AcDbDictionary
280
     1
281
     1
  3
ACAD_XREC_ROUNDTRIP
360
241
  0
DICTIONARY
  5
224
330
2A
100
AcDbDictionary
280
     1
281
     1
  3
ACAD_XREC_ROUNDTRIP
360
225
  0
DICTIONARY
  5
226
330
2B
100
AcDbDictionary
280
     1
281
     1
  3
ACAD_XREC_ROUNDTRIP
360
227
  0
DICTIONARY
  5
228
330
2C
100
AcDbDictionary
280
     1
281
     1
  3
ACAD_XREC_ROUNDTRIP
360
229
  0
DICTIONARY
  5
22A
330
2D
100
AcDbDictionary
280
     1
281
     1
  3
ACAD_XREC_ROUNDTRIP
360
22B
  0
DICTIONARY
  5
232
330
31
100
AcDbDictionary
280
     1
281
     1
  3
ACAD_XREC_ROUNDTRIP
360
233
  0
DICTIONARY
  5
24E
330
3F
100
AcDbDictionary
280
     1
281
     1
  3
ACAD_XREC_ROUNDTRIP
360
24F
  0
DICTIONARY
  5
23E
330
37
100
AcDbDictionary
280
     1
281
     1
  3
ACAD_XREC_ROUNDTRIP
360
23F
  0
DICTIONARY
  5
250
330
40
100
AcDbDictionary
280
     1
281
     1
  3
ACAD_XREC_ROUNDTRIP
360
251
  0
DICTIONARY
  5
236
330
33
100
AcDbDictionary
280
     1
281
     1
  3
ACAD_XREC_ROUNDTRIP
360
237
  0
DICTIONARY
  5
24C
330
3E
100
AcDbDictionary
280
     1
281
     1
  3
ACAD_XREC_ROUNDTRIP
360
24D
  0
DICTIONARY
  5
24A
330
3D
100
AcDbDictionary
280
     1
281
     1
  3
ACAD_XREC_ROUNDTRIP
360
24B
  0
DICTIONARY
  5
244
330
3A
100
AcDbDictionary
280
     1
281
     1
  3
ACAD_XREC_ROUNDTRIP
360
245
  0
DICTIONARY
  5
246
330
3B
100
AcDbDictionary
280
     1
281
     1
  3
ACAD_XREC_ROUNDTRIP
360
247
  0
DICTIONARY
  5
23C
330
36
100
AcDbDictionary
280
     1
281
     1
  3
ACAD_XREC_ROUNDTRIP
360
23D
  0
DICTIONARY
  5
230
330
30
100
AcDbDictionary
280
     1
281
     1
  3
ACAD_XREC_ROUNDTRIP
360
231
  0
DICTIONARY
  5
248
330
3C
100
AcDbDictionary
280
     1
281
     1
  3
ACAD_XREC_ROUNDTRIP
360
249
  0
XRECORD
  5
257
102
{ACAD_REACTORS
330
256
102
}
330
256
100
AcDbXrecord
280
     1
102
SHADEPLOT
 70
     0
102
SHADEPLOTRESLEVEL
 70
     2
102
SHADEPLOTCUSTOMDPI
 70
   300
  0
XRECORD
  5
25B
102
{ACAD_REACTORS
330
25A
102
}
330
25A
100
AcDbXrecord
280
     1
102
SHADEPLOT
 70
     0
102
SHADEPLOTRESLEVEL
 70
     2
102
SHADEPLOTCUSTOMDPI
 70
   300
  0
XRECORD
  5
259
102
{ACAD_REACTORS
330
258
102
}
330
258
100
AcDbXrecord
280
     1
102
SHADEPLOT
 70
     0
102
SHADEPLOTRESLEVEL
 70
     2
102
SHADEPLOTCUSTOMDPI
 70
   300
  0
XRECORD
  5
222
102
{ACAD_REACTORS
330
1A
102
}
330
1A
100
AcDbXrecord
280
     1
102
MATERIAL
148
0.0
149
0.0
149
0.0
 93
        0
 94
      127
282
     0
 72
     0
 77
     0
171
     0
175
     0
179
     0
273
     0
  0
XRECORD
  5
1C
102
{ACAD_REACTORS
330
1A
102
}
330
1A
100
AcDbXrecord
280
     1
270
     1
271
     1
  0
XRECORD
  5
1B
102
{ACAD_REACTORS
330
1A
102
}
330
1A
100
AcDbXrecord
280
     1
270
     1
271
     1
  0
XRECORD
  5
1F
102
{ACAD_REACTORS
330
1A
102
}
330
1A
100
AcDbXrecord
280
     1
270
     1
271
     1
  0
XRECORD
  5
1E
102
{ACAD_REACTORS
330
1A
102
}
330
1A
100
AcDbXrecord
280
     1
270
     1
271
     1
  0
XRECORD
  5
20
102
{ACAD_REACTORS
330
1A
102
}
330
1A
100
AcDbXrecord
280
     1
270
     1
271
     1
  0
XRECORD
  5
1D
102
{ACAD_REACTORS
330
1A
102
}
330
1A
100
AcDbXrecord
280
     1
270
     1
271
     1
  0
XRECORD
  5
221
102
{ACAD_REACTORS
330
12
102
}
330
12
100
AcDbXrecord
280
     1
102
MATERIAL
148
0.0
149
0.0
149
0.0
 93
        0
 94
      127
282
     0
 72
     0
 77
     0
171
     0
175
     0
179
     0
273
     0
  0
XRECORD
  5
14
102
{ACAD_REACTORS
330
12
102
}
330
12
100
AcDbXrecord
280
     1
270
     1
271
     1
  0
XRECORD
  5
13
102
{ACAD_REACTORS
330
12
102
}
330
12
100
AcDbXrecord
280
     1
270
     1
271
     1
  0
XRECORD
  5
17
102
{ACAD_REACTORS
330
12
102
}
330
12
100
AcDbXrecord
280
     1
270
     1
271
     1
  0
XRECORD
  5
16
102
{ACAD_REACTORS
330
12
102
}
330
12
100
AcDbXrecord
280
     1
270
     1
271
     1
  0
XRECORD
  5
18
102
{ACAD_REACTORS
330
12
102
}
330
12
100
AcDbXrecord
280
     1
270
     1
271
     1
  0
XRECORD
  5
15
102
{ACAD_REACTORS
330
12
102
}
330
12
100
AcDbXrecord
280
     1
270
     1
271
     1
  0
XRECORD
  5
223
102
{ACAD_REACTORS
330
22
102
}
330
22
100
AcDbXrecord
280
     1
102
MATERIAL
148
0.0
149
0.0
149
0.0
 93
        0
 94
      127
282
     0
 72
     0
 77
     0
171
     0
175
     0
179
     0
273
     0
  0
XRECORD
  5
24
102
{ACAD_REACTORS
330
22
102
}
330
22
100
AcDbXrecord
280
     1
270
     1
271
     1
  0
XRECORD
  5
23
102
{ACAD_REACTORS
330
22
102
}
330
22
100
AcDbXrecord
280
     1
270
     1
271
     1
  0
XRECORD
  5
1BB
102
{ACAD_REACTORS
330
22
102
}
330
22
100
AcDbXrecord
280
     1
 70
     1
 90
1959938040
 71
     1
  1
7BE549DA-4134-469A-B266-209A694710B9
311
504B03040A0000080000104C8C403DEE336E79000000790000001B0000006175746F6465736B2D64657369676E2D7061636B6167652E786D6C3C3F786D6C2076657273696F6E3D22312E302220656E636F64696E673D227574662D3822203F3E3C666F726D6174733E3C666F726D61743E687474703A2F2F736368656D612E
311
6175746F6465736B2E636F6D2F64657369676E2D7061636B6167652F323030393C2F666F726D61743E3C2F666F726D6174733E504B0304140006080800104C8C40D486FD9CA0000000F4000000130000005B436F6E74656E745F54797065735D2E786D6C7D8EC10E82300C865F65E91D8A1E8C310C0EEA1BF002731658846E
311
D98AC1B77784ABF1D8FE5FBFBF75BBCE937A534CCEB38643598122B6FEE978D0B0485F9C41B54DDD7D022595594E1A469170414C76A4D9A4D207E29CF43ECE46F218070CC6BECC4078ACAA135ACF422C856C0E68EA1BF5669944DDD7BCDE7B1F8E415D77AECB980613C2E4AC91FC167A2B244592486606FC29C8FD7F045B9A
311
EF7053A7E60B504B0304140006080800104C8C40568D6078E90000007C01000008000000636F72652E786D6C8D905D6EC3201084AF82F61D9B3FB76984891A5739412F80803828315806AA1EBF3871A4F6AD12D2AE86F97657230FDFD30D7DB925F9187AA00D01E48289D687B18792CF7807E8A0E41263FE650314F4E47A58
311
6550725C629937C9C4905DC8550DD1BA4DD429B90CC8DC6AD343321737E946975C1DE9DACCDA5CF5E81AFAEC2A5C8AB7E8B1C4DB3ACF9FBD5B4091F7818BAEFBC01DE71D16C340F0919D381ED88E1C4F420CAF54C8768595CC7E7AEE378BD3D959508C508689C0947D92B73D67F561F2B22744B6ABFD0F5466FB4FA8F89039
311
DBCE7D600914AD87DC3F946CD72C6AB90755EB9A9BFA01504B0304140006080800104C8C4055019EA25F0000007C00000007000000636E782E786D6C4DCB3B0E80201045D1AD90E915ED2CF8AC45050C11660C8261F98AB1B07AC9C97D42D718D865D3E909258CFD00CCE24AC6E326A164D74DC0B4128928FF326038472BA1
311
3128B1252AC747C6BAB984FC68F0B87FE8960A5C09FE86CFB69FBA01504B0304140006080800104C8C4081C8845E64010000020300000C0000006662782F636F72652E786D6C8D525B6E833010BC8AE57F63F36AD3C8386AA872825EC001875A011B191BE5F85D1E519A2A8A221058333BBBB3037C77E95A342A37686B0A1C
311
470C23652A5B6BD31438F813D960B413DC59EBFF94616464A70A3CC158F0C6D9D0AF50658D57C6036A6CAD56500E83F218552D1C0A3C543FAA93910C1E2A8673D4CBEA2C1B15C511D05027F8E01D1840CB90E989C5E978E174C1050F41D72BAB6B98A64F5A392CD867996679FE45F234CD4956968CEC93434ACA64C3F6872C
311
2BDFE38CD3492CB8D7DDD55DE594F4AAC6226171425846E2E49B7D6CD3046EC2DEB68C713A95DF89425FBF280ADAF83459ED2EB2018B188CCCC4BF6D21228F0639821F2A389D4284D79CF07DD0100884ECE5B1BDEE7106685495B72E03A6B6E1468DB20D0AA632345F9C2E2C749E1BC0660FFB244FFA3CEF011F509A06AC49
311
0FC763F0D374BE4C5DA3E89523A3BF20635D27DB9BB9C5E2ED791BF4505ED9D6BA57D4745D95AE61D2E9EF15BF504B0304140006080800104C8C40023AD4267E0000009D0000000B0000006662782F636E782E786D6C4DCCD10A83201886E15B91FFDC554BC5408DB9D97DC4B290990EA76397BF1A1DECE883878F57F49FD5
311
A3B74D2F178384E65403B2E11E2717160925CF9803EA954831E6BF1BA030AE56C2CEA0C49262791E34D9792C3E6FEA5D781C38341D6BF5C0714B8CC6E4462F9877EC8CB5E194D4941943AF502951FD4ADBEE61F505504B0304140006080800104C8C40992A3CD92C01000015020000310000006662782F4631393633424638
311
2D333445422D344435412D383936322D4245383534303536454535432F636F72652E786D6C8D515B6EC32010BC8AC557FA810DF8213BC2444DEB9CA0172086A42831583CAA1CBFEBDA95DABF488845B333B323961F1ED33DFBD23E18677B447382326D47A78CBDF628C50B6E517610DC3B17FFD05066E5A47BB4C048F0AB77
311
69DEA0D1D9A86D04D43AA5375086A023CAC63B3C7A14C64F3DC95CA6088C70CB6739DEE455E7348736F0040FD143806C1DB2DC489C68D794C7538BCB6A38E2EABD7EC56DD7307C1CDABA2275330CF51B2F56A1E02919B5C98D8238E662B47FD664110B1ECDF41B7FF45A46AD906084324C2A4CD907E9F625838349B3278417
311
0BFD9F28CDEA49513236966C8BBBCA021294176B4370E5D2F9FE1B463F66E763B6CCDB053DBE204172425A52B28E55BC58B9F00360DA549B6988CEC30FEF6E67A0D37A756E2AC18B6549507E36087559A8F806504B0304140006080800104C8C40987387C44C01000033030000300000006662782F46313936334246382D33
311
3445422D344435412D383936322D4245383534303536454535432F636E782E786D6CD593CD6EC32010845F0571F76FACA88D30917AE813F4D02B864D4282C1E2A76ADEBE4B42D25C72E8B19285ACD96166F5C966DBEFD9902FF0413B3BD2AE6E29012B9DD2763FD21477D50B255BCEBC73F1C1468915338C34CB94B3BD7769
311
2992829D4826A26AB43D15D14370C94B0828E79BC438290C0680AD128A304FA014287237E2DB0E3CAE82E27426F100E4FDED93B8E9083206D6E414CE9ADCC1593E4BD3838912694408230DF200B3A8458A4E4138D54A445177F5ADEBC94EBF49245FB85526AF492E1F693E292F1BD5C8913538E42C448FF48A299E17A05C2C
311
8BD1524484DC5C8C570F6749DBB81E8A5723788FEE6EBD1A060CBBCC388B7A86E2901E44044579DF767DD50E55D77FB4AF9B558F4FD5AE376DCB9A6CE76C72CE944B1803DE2D443A1BC146CA3BD6E4F1337CC54794F6C8DAF9F31F402280D27AA573CFF8CF7C9ACBF78DB83CFE05FC07504B0304140006080800104C8C406A
311
9CF3F9A405000080100000340000006662782F46313936334246382D333445422D344435412D383936322D4245383534303536454535432F6F626A656374732E786D6CAD575D8F9B3814FD2B887DD97DC80749663A59315499A45345D5B455A356FB1029326018760C46B69966F6D7EF313604D2649A5DF52504737D7DEFB9
311
E77ED87FBBCF99F34C85CC7871EB7AC3B1EBD022E27156A4B76EA592C18DEBBC0D7CC1B9EA88B94E41727AEBEA6537F053C1ABD22EC53421155347ABF7777F3932A205759D8811296F5D193DD29C0C49A5784CE5D330268A0CD3643FF48646B0AF3615A47C3C525A12410B054BB15E408B638CF2FAAF637714F823FD3DF0F5
311
AF959A9E971AD5FEF4CFCF0AA94811FD70D8919AA9375BBD9B5CCD0757B3D97430BB9E7883BBFBBBD5C07B331D2FAF97CBF9E2DD1C074B25A0C95A2268E206EF818DC8227F643E057E95156A3AB122364023419F331D293798389E3F3232AD77D6C953E647BC2868546305346AFFACEA9896B48811F38C4A58D64168DC7FF5
311
348E9DCF53FD6E8FEC2E5F864077474751637BF3EC5ACAC3BFE182BC84414252CD4083A575D470757C4038E49CD96F997472A2A8C8087358160A225EDC00A25A24F07B6A349385CE06ED811B200AE6739F2E48A39FF3FC949549C598A6B11BD459B043AE50256BCBB27FA83858DF45063621569A0D37D621F5525237981B8A
311
DC1CB1C900E9248CA40839DCD43BA7932347973A4FD72B37F8701FEE373A774F1F5E0A5E52A1347D40AD2670CD53A3646DF22E8A9CDEE01E997200E50B90FF88543F9882B8896C3FDBCFEC294A9042265CE4888D33760663FC8C1DAFFED5FF3BFFFC51BBB91FBD737822D81AAA5F8067DF876E2C3B7006FE3308CFC5D4BAB6
311
890843D978C80A00A449E2308E25D4E124DCBBC11A550E5519BB080B3CB80C739FF1D71F59352814F5499D67012C8FCAE205051AB0D58C841986FCD6C0439C7E2867F5C156EC1CBC57BF84AE8BD5E6C3A6120989E883CDE9154DB22253687107DE740DEA61DEF3E889BE7CE72286A33FE2BDE9E29DDBA324D0D6986BE0D3A6
311
A6EB97C3C9BD0322EC4BB92E37FE4F4E8013BAB176F43F6432A28C9182F2AA39F7D5FE81B66120D6C9AE99DC369843630169CC97A31C44938E44566A10DB6ED516CDE119EFBEAE3F829190673C24EC20141E4A6FC41917BBF06567AAD249A4BFF5A96D2118692D607B9D234DFA5BCC7771962495440D3C01EBB7F5B21B3A5D
311
1550211AAD265966701FB94584E56CA317CD5A1034525EEC32B44DA4DDC903BAFA81A82540ADF09CC592B264973156E5BB24636846BB9C9467E0F8FFF687555EEE48CEAB429DD1DD331DCDA16F7B8FBCF23B51D1A31B6CEAE7E00EA537A6F121CC3D61DD4A4E60D50BED9BBB7757B3F96A319879D319C6A7F9627037B9BE1E
311
4CC6F3C5F57CF6C61BDFCD9B3819E581DF749A6E42234AE86C7E25321BBEAF6BA48FAD016EF04094DCBE37D9D93CBFAE871885FD11F6A05DB61B17F133C63E1AFF5CC141F2A4A2755E329AD342119D420FFA0FFB423066F48C31EBEB9CA4F4022D9FDE6F8E9CC1CA05FB3EEB74A7DF8FF6DAD5A54EC8934AD463958705C9D8
311
D1C6D420392C8BD4E2D7C4A47D9A3ED3BCEA371B180CA692B32C46198C9D94F29C2A14C30B7A90C8A904F5BA237D6CAF1E17EC7E3603A22221A38D258F04333293480B50AB8A547FDDF90D339D1EAB6E5D74DBE1137E6CA5701D70E6D6C58CAEB288CA6188FEAC27A15A39B8D41DE431F793226518B5CDA6F6BDDDA5B1E975
311
E456E492F1C9FA652AB8750065A4C4D8807908D1A98D09FCDA36FB3DFA4F8E37E63844E16F58A9D697C342EB4C7D0C52D438652F0B98619EECD17B24EAEB6E79C35AA687C84597AC574960B40E1411697D51D0F6599316ABCF230C28CEFA9353B22A452C2FD734101464AE748283456085D5591205AA2EFFDC7E161C17D9DC
311
B9CF4001E7F7FDCDF51FDB25CF735E98A5EDC25E879DCD232EB7F116C581EA5B89DC4EC6DE645BDF06EC05651712498724964F58406445D602DD0B3F7869AE8CE843E6432B37D2A13862E87AE5D8C63683524B976E6DD5E060EE28A8831CD2374A9D315D81F2D50BC1A816850902A37CF02F504B0304140006080000104C8C
311
40000000000000000000000000350000006662782F46313936334246382D333445422D344435412D383936322D4245383534303536454535432F76657274696365732E62696E504B0304140006080800104C8C40F270F1330600000004000000360000006662782F46313936334246382D333445422D344435412D38393632
311
2D4245383534303536454535432F747269616E676C65732E62696E636660600000504B0304140006080000104C8C40000000000000000000000000370000006662782F46313936334246382D333445422D344435412D383936322D4245383534303536454535432F617474726962757465732E62696E504B03041400060808
311
00104C8C40D5987DFC8F00000041010000360000006662782F46313936334246382D333445422D344435412D383936322D4245383534303536454535432F6469726563746F72792E786D6C858F410EC2201045AF4266AF15DDB800BA74E7C21B903225242D6328188F2FA5C4183471359997F9FF81E89FF3C41E1816475E02
311
DF1F80A11FC8386F25A438EECEC07A250251FC3803E6F58C12560C4AD840E95E91C151A72936F496F35732D860FE635F62C8F2DA16B505C545B74125BAA2FA9E05D7CC053D063734D5C7665FD55B6B8D15D5E9BFEAFD8490FFA45E504B0304140006080800104C8C4089E3AAC0FB000000A00100003B0000006662782F4631
311
3936334246382D333445422D344435412D383936322D4245383534303536454535432F7265736F75726365732F636F72652E786D6C8D505B6AC33010BC8AD97FD9B26CB76990151A434ED00B0869E388C492D1A3F4F8956217DABF82D02EF36087E1A7AFE5517DA20FC6D911DA9A428556396DEC3C428A577280EA24B8772E
311
FE924165E582231418049FBD4BEB0E296723DA9851EB34EEA00C012354EA91971182BAE1226B996256847BBD4A759733D66D9DE9AC133C449F0354DB91F283F0185CF20A036F3656F0948CDE3546E79BE66AD083A0EF53D70FC34486AE1B483F4D949CD9A523133BD0F3A5EFA7D7B6E74D310B1ECDF293517994113508465B
311
46684F5AF641DF8E1DCB8FD09723A5BC29F23FA6B4EA7F9A92B1B1637BDCCD1640B439C89310BC297DE5F12C33CFD2ADF806504B010214000A0000080000104C8C403DEE336E79000000790000001B00000000000000000000000000000000006175746F6465736B2D64657369676E2D7061636B6167652E786D6C504B0102
311
1400140006080800104C8C40D486FD9CA0000000F40000001300000000000000000000000000B20000005B436F6E74656E745F54797065735D2E786D6C504B01021400140006080800104C8C40568D6078E90000007C010000080000000000000000000000000083010000636F72652E786D6C504B01021400140006080800
311
104C8C4055019EA25F0000007C000000070000000000000000000000000092020000636E782E786D6C504B01021400140006080800104C8C4081C8845E64010000020300000C00000000000000000000000000160300006662782F636F72652E786D6C504B01021400140006080800104C8C40023AD4267E0000009D000000
311
0B00000000000000000000000000A40400006662782F636E782E786D6C504B01021400140006080800104C8C40992A3CD92C0100001502000031000000000000000000000000004B0500006662782F46313936334246382D333445422D344435412D383936322D4245383534303536454535432F636F72652E786D6C504B01
311
021400140006080800104C8C40987387C44C010000330300003000000000000000000000000000C60600006662782F46313936334246382D333445422D344435412D383936322D4245383534303536454535432F636E782E786D6C504B01021400140006080800104C8C406A9CF3F9A4050000801000003400000000000000
311
000000000000600800006662782F46313936334246382D333445422D344435412D383936322D4245383534303536454535432F6F626A656374732E786D6C504B01021400140006080000104C8C400000000000000000000000003500000000000000000000000000560E00006662782F46313936334246382D333445422D34
311
4435412D383936322D4245383534303536454535432F76657274696365732E62696E504B01021400140006080800104C8C40F270F13306000000040000003600000000000000000000000000A90E00006662782F46313936334246382D333445422D344435412D383936322D4245383534303536454535432F747269616E67
311
6C65732E62696E504B01021400140006080000104C8C400000000000000000000000003700000000000000000000000000030F00006662782F46313936334246382D333445422D344435412D383936322D4245383534303536454535432F617474726962757465732E62696E504B01021400140006080800104C8C40D5987D
311
FC8F000000410100003600000000000000000000000000580F00006662782F46313936334246382D333445422D344435412D383936322D4245383534303536454535432F6469726563746F72792E786D6C504B01021400140006080800104C8C4089E3AAC0FB000000A00100003B000000000000000000000000003B100000
311
6662782F46313936334246382D333445422D344435412D383936322D4245383534303536454535432F7265736F75726365732F636F72652E786D6C504B0506000000000E000E00800400008F1100000000
310
504B03040A0000080000104C8C403DEE336E79000000790000001B0000006175746F6465736B2D64657369676E2D7061636B6167652E786D6C3C3F786D6C2076657273696F6E3D22312E302220656E636F64696E673D227574662D3822203F3E3C666F726D6174733E3C666F726D61743E687474703A2F2F736368656D612E
310
6175746F6465736B2E636F6D2F64657369676E2D7061636B6167652F323030393C2F666F726D61743E3C2F666F726D6174733E504B0304140006080800104C8C40D486FD9CA0000000F4000000130000005B436F6E74656E745F54797065735D2E786D6C7D8EC10E82300C865F65E91D8A1E8C310C0EEA1BF002731658846E
310
D98AC1B77784ABF1D8FE5FBFBF75BBCE937A534CCEB38643598122B6FEE978D0B0485F9C41B54DDD7D022595594E1A469170414C76A4D9A4D207E29CF43ECE46F218070CC6BECC4078ACAA135ACF422C856C0E68EA1BF5669944DDD7BCDE7B1F8E415D77AECB980613C2E4AC91FC167A2B244592486606FC29C8FD7F045B9A
310
EF7053A7E60B504B0304140006080800104C8C40E2D74F8CE90000007C01000008000000636F72652E786D6C8D90516EC3201044AF82F61F1B6C879A0813D56A7A825E0001715162B00C543D7E71E248ED5F25A45D0DF37657234EDFF30D7DD935BAE007A0150164BD0EC6F969809C2EB8077492620D21FDB201F26AB6036C
310
324831AD212FBBA4834FD6A7A2FA60EC2EAA186D02A46FA51920EA4F3BAB4AE5541CF15A2D4A5FD5642BFAEC0A9CB333E8B1C49932CF5D9C5D41F69CF723A7233EB3EE05776FBCC3FC4C7A4C0F8CB58777D6B3D751D41B2C4572F373BF5EAD4AD6806C086D30E9306D3E083FB64D7998B02321A2DEEC7FA0BC987F42D9F9D4
310
36FBB90F2C82A4E590FB8714F5964529F7A04ADD72933F504B0304140006080800104C8C4055019EA25F0000007C00000007000000636E782E786D6C4DCB3B0E80201045D1AD90E915ED2CF8AC45050C11660C8261F98AB1B07AC9C97D42D718D865D3E909258CFD00CCE24AC6E326A164D74DC0B4128928FF326038472BA1
310
3128B1252AC747C6BAB984FC68F0B87FE8960A5C09FE86CFB69FBA01504B0304140006080800104C8C4060E7175B65010000020300000C0000006662782F636F72652E786D6C8D525B6E833010BC8AE57F63430885C8386AD4F404BD80631C8A02363236CAF1BB3CA23455145520B06676766707F8FEDAB568D46E68AC2971
310
1C318CB451B66A4C5DE2E0CF24C7682FB8B3D6FF2AC3C8C84E977882B1E0B5B3A15F21658DD7C6036A6CA557500E83F618A9160E251ED4B7EE642483878AE112F5525D64ADA338021AEA041FBC03036819323DB1389FAE9C2EB8E02134D5CA36154C6BCE8D7658E445911F8AF8408E59FA46D28F2225C591E524DE66D966FB
310
99E5D9FB81D3492CB86FBA9B3BE5B4F4BAC222617142584AE2E48B15BB4D023761D98E314EA7F20751E8AB7F8A4263FC2659ED2EB2018B188CCCC49F6D21228F0639821F2A389D4284D79CF063D0100884ECE5A9BDED710168D4CA5B970253D970A746D9060D53199A2F4E17163ACF0D60B3A77D92177D5EF7800F284D0DD6
310
A487E329F8693A5FA6AE51F4DA91D15F91B1AE93EDDDDC62F1FEBC0F7A2A57B6B5EE3F6ABAAE4AD730E9F4F78A1F504B0304140006080800104C8C40FB003DDE7D0000009D0000000B0000006662782F636E782E786D6C4DCCD10A83201886E15B91FFDC72CBC20335D4D87DC4B2909986D3D8E5AF46073BFAE0E1E3E5FD67
310
F568B7E9ED621070AB08201B9E7172611150F28C19A05EF21463FEBB010AE36A059C0C922F2996EDA2C9CE63F1F950EFC2EBC287524377670DD686504C3B4DB12264C05A19430C65AD6E5AA825AF7FA563CFB0FC02504B0304140006080800104C8C404C13A2D52B01000015020000310000006662782F4641414436323833
310
2D424330342D343642342D413030442D4241434330433438354233352F636F72652E786D6C8D515B6E833010BC8AE5AFF4C3600CA124328E80A827E8050838D44AB0911F558EDF752152FB17C9F25AB333B3232F3F3DE63BFA96D629A36B9C251423A907332A3DD538F82BA9303A096E8DF17F6818E97E96358E30167CB226
310
2C1B3418EDA5F6806A33CA0DEC9D931EA3E10E8F1ABBE14BCE7DD2070F0C774B967EB8F5934CB204DAC013DC790B01D03A24DE587C34CDB964554EDA8E16A428DB8234949E49DB741DED8A6ADFE67B9EAE42C14350E3265723C4515725EDAB26512CB857F333FE6065EFE58805A31923303E639FF470CC191C42CB23A53C8D
310
F47FA2B08C2F8A82D23E675BDC55E6B0C878BA36041F4DB8DC9F61E46331D6A3386FE7E4F086054D28ADDE19A307D0AC5CF801302D8BCDD47963E18777B70BD0736045E7B2103C8D4B82F2BB41A871A1E207504B0304140006080800104C8C40FED448D35301000033030000300000006662782F46414144363238332D4243
310
30342D343642342D413030442D4241434330433438354233352F636E782E786D6CBD93CD6AC33010845F45E8EEDF98900659811EFA043DF42A4B9B548D2C19FD94E6EDBB4A9434971C0AA56084991DCD2C1F36DB7DCD867C820FDAD99176754B0958E994B68791A6B8AF3694EC38F3CEC53B1B2556CC30D22C53CE0EDEA5A5
310
480AF6229988AAD1F658440FC1252F21A09C6F12E3A4301800B64A28C23C8152A0C8CD886F7BF0B80A8AD389C477202FCF6FC44D1F2063604D4EE1ACC91D9CE5B334DD992891468430D220DF6116B548D12908C75A8928EAAEBE763DD8E92789E40BD7CAE435C9E523CD27E565A31A39B206879C85E8915E31C5D302948B65
310
315A8A88909BB3F1E2E12C691BD743F16A04EFD1BDEAD79B0D869D679C453D4371480F2282A2BC6FBBBE6A87AAEB5FDBA7EDAAC7A76AD7DBB6654DB673363967CA258C01EF16229D8D6023E51D6BF2F811BEE2234A7B64EDFCE91720114069BDD0B965FC259F6EBD1A867FE4D39CBF6FC4E5F12FE0DF504B03041400060808
310
00104C8C40AC77974462070000991B0000340000006662782F46414144363238332D424330342D343642342D413030442D4241434330433438354233352F6F626A656374732E786D6CED595B739B3814FE2B0CFBB2FB606C6C278D77083BB9341D4F276DA7DE76F6C1338C0C32D14608461289B3BF7E8F2E602026C1DBEC5B
310
1F6C404847E77CE7AA43F0C72EA3CE03E682E4ECDCF5BD89EB6016E70961E9B95BCAEDE8CC75FE08039EE7B231CD7518CAF0B9AB86DD3048795E167628C15B5452D919BDB9FCCB113166D875628A843877457C8733E4A152E60916F75E8224F2D2EDCEF33D33B14D36E5A8B8EB102D10C74C02A730CE808A6398F2DB8F1377
310
1C0663F53E0CD4BF9D351B346BDE3F6BACA56E7349989088C5CF58EA90990D6269E6CFAFDF4F4F16A393F97C369A9F4EFDD1E5CDE5F5C87F379B5C9D5E5D2D2EDE2F80BD4D9E532B53820BCC12D0DF931BFAC158BDA945B7081CE23ACE19C3B10612A0D2627509122C60AB067C93F6A3AF246ABCD612369EE7EABD65A1313C
310
6B53E99B350C88165D10C46E57495C5D9BF2E59BBF417031C428B9C012B8159283762D3C1CBCC20D27C1D88C86C166AF0B229C0C49CC09A20E251B8E382805A6AA296160165832CA3938907294045A73E675DBB6C0335F779D435C6E4B4A9567B8A176AC08DC0F4BA13923FF60BEE7BE890CF004D29684C933CBA57C2AB01B
310
2E82B11E0C0375994DED4B03A4B3A528151A11F3B623E89572FDE5B51B7EBCD9EC562A1C1CDEBCE07981B95446A7F4A8F90243B6578592DDD61FA439B5008431A0DA957B50BE02F29F207AEC5901BD71B29BEFE676AEE488896DCE33D08D33714613F89B38BEFE57F78DBB605C2F6E6BAF0F4F705305D5D98FE3D996416365
310
F96FC019060F60F0399FD957AB1851B0E75BC2002065240ECD610842FB76B373C325044E08F4B00AD1D0079181DD07B80DC696CC5E2B957B59AF6380A8DD63364449009BB64860A3474F1F207B7012EFD5D414B10FDE933731D78BEBD5C755C9B728C6B7D6A7AFF1963022216B1E66A885794BA27BFCF498F304047D8EF7AA
310
897766B71280B6C25C019F5620A887FDCEAD0D625897E62ADC04AFEC0042A85CDDA07F4B448C29450CE765B56F1DDD94A1D61E6F6B06379C1A8867D38E0973FC405455014EB39FD16214F27ECC49A14074C30F46B23A687A3DD27D5B7E028BACE7F7CC5A3208BD0CD13F75D03A8043CBB22BA42D10B5C09B7D388F739AF368
310
F3149948E7422D016CB4BDE57B8B28C47AA32445053C48FB5D155252236D9490EDB61410570FB0F87D79D534878937F34F9CE67FC719E7106DC17711B77ED7D92322194A71B44549DF76CDDD6ADA4293EC21CDF196825CE481C8A708C96892E0F418688E22BE7853EA29CD85200C0BC85707C16FA231F12090186D562C2BAD
310
76802622CAB044F4180414991E7075DAD1356E0CA5C3EB3CD6D6FB92C69A44FF278BE0086AC99C45044A51C821AF32EE7B271043DAE81A943BF882B555B4B518B48412227E8A1E3149EFE431A81BF23DB8C77024296594172806B31E40F699AF28A57678DFA0F85EE58F282EE95B1988C0741B114ACB2C821F6170F218E2DA
310
75607A1185067113FB24CEA02843B2E44336393D993CDBC7D40CDD10D8D8684B2884ED2843450FEAAD80A8EB11A706DF52EF51EAA6CC8A086579C906198A37EB7A9325DF55AB223B905F552A42D95811B604C380305967D52A6683A9EBC00A6EA403D55324505650730A7B25F1F8B53769CABD1B70EBA76FBB4106855F8FF6
310
9A11755EC160796C1506E211C9F8CE0D57FA3ABA84FA3BC1C93ED557B566B30204C454242F39B12AFAB684F2C6D6686E788BA4587F3059B7BA7E5B7AD0FD08C6B0066A977AE152019D612691AA4C6ED50DFD8A2004B76898F1A5CAA9C750B948125D35227A43FAD4D92A235A9B66C42BEE30CB33F8B13561312D13BC4689B8
310
8F6E258D5644B16EA5F4325261FCA2809F3FAC3AF0C0C80091BEA8020F3F76D6DAD12B552E1D2422EFCA6CC3108120D8122D35BAF10A965A8D545AAEAFEA4C017517189855F1FCE7C9A2D98EF879B248AD61FCD8C982E61B44F7D1A691CD6365D6479D02EAF4A4A8BCC52940771D6AAA751231B9DC8A6F7D2982985805F9C1
310
C55815330CC13E8EFF73D2EE4B8266BB0EFFC7256DFF59C1715452694D564DAA0385EBB299C2DE5DBE3F992FAE2F46737F3687FEECE26274393D3D1D4D278B8BD3C5FC9D3FB95CD4686A3F0D833A96E9D405CF26A655C3EAC962004D59915392C0613E71520C215FC2917E40F79C675840EE6CF6BA13DB931FB0FAC1B43925
310
DA505C717287A03F4C056475C0A88C657BDCF9053A9312CED9E72EF48CBC7BF8B356E93A9078CE5DE814481263E16DA0CBA4FA799A38645C9DFA2D31C007B1546544B3A87EAE57296C5AD1BF9E32240B58B95A2D0CA8DB0A687EB51A149A37CB537C94E0153B0E9270BB2925146B4696FD402D8CDE66AF7E231B25ECDE6EBD
310
03D77D592CDFD3735A880CFA62F0A21118AA238978AADBDD8A31CBD2C5F59731B4D99CE567A7A0650ABA1C4E69C4311873A9EA29B022B00A4BB340124CF5EAF7F5179EC3179ECCD14591F3EBEEECF4B7F5559E65393343EB0B389425F09DC859DDC1579F640DB50356BD75B19E4EFCE95AF7B46D9B3DDA20813D5514C14055
310
4B28413A260776F9AC3F65BB9763A58ACEF4E5B5638328F4028C1D3D6BF19A6F5C0EF890FA9AA23C46FB7925ED8B6DEDB19E0A36C1A1211DFE0B504B0304140006080000104C8C40000000000000000000000000350000006662782F46414144363238332D424330342D343642342D413030442D4241434330433438354233
310
352F76657274696365732E62696E504B0304140006080800104C8C40F270F1330600000004000000360000006662782F46414144363238332D424330342D343642342D413030442D4241434330433438354233352F747269616E676C65732E62696E636660600000504B0304140006080000104C8C40000000000000000000
310
000000370000006662782F46414144363238332D424330342D343642342D413030442D4241434330433438354233352F617474726962757465732E62696E504B0304140006080800104C8C40D5987DFC8F00000041010000360000006662782F46414144363238332D424330342D343642342D413030442D42414343304334
310
38354233352F6469726563746F72792E786D6C858F410EC2201045AF4266AF15DDB800BA74E7C21B903225242D6328188F2FA5C4183471359997F9FF81E89FF3C41E1816475E02DF1F80A11FC8386F25A438EECEC07A250251FC3803E6F58C12560C4AD840E95E91C151A72936F496F35732D860FE635F62C8F2DA16B505C5
310
45B74125BAA2FA9E05D7CC053D063734D5C7665FD55B6B8D15D5E9BFEAFD8490FFA45E504B0304140006080800104C8C408A3D12BDFC000000A00100003B0000006662782F46414144363238332D424330342D343642342D413030442D4241434330433438354233352F7265736F75726365732F636F72652E786D6C8D505B
310
6E833010BC0ADA7F830D8442641C256A7A825EC0321B6A25D8C88FAAC7AF1DA8D4FE55B2BCAB796847C34F5FCBA3F844E7B53523B092428146D9499B7984186EA487E224B8B336FC924161E482236418049F9D8DEB0E296B029A90506327DC41E93D0628D4232D2378F5818B2C650C49E1EFE52AD55DCE58B232D14927B80F
310
2E0528B623F907E1D0DBE8147A5E6DACE031EA69D7E829DDD4378D0E443F0CFD65606772EDDA17D2BE0E2D19AEB427ECD075CDE1ADEBBBF38557D92C78D0CB4F46E550069C40D494D584B684D5EF743836757A8476474A7995E57F4C719DFE698ADA84A6DEE36E360F82A5204F42F02AF795C6B3CC3473B7E21B504B010214
310
000A0000080000104C8C403DEE336E79000000790000001B00000000000000000000000000000000006175746F6465736B2D64657369676E2D7061636B6167652E786D6C504B01021400140006080800104C8C40D486FD9CA0000000F40000001300000000000000000000000000B20000005B436F6E74656E745F54797065
310
735D2E786D6C504B01021400140006080800104C8C40E2D74F8CE90000007C010000080000000000000000000000000083010000636F72652E786D6C504B01021400140006080800104C8C4055019EA25F0000007C000000070000000000000000000000000092020000636E782E786D6C504B01021400140006080800104C
310
8C4060E7175B65010000020300000C00000000000000000000000000160300006662782F636F72652E786D6C504B01021400140006080800104C8C40FB003DDE7D0000009D0000000B00000000000000000000000000A50400006662782F636E782E786D6C504B01021400140006080800104C8C404C13A2D52B0100001502
310
000031000000000000000000000000004B0500006662782F46414144363238332D424330342D343642342D413030442D4241434330433438354233352F636F72652E786D6C504B01021400140006080800104C8C40FED448D353010000330300003000000000000000000000000000C50600006662782F4641414436323833
310
2D424330342D343642342D413030442D4241434330433438354233352F636E782E786D6C504B01021400140006080800104C8C40AC77974462070000991B00003400000000000000000000000000660800006662782F46414144363238332D424330342D343642342D413030442D4241434330433438354233352F6F626A65
310
6374732E786D6C504B01021400140006080000104C8C4000000000000000000000000035000000000000000000000000001A1000006662782F46414144363238332D424330342D343642342D413030442D4241434330433438354233352F76657274696365732E62696E504B01021400140006080800104C8C40F270F13306
310
0000000400000036000000000000000000000000006D1000006662782F46414144363238332D424330342D343642342D413030442D4241434330433438354233352F747269616E676C65732E62696E504B01021400140006080000104C8C400000000000000000000000003700000000000000000000000000C71000006662
310
782F46414144363238332D424330342D343642342D413030442D4241434330433438354233352F617474726962757465732E62696E504B01021400140006080800104C8C40D5987DFC8F0000004101000036000000000000000000000000001C1100006662782F46414144363238332D424330342D343642342D413030442D
310
4241434330433438354233352F6469726563746F72792E786D6C504B01021400140006080800104C8C408A3D12BDFC000000A00100003B00000000000000000000000000FF1100006662782F46414144363238332D424330342D343642342D413030442D4241434330433438354233352F7265736F75726365732F636F7265
310
2E786D6C504B0506000000000E000E0080040000541300000000
  0
XRECORD
  5
27
102
{ACAD_REACTORS
330
22
102
}
330
22
100
AcDbXrecord
280
     1
270
     1
271
     1
  0
XRECORD
  5
26
102
{ACAD_REACTORS
330
22
102
}
330
22
100
AcDbXrecord
280
     1
270
     1
271
     1
  0
XRECORD
  5
28
102
{ACAD_REACTORS
330
22
102
}
330
22
100
AcDbXrecord
280
     1
270
     1
271
     1
  0
XRECORD
  5
25
102
{ACAD_REACTORS
330
22
102
}
330
22
100
AcDbXrecord
280
     1
270
     1
271
     1
  0
XRECORD
  5
25C
102
{ACAD_REACTORS
330
1A8
102
}
330
1A8
100
AcDbXrecord
280
     1
102
MATERIAL
148
0.0
149
0.0
149
0.0
 93
        0
 94
      127
282
     0
 72
     1
 77
     0
171
     1
175
     0
179
     1
273
     0
  0
XRECORD
  5
1A9
102
{ACAD_REACTORS
330
1A8
102
}
330
1A8
100
AcDbXrecord
280
     1
300
<Material id="RevitMaterialDefinition97641" app="REVIT" Background="0" Backlight="1" Sample="0" Tiling="0">^J<LinearUnits unitType="foot" unitScale="1.0"/>^J<ArchitecturalMaterial name="Aluminum - Kawneer - Clear">^J<ArchTemplateParameters name="Aluminum - K
300
awneer - Clear" classid_A="2008828122" classid_B="14503598">^J</ArchTemplateParameters>^J<ArchMatParameters>^J<ArchDiffuseColor>^J<RGBf r="0.8980" g="0.8980" b="0.8980"/>^J</ArchDiffuseColor>^J<ArchIndexOfRefraction>1.5000</ArchIndexOfRefraction>^J<ArchTranspare
300
ncy>0.0000</ArchTransparency>^J<ArchLuminance>0.0000</ArchLuminance>^J</ArchMatParameters>^J</ArchitecturalMaterial>^J</Material>^J
  0
CELLSTYLEMAP
  5
21E
102
{ACAD_REACTORS
330
21D
102
}
330
21D
100
AcDbCellStyleMap
 90
        3
300
CELLSTYLE
  1
TABLEFORMAT_BEGIN
 90
        5
170
     1
 91
        0
 92
    32768
 62
   257
 93
        1
300
CONTENTFORMAT
  1
CONTENTFORMAT_BEGIN
 90
        0
 91
        0
 92
      512
 93
        0
300

 40
0.0
140
1.0
 94
        5
 62
     0
340
55
144
0.25
309
CONTENTFORMAT_END
171
     0
 94
        0
309
TABLEFORMAT_END
  1
CELLSTYLE_BEGIN
 90
        1
 91
        1
300
_TITLE
309
CELLSTYLE_END
300
CELLSTYLE
  1
TABLEFORMAT_BEGIN
 90
        5
170
     1
 91
        0
 92
        0
 62
   257
 93
        1
300
CONTENTFORMAT
  1
CONTENTFORMAT_BEGIN
 90
        0
 91
        0
 92
      512
 93
        0
300

 40
0.0
140
1.0
 94
        5
 62
     0
340
55
144
0.18
309
CONTENTFORMAT_END
171
     0
 94
        0
309
TABLEFORMAT_END
  1
CELLSTYLE_BEGIN
 90
        2
 91
        1
300
_HEADER
309
CELLSTYLE_END
300
CELLSTYLE
  1
TABLEFORMAT_BEGIN
 90
        5
170
     1
 91
        0
 92
        0
 62
   257
 93
        1
300
CONTENTFORMAT
  1
CONTENTFORMAT_BEGIN
 90
        0
 91
        0
 92
      512
 93
        0
300

 40
0.0
140
1.0
 94
        2
 62
     0
340
55
144
0.18
309
CONTENTFORMAT_END
171
     0
 94
        0
309
TABLEFORMAT_END
  1
CELLSTYLE_BEGIN
 90
        3
 91
        2
300
_DATA
309
CELLSTYLE_END
  0
XRECORD
  5
254
102
{ACAD_REACTORS
330
21D
102
}
330
21D
100
AcDbXrecord
280
     1
102
ACAD_ROUNDTRIP_PRE2007_TABLESTYLE
 90
      512
 91
        0
  1

 92
      512
 93
        0
  2

 94
      512
 95
        0
  3

  0
XRECORD
  5
22F
102
{ACAD_REACTORS
330
22E
102
}
330
22E
100
AcDbXrecord
280
     1
102
RTVSPropertyOp0
 70
     1
102
RTVSPropertyOp1
 70
     1
102
RTVSPropertyOp2
 70
     1
102
RTVSPropertyOp3
 70
     1
102
RTVSPropertyOp4
 70
     1
102
RTVSPropertyOp5
 70
     1
102
RTVSPropertyOp6
 70
     1
102
RTVSPropertyOp7
 70
     1
102
RTVSPropertyOp8
 70
     1
102
RTVSPropertyOp9
 70
     1
102
RTVSPropertyOp10
 70
     1
102
RTVSPropertyOp11
 70
     1
102
RTVSPropertyOp12
 70
     1
102
RTVSPropertyOp13
 70
     1
102
RTVSPropertyOp14
 70
     1
102
RTVSPropertyOp15
 70
     1
102
RTVSPropertyOp16
 70
     1
102
RTVSPropertyOp17
 70
     1
102
RTVSPropertyOp18
 70
     1
102
RTVSPropertyOp19
 70
     1
102
RTVSPropertyOp20
 70
     1
102
RTVSPropertyOp21
 70
     1
102
RTVSPropertyOp22
 70
     1
102
RTVSPropertyOp23
 70
     1
102
RTVSPropertyOp24
 70
     1
102
RTVSPropertyOp25
 70
     1
102
RTVSPropertyOp26
 70
     1
102
RTVSPropertyOp27
 70
     1
102
RTVSPropertyOp28
 70
     1
102
RTVSPropertyOp29
 70
     1
102
RTVSPropertyOp30
 70
     1
102
RTVSPropertyOp31
 70
     1
102
RTVSPropertyOp32
 70
     1
  0
XRECORD
  5
22D
102
{ACAD_REACTORS
330
22C
102
}
330
22C
100
AcDbXrecord
280
     1
102
RTVSPropertyOp0
 70
     1
102
RTVSPropertyOp1
 70
     1
102
RTVSPropertyOp2
 70
     1
102
RTVSPropertyOp3
 70
     1
102
RTVSPropertyOp4
 70
     1
102
RTVSPropertyOp5
 70
     1
102
RTVSPropertyOp6
 70
     1
102
RTVSPropertyOp7
 70
     1
102
RTVSPropertyOp8
 70
     1
102
RTVSPropertyOp9
 70
     1
102
RTVSPropertyOp10
 70
     1
102
RTVSPropertyOp11
 70
     1
102
RTVSPropertyOp12
 70
     1
102
RTVSPropertyOp13
 70
     1
102
RTVSPropertyOp14
 70
     1
102
RTVSPropertyOp15
 70
     1
102
RTVSPropertyOp16
 70
     1
102
RTVSPropertyOp17
 70
     1
102
RTVSPropertyOp18
 70
     1
102
RTVSPropertyOp19
 70
     1
102
RTVSPropertyOp20
 70
     1
102
RTVSPropertyOp21
 70
     1
102
RTVSPropertyOp22
 70
     1
102
RTVSPropertyOp23
 70
     1
102
RTVSPropertyOp24
 70
     1
102
RTVSPropertyOp25
 70
     1
102
RTVSPropertyOp26
 70
     1
102
RTVSPropertyOp27
 70
     1
102
RTVSPropertyOp28
 70
     1
102
RTVSPropertyOp29
 70
     1
102
RTVSPropertyOp30
 70
     1
102
RTVSPropertyOp31
 70
     1
102
RTVSPropertyOp32
 70
     1
  0
XRECORD
  5
23B
102
{ACAD_REACTORS
330
23A
102
}
330
23A
100
AcDbXrecord
280
     1
102
RTVSPropertyOp0
 70
     1
102
RTVSPropertyOp1
 70
     1
102
RTVSPropertyOp2
 70
     1
102
RTVSPropertyOp3
 70
     1
102
RTVSPropertyOp4
 70
     1
102
RTVSPropertyOp5
 70
     1
102
RTVSPropertyOp6
 70
     1
102
RTVSPropertyOp7
 70
     1
102
RTVSPropertyOp8
 70
     1
102
RTVSPropertyOp9
 70
     1
102
RTVSPropertyOp10
 70
     1
102
RTVSPropertyOp11
 70
     1
102
RTVSPropertyOp12
 70
     1
102
RTVSPropertyOp13
 70
     1
102
RTVSPropertyOp14
 70
     1
102
RTVSPropertyOp15
 70
     1
102
RTVSPropertyOp16
 70
     1
102
RTVSPropertyOp17
 70
     1
102
RTVSPropertyOp18
 70
     1
102
RTVSPropertyOp19
 70
     1
102
RTVSPropertyOp20
 70
     1
102
RTVSPropertyOp21
 70
     1
102
RTVSPropertyOp22
 70
     1
102
RTVSPropertyOp23
 70
     1
102
RTVSPropertyOp24
 70
     1
102
RTVSPropertyOp25
 70
     1
102
RTVSPropertyOp26
 70
     1
102
RTVSPropertyOp27
 70
     1
102
RTVSPropertyOp28
 70
     1
102
RTVSPropertyOp29
 70
     1
102
RTVSPropertyOp30
 70
     1
102
RTVSPropertyOp31
 70
     1
102
RTVSPropertyOp32
 70
     1
  0
XRECORD
  5
243
102
{ACAD_REACTORS
330
242
102
}
330
242
100
AcDbXrecord
280
     1
102
RTVSPropertyOp0
 70
     1
102
RTVSPropertyOp1
 70
     1
102
RTVSPropertyOp2
 70
     1
102
RTVSPropertyOp3
 70
     1
102
RTVSPropertyOp4
 70
     1
102
RTVSPropertyOp5
 70
     1
102
RTVSPropertyOp6
 70
     1
102
RTVSPropertyOp7
 70
     1
102
RTVSPropertyOp8
 70
     1
102
RTVSPropertyOp9
 70
     1
102
RTVSPropertyOp10
 70
     1
102
RTVSPropertyOp11
 70
     1
102
RTVSPropertyOp12
 70
     1
102
RTVSPropertyOp13
 70
     1
102
RTVSPropertyOp14
 70
     1
102
RTVSPropertyOp15
 70
     1
102
RTVSPropertyOp16
 70
     1
102
RTVSPropertyOp17
 70
     1
102
RTVSPropertyOp18
 70
     1
102
RTVSPropertyOp19
 70
     1
102
RTVSPropertyOp20
 70
     1
102
RTVSPropertyOp21
 70
     1
102
RTVSPropertyOp22
 70
     1
102
RTVSPropertyOp23
 70
     1
102
RTVSPropertyOp24
 70
     1
102
RTVSPropertyOp25
 70
     1
102
RTVSPropertyOp26
 70
     1
102
RTVSPropertyOp27
 70
     1
102
RTVSPropertyOp28
 70
     1
102
RTVSPropertyOp29
 70
     1
102
RTVSPropertyOp30
 70
     1
102
RTVSPropertyOp31
 70
     1
102
RTVSPropertyOp32
 70
     1
  0
XRECORD
  5
235
102
{ACAD_REACTORS
330
234
102
}
330
234
100
AcDbXrecord
280
     1
102
RTVSPropertyOp0
 70
     1
102
RTVSPropertyOp1
 70
     1
102
RTVSPropertyOp2
 70
     1
102
RTVSPropertyOp3
 70
     1
102
RTVSPropertyOp4
 70
     1
102
RTVSPropertyOp5
 70
     1
102
RTVSPropertyOp6
 70
     1
102
RTVSPropertyOp7
 70
     1
102
RTVSPropertyOp8
 70
     1
102
RTVSPropertyOp9
 70
     1
102
RTVSPropertyOp10
 70
     1
102
RTVSPropertyOp11
 70
     1
102
RTVSPropertyOp12
 70
     1
102
RTVSPropertyOp13
 70
     1
102
RTVSPropertyOp14
 70
     1
102
RTVSPropertyOp15
 70
     1
102
RTVSPropertyOp16
 70
     1
102
RTVSPropertyOp17
 70
     1
102
RTVSPropertyOp18
 70
     1
102
RTVSPropertyOp19
 70
     1
102
RTVSPropertyOp20
 70
     1
102
RTVSPropertyOp21
 70
     1
102
RTVSPropertyOp22
 70
     1
102
RTVSPropertyOp23
 70
     1
102
RTVSPropertyOp24
 70
     1
102
RTVSPropertyOp25
 70
     1
102
RTVSPropertyOp26
 70
     1
102
RTVSPropertyOp27
 70
     1
102
RTVSPropertyOp28
 70
     1
102
RTVSPropertyOp29
 70
     1
102
RTVSPropertyOp30
 70
     1
102
RTVSPropertyOp31
 70
     1
102
RTVSPropertyOp32
 70
     1
  0
XRECORD
  5
239
102
{ACAD_REACTORS
330
238
102
}
330
238
100
AcDbXrecord
280
     1
102
RTVSPropertyOp0
 70
     1
102
RTVSPropertyOp1
 70
     1
102
RTVSPropertyOp2
 70
     1
102
RTVSPropertyOp3
 70
     1
102
RTVSPropertyOp4
 70
     1
102
RTVSPropertyOp5
 70
     1
102
RTVSPropertyOp6
 70
     1
102
RTVSPropertyOp7
 70
     1
102
RTVSPropertyOp8
 70
     1
102
RTVSPropertyOp9
 70
     1
102
RTVSPropertyOp10
 70
     1
102
RTVSPropertyOp11
 70
     1
102
RTVSPropertyOp12
 70
     1
102
RTVSPropertyOp13
 70
     1
102
RTVSPropertyOp14
 70
     1
102
RTVSPropertyOp15
 70
     1
102
RTVSPropertyOp16
 70
     1
102
RTVSPropertyOp17
 70
     1
102
RTVSPropertyOp18
 70
     1
102
RTVSPropertyOp19
 70
     1
102
RTVSPropertyOp20
 70
     1
102
RTVSPropertyOp21
 70
     1
102
RTVSPropertyOp22
 70
     1
102
RTVSPropertyOp23
 70
     1
102
RTVSPropertyOp24
 70
     1
102
RTVSPropertyOp25
 70
     1
102
RTVSPropertyOp26
 70
     1
102
RTVSPropertyOp27
 70
     1
102
RTVSPropertyOp28
 70
     1
102
RTVSPropertyOp29
 70
     1
102
RTVSPropertyOp30
 70
     1
102
RTVSPropertyOp31
 70
     1
102
RTVSPropertyOp32
 70
     1
  0
XRECORD
  5
253
102
{ACAD_REACTORS
330
252
102
}
330
252
100
AcDbXrecord
280
     1
102
RTVSPropertyOp0
 70
     0
102
RTVSPropertyOp1
 70
     0
102
RTVSPropertyOp2
 70
     0
102
RTVSPropertyOp3
 70
     0
102
RTVSPropertyOp4
 70
     0
102
RTVSPropertyOp5
 70
     0
102
RTVSPropertyOp6
 70
     0
102
RTVSPropertyOp7
 70
     0
102
RTVSPropertyOp8
 70
     0
102
RTVSPropertyOp9
 70
     0
102
RTVSPropertyOp10
 70
     0
102
RTVSPropertyOp11
 70
     0
102
RTVSPropertyOp12
 70
     0
102
RTVSPropertyOp13
 70
     0
102
RTVSPropertyOp14
 70
     2
102
RTVSPropertyOp15
 70
     0
102
RTVSPropertyOp16
 70
     0
102
RTVSPropertyOp17
 70
     0
102
RTVSPropertyOp18
 70
     0
102
RTVSPropertyOp19
 70
     0
102
RTVSPropertyOp20
 70
     0
102
RTVSPropertyOp21
 70
     0
102
RTVSPropertyOp22
 70
     0
102
RTVSPropertyOp23
 70
     0
102
RTVSPropertyOp24
 70
     0
102
RTVSPropertyOp25
 70
     0
102
RTVSPropertyOp26
 70
     0
102
RTVSPropertyOp27
 70
     0
102
RTVSPropertyOp28
 70
     1
102
RTVSPropertyOp29
 70
     1
102
RTVSPropertyOp30
 70
     1
102
RTVSPropertyOp31
 70
     1
102
RTVSPropertyOp32
 70
     1
  0
XRECORD
  5
241
102
{ACAD_REACTORS
330
240
102
}
330
240
100
AcDbXrecord
280
     1
102
RTVSPropertyOp0
 70
     1
102
RTVSPropertyOp1
 70
     1
102
RTVSPropertyOp2
 70
     1
102
RTVSPropertyOp3
 70
     1
102
RTVSPropertyOp4
 70
     1
102
RTVSPropertyOp5
 70
     1
102
RTVSPropertyOp6
 70
     1
102
RTVSPropertyOp7
 70
     1
102
RTVSPropertyOp8
 70
     1
102
RTVSPropertyOp9
 70
     1
102
RTVSPropertyOp10
 70
     1
102
RTVSPropertyOp11
 70
     1
102
RTVSPropertyOp12
 70
     1
102
RTVSPropertyOp13
 70
     1
102
RTVSPropertyOp14
 70
     1
102
RTVSPropertyOp15
 70
     1
102
RTVSPropertyOp16
 70
     1
102
RTVSPropertyOp17
 70
     1
102
RTVSPropertyOp18
 70
     1
102
RTVSPropertyOp19
 70
     1
102
RTVSPropertyOp20
 70
     1
102
RTVSPropertyOp21
 70
     1
102
RTVSPropertyOp22
 70
     1
102
RTVSPropertyOp23
 70
     1
102
RTVSPropertyOp24
 70
     1
102
RTVSPropertyOp25
 70
     1
102
RTVSPropertyOp26
 70
     1
102
RTVSPropertyOp27
 70
     1
102
RTVSPropertyOp28
 70
     1
102
RTVSPropertyOp29
 70
     1
102
RTVSPropertyOp30
 70
     1
102
RTVSPropertyOp31
 70
     1
102
RTVSPropertyOp32
 70
     1
  0
XRECORD
  5
225
102
{ACAD_REACTORS
330
224
102
}
330
224
100
AcDbXrecord
280
     1
102
RTVSPropertyOp0
 70
     1
102
RTVSPropertyOp1
 70
     1
102
RTVSPropertyOp2
 70
     1
102
RTVSPropertyOp3
 70
     1
102
RTVSPropertyOp4
 70
     1
102
RTVSPropertyOp5
 70
     1
102
RTVSPropertyOp6
 70
     1
102
RTVSPropertyOp7
 70
     1
102
RTVSPropertyOp8
 70
     1
102
RTVSPropertyOp9
 70
     1
102
RTVSPropertyOp10
 70
     1
102
RTVSPropertyOp11
 70
     1
102
RTVSPropertyOp12
 70
     1
102
RTVSPropertyOp13
 70
     1
102
RTVSPropertyOp14
 70
     1
102
RTVSPropertyOp15
 70
     1
102
RTVSPropertyOp16
 70
     1
102
RTVSPropertyOp17
 70
     1
102
RTVSPropertyOp18
 70
     1
102
RTVSPropertyOp19
 70
     1
102
RTVSPropertyOp20
 70
     1
102
RTVSPropertyOp21
 70
     1
102
RTVSPropertyOp22
 70
     1
102
RTVSPropertyOp23
 70
     1
102
RTVSPropertyOp24
 70
     1
102
RTVSPropertyOp25
 70
     1
102
RTVSPropertyOp26
 70
     1
102
RTVSPropertyOp27
 70
     1
102
RTVSPropertyOp28
 70
     1
102
RTVSPropertyOp29
 70
     1
102
RTVSPropertyOp30
 70
     1
102
RTVSPropertyOp31
 70
     1
102
RTVSPropertyOp32
 70
     1
  0
XRECORD
  5
227
102
{ACAD_REACTORS
330
226
102
}
330
226
100
AcDbXrecord
280
     1
102
RTVSPropertyOp0
 70
     1
102
RTVSPropertyOp1
 70
     1
102
RTVSPropertyOp2
 70
     1
102
RTVSPropertyOp3
 70
     1
102
RTVSPropertyOp4
 70
     1
102
RTVSPropertyOp5
 70
     1
102
RTVSPropertyOp6
 70
     1
102
RTVSPropertyOp7
 70
     1
102
RTVSPropertyOp8
 70
     1
102
RTVSPropertyOp9
 70
     1
102
RTVSPropertyOp10
 70
     1
102
RTVSPropertyOp11
 70
     1
102
RTVSPropertyOp12
 70
     1
102
RTVSPropertyOp13
 70
     1
102
RTVSPropertyOp14
 70
     1
102
RTVSPropertyOp15
 70
     1
102
RTVSPropertyOp16
 70
     1
102
RTVSPropertyOp17
 70
     1
102
RTVSPropertyOp18
 70
     1
102
RTVSPropertyOp19
 70
     1
102
RTVSPropertyOp20
 70
     1
102
RTVSPropertyOp21
 70
     1
102
RTVSPropertyOp22
 70
     1
102
RTVSPropertyOp23
 70
     1
102
RTVSPropertyOp24
 70
     1
102
RTVSPropertyOp25
 70
     1
102
RTVSPropertyOp26
 70
     1
102
RTVSPropertyOp27
 70
     1
102
RTVSPropertyOp28
 70
     1
102
RTVSPropertyOp29
 70
     1
102
RTVSPropertyOp30
 70
     1
102
RTVSPropertyOp31
 70
     1
102
RTVSPropertyOp32
 70
     1
  0
XRECORD
  5
229
102
{ACAD_REACTORS
330
228
102
}
330
228
100
AcDbXrecord
280
     1
102
RTVSPropertyOp0
 70
     1
102
RTVSPropertyOp1
 70
     1
102
RTVSPropertyOp2
 70
     1
102
RTVSPropertyOp3
 70
     1
102
RTVSPropertyOp4
 70
     1
102
RTVSPropertyOp5
 70
     1
102
RTVSPropertyOp6
 70
     1
102
RTVSPropertyOp7
 70
     1
102
RTVSPropertyOp8
 70
     1
102
RTVSPropertyOp9
 70
     1
102
RTVSPropertyOp10
 70
     1
102
RTVSPropertyOp11
 70
     1
102
RTVSPropertyOp12
 70
     1
102
RTVSPropertyOp13
 70
     1
102
RTVSPropertyOp14
 70
     1
102
RTVSPropertyOp15
 70
     1
102
RTVSPropertyOp16
 70
     1
102
RTVSPropertyOp17
 70
     1
102
RTVSPropertyOp18
 70
     1
102
RTVSPropertyOp19
 70
     1
102
RTVSPropertyOp20
 70
     1
102
RTVSPropertyOp21
 70
     1
102
RTVSPropertyOp22
 70
     1
102
RTVSPropertyOp23
 70
     1
102
RTVSPropertyOp24
 70
     1
102
RTVSPropertyOp25
 70
     1
102
RTVSPropertyOp26
 70
     1
102
RTVSPropertyOp27
 70
     1
102
RTVSPropertyOp28
 70
     1
102
RTVSPropertyOp29
 70
     1
102
RTVSPropertyOp30
 70
     1
102
RTVSPropertyOp31
 70
     1
102
RTVSPropertyOp32
 70
     1
  0
XRECORD
  5
22B
102
{ACAD_REACTORS
330
22A
102
}
330
22A
100
AcDbXrecord
280
     1
102
RTVSPropertyOp0
 70
     1
102
RTVSPropertyOp1
 70
     1
102
RTVSPropertyOp2
 70
     1
102
RTVSPropertyOp3
 70
     1
102
RTVSPropertyOp4
 70
     1
102
RTVSPropertyOp5
 70
     1
102
RTVSPropertyOp6
 70
     1
102
RTVSPropertyOp7
 70
     1
102
RTVSPropertyOp8
 70
     1
102
RTVSPropertyOp9
 70
     1
102
RTVSPropertyOp10
 70
     1
102
RTVSPropertyOp11
 70
     1
102
RTVSPropertyOp12
 70
     1
102
RTVSPropertyOp13
 70
     1
102
RTVSPropertyOp14
 70
     1
102
RTVSPropertyOp15
 70
     1
102
RTVSPropertyOp16
 70
     1
102
RTVSPropertyOp17
 70
     1
102
RTVSPropertyOp18
 70
     1
102
RTVSPropertyOp19
 70
     1
102
RTVSPropertyOp20
 70
     1
102
RTVSPropertyOp21
 70
     1
102
RTVSPropertyOp22
 70
     1
102
RTVSPropertyOp23
 70
     1
102
RTVSPropertyOp24
 70
     1
102
RTVSPropertyOp25
 70
     1
102
RTVSPropertyOp26
 70
     1
102
RTVSPropertyOp27
 70
     1
102
RTVSPropertyOp28
 70
     1
102
RTVSPropertyOp29
 70
     1
102
RTVSPropertyOp30
 70
     1
102
RTVSPropertyOp31
 70
     1
102
RTVSPropertyOp32
 70
     1
  0
XRECORD
  5
233
102
{ACAD_REACTORS
330
232
102
}
330
232
100
AcDbXrecord
280
     1
102
RTVSPropertyOp0
 70
     1
102
RTVSPropertyOp1
 70
     1
102
RTVSPropertyOp2
 70
     1
102
RTVSPropertyOp3
 70
     1
102
RTVSPropertyOp4
 70
     1
102
RTVSPropertyOp5
 70
     1
102
RTVSPropertyOp6
 70
     1
102
RTVSPropertyOp7
 70
     1
102
RTVSPropertyOp8
 70
     1
102
RTVSPropertyOp9
 70
     1
102
RTVSPropertyOp10
 70
     1
102
RTVSPropertyOp11
 70
     1
102
RTVSPropertyOp12
 70
     1
102
RTVSPropertyOp13
 70
     1
102
RTVSPropertyOp14
 70
     1
102
RTVSPropertyOp15
 70
     1
102
RTVSPropertyOp16
 70
     1
102
RTVSPropertyOp17
 70
     1
102
RTVSPropertyOp18
 70
     1
102
RTVSPropertyOp19
 70
     1
102
RTVSPropertyOp20
 70
     1
102
RTVSPropertyOp21
 70
     1
102
RTVSPropertyOp22
 70
     1
102
RTVSPropertyOp23
 70
     1
102
RTVSPropertyOp24
 70
     1
102
RTVSPropertyOp25
 70
     1
102
RTVSPropertyOp26
 70
     1
102
RTVSPropertyOp27
 70
     1
102
RTVSPropertyOp28
 70
     1
102
RTVSPropertyOp29
 70
     1
102
RTVSPropertyOp30
 70
     1
102
RTVSPropertyOp31
 70
     1
102
RTVSPropertyOp32
 70
     1
  0
XRECORD
  5
24F
102
{ACAD_REACTORS
330
24E
102
}
330
24E
100
AcDbXrecord
280
     1
102
RTVSPropertyOp0
 70
     0
102
RTVSPropertyOp1
 70
     0
102
RTVSPropertyOp2
 70
     0
102
RTVSPropertyOp3
 70
     0
102
RTVSPropertyOp4
 70
     0
102
RTVSPropertyOp5
 70
     0
102
RTVSPropertyOp6
 70
     0
102
RTVSPropertyOp7
 70
     0
102
RTVSPropertyOp8
 70
     0
102
RTVSPropertyOp9
 70
     0
102
RTVSPropertyOp10
 70
     0
102
RTVSPropertyOp11
 70
     0
102
RTVSPropertyOp12
 70
     0
102
RTVSPropertyOp13
 70
     0
102
RTVSPropertyOp14
 70
     2
102
RTVSPropertyOp15
 70
     0
102
RTVSPropertyOp16
 70
     0
102
RTVSPropertyOp17
 70
     0
102
RTVSPropertyOp18
 70
     0
102
RTVSPropertyOp19
 70
     0
102
RTVSPropertyOp20
 70
     0
102
RTVSPropertyOp21
 70
     0
102
RTVSPropertyOp22
 70
     0
102
RTVSPropertyOp23
 70
     0
102
RTVSPropertyOp24
 70
     0
102
RTVSPropertyOp25
 70
     0
102
RTVSPropertyOp26
 70
     0
102
RTVSPropertyOp27
 70
     0
102
RTVSPropertyOp28
 70
     1
102
RTVSPropertyOp29
 70
     1
102
RTVSPropertyOp30
 70
     1
102
RTVSPropertyOp31
 70
     1
102
RTVSPropertyOp32
 70
     1
  0
XRECORD
  5
23F
102
{ACAD_REACTORS
330
23E
102
}
330
23E
100
AcDbXrecord
280
     1
102
RTVSPropertyOp0
 70
     1
102
RTVSPropertyOp1
 70
     1
102
RTVSPropertyOp2
 70
     1
102
RTVSPropertyOp3
 70
     1
102
RTVSPropertyOp4
 70
     1
102
RTVSPropertyOp5
 70
     1
102
RTVSPropertyOp6
 70
     1
102
RTVSPropertyOp7
 70
     1
102
RTVSPropertyOp8
 70
     1
102
RTVSPropertyOp9
 70
     1
102
RTVSPropertyOp10
 70
     1
102
RTVSPropertyOp11
 70
     1
102
RTVSPropertyOp12
 70
     1
102
RTVSPropertyOp13
 70
     1
102
RTVSPropertyOp14
 70
     1
102
RTVSPropertyOp15
 70
     1
102
RTVSPropertyOp16
 70
     1
102
RTVSPropertyOp17
 70
     1
102
RTVSPropertyOp18
 70
     1
102
RTVSPropertyOp19
 70
     1
102
RTVSPropertyOp20
 70
     1
102
RTVSPropertyOp21
 70
     1
102
RTVSPropertyOp22
 70
     1
102
RTVSPropertyOp23
 70
     1
102
RTVSPropertyOp24
 70
     1
102
RTVSPropertyOp25
 70
     1
102
RTVSPropertyOp26
 70
     1
102
RTVSPropertyOp27
 70
     1
102
RTVSPropertyOp28
 70
     1
102
RTVSPropertyOp29
 70
     1
102
RTVSPropertyOp30
 70
     1
102
RTVSPropertyOp31
 70
     1
102
RTVSPropertyOp32
 70
     1
  0
XRECORD
  5
251
102
{ACAD_REACTORS
330
250
102
}
330
250
100
AcDbXrecord
280
     1
102
RTVSPropertyOp0
 70
     0
102
RTVSPropertyOp1
 70
     0
102
RTVSPropertyOp2
 70
     0
102
RTVSPropertyOp3
 70
     0
102
RTVSPropertyOp4
 70
     0
102
RTVSPropertyOp5
 70
     0
102
RTVSPropertyOp6
 70
     0
102
RTVSPropertyOp7
 70
     0
102
RTVSPropertyOp8
 70
     0
102
RTVSPropertyOp9
 70
     0
102
RTVSPropertyOp10
 70
     0
102
RTVSPropertyOp11
 70
     0
102
RTVSPropertyOp12
 70
     0
102
RTVSPropertyOp13
 70
     0
102
RTVSPropertyOp14
 70
     2
102
RTVSPropertyOp15
 70
     0
102
RTVSPropertyOp16
 70
     0
102
RTVSPropertyOp17
 70
     0
102
RTVSPropertyOp18
 70
     0
102
RTVSPropertyOp19
 70
     0
102
RTVSPropertyOp20
 70
     0
102
RTVSPropertyOp21
 70
     0
102
RTVSPropertyOp22
 70
     0
102
RTVSPropertyOp23
 70
     0
102
RTVSPropertyOp24
 70
     0
102
RTVSPropertyOp25
 70
     0
102
RTVSPropertyOp26
 70
     0
102
RTVSPropertyOp27
 70
     0
102
RTVSPropertyOp28
 70
     1
102
RTVSPropertyOp29
 70
     1
102
RTVSPropertyOp30
 70
     1
102
RTVSPropertyOp31
 70
     1
102
RTVSPropertyOp32
 70
     1
  0
XRECORD
  5
237
102
{ACAD_REACTORS
330
236
102
}
330
236
100
AcDbXrecord
280
     1
102
RTVSPropertyOp0
 70
     1
102
RTVSPropertyOp1
 70
     1
102
RTVSPropertyOp2
 70
     1
102
RTVSPropertyOp3
 70
     1
102
RTVSPropertyOp4
 70
     1
102
RTVSPropertyOp5
 70
     1
102
RTVSPropertyOp6
 70
     1
102
RTVSPropertyOp7
 70
     1
102
RTVSPropertyOp8
 70
     1
102
RTVSPropertyOp9
 70
     1
102
RTVSPropertyOp10
 70
     1
102
RTVSPropertyOp11
 70
     1
102
RTVSPropertyOp12
 70
     1
102
RTVSPropertyOp13
 70
     1
102
RTVSPropertyOp14
 70
     1
102
RTVSPropertyOp15
 70
     1
102
RTVSPropertyOp16
 70
     1
102
RTVSPropertyOp17
 70
     1
102
RTVSPropertyOp18
 70
     1
102
RTVSPropertyOp19
 70
     1
102
RTVSPropertyOp20
 70
     1
102
RTVSPropertyOp21
 70
     1
102
RTVSPropertyOp22
 70
     1
102
RTVSPropertyOp23
 70
     1
102
RTVSPropertyOp24
 70
     1
102
RTVSPropertyOp25
 70
     1
102
RTVSPropertyOp26
 70
     1
102
RTVSPropertyOp27
 70
     1
102
RTVSPropertyOp28
 70
     1
102
RTVSPropertyOp29
 70
     1
102
RTVSPropertyOp30
 70
     1
102
RTVSPropertyOp31
 70
     1
102
RTVSPropertyOp32
 70
     1
  0
XRECORD
  5
24D
102
{ACAD_REACTORS
330
24C
102
}
330
24C
100
AcDbXrecord
280
     1
102
RTVSPropertyOp0
 70
     1
102
RTVSPropertyOp1
 70
     1
102
RTVSPropertyOp2
 70
     1
102
RTVSPropertyOp3
 70
     1
102
RTVSPropertyOp4
 70
     1
102
RTVSPropertyOp5
 70
     1
102
RTVSPropertyOp6
 70
     1
102
RTVSPropertyOp7
 70
     1
102
RTVSPropertyOp8
 70
     1
102
RTVSPropertyOp9
 70
     1
102
RTVSPropertyOp10
 70
     1
102
RTVSPropertyOp11
 70
     1
102
RTVSPropertyOp12
 70
     1
102
RTVSPropertyOp13
 70
     1
102
RTVSPropertyOp14
 70
     1
102
RTVSPropertyOp15
 70
     1
102
RTVSPropertyOp16
 70
     1
102
RTVSPropertyOp17
 70
     1
102
RTVSPropertyOp18
 70
     1
102
RTVSPropertyOp19
 70
     1
102
RTVSPropertyOp20
 70
     1
102
RTVSPropertyOp21
 70
     1
102
RTVSPropertyOp22
 70
     1
102
RTVSPropertyOp23
 70
     1
102
RTVSPropertyOp24
 70
     1
102
RTVSPropertyOp25
 70
     1
102
RTVSPropertyOp26
 70
     1
102
RTVSPropertyOp27
 70
     1
102
RTVSPropertyOp28
 70
     1
102
RTVSPropertyOp29
 70
     1
102
RTVSPropertyOp30
 70
     1
102
RTVSPropertyOp31
 70
     1
102
RTVSPropertyOp32
 70
     1
  0
XRECORD
  5
24B
102
{ACAD_REACTORS
330
24A
102
}
330
24A
100
AcDbXrecord
280
     1
102
RTVSPropertyOp0
 70
     1
102
RTVSPropertyOp1
 70
     1
102
RTVSPropertyOp2
 70
     1
102
RTVSPropertyOp3
 70
     1
102
RTVSPropertyOp4
 70
     1
102
RTVSPropertyOp5
 70
     1
102
RTVSPropertyOp6
 70
     1
102
RTVSPropertyOp7
 70
     1
102
RTVSPropertyOp8
 70
     1
102
RTVSPropertyOp9
 70
     1
102
RTVSPropertyOp10
 70
     1
102
RTVSPropertyOp11
 70
     1
102
RTVSPropertyOp12
 70
     1
102
RTVSPropertyOp13
 70
     1
102
RTVSPropertyOp14
 70
     1
102
RTVSPropertyOp15
 70
     1
102
RTVSPropertyOp16
 70
     1
102
RTVSPropertyOp17
 70
     1
102
RTVSPropertyOp18
 70
     1
102
RTVSPropertyOp19
 70
     1
102
RTVSPropertyOp20
 70
     1
102
RTVSPropertyOp21
 70
     1
102
RTVSPropertyOp22
 70
     1
102
RTVSPropertyOp23
 70
     1
102
RTVSPropertyOp24
 70
     1
102
RTVSPropertyOp25
 70
     1
102
RTVSPropertyOp26
 70
     1
102
RTVSPropertyOp27
 70
     1
102
RTVSPropertyOp28
 70
     1
102
RTVSPropertyOp29
 70
     1
102
RTVSPropertyOp30
 70
     1
102
RTVSPropertyOp31
 70
     1
102
RTVSPropertyOp32
 70
     1
  0
XRECORD
  5
245
102
{ACAD_REACTORS
330
244
102
}
330
244
100
AcDbXrecord
280
     1
102
RTVSPropertyOp0
 70
     1
102
RTVSPropertyOp1
 70
     1
102
RTVSPropertyOp2
 70
     1
102
RTVSPropertyOp3
 70
     1
102
RTVSPropertyOp4
 70
     1
102
RTVSPropertyOp5
 70
     1
102
RTVSPropertyOp6
 70
     1
102
RTVSPropertyOp7
 70
     1
102
RTVSPropertyOp8
 70
     1
102
RTVSPropertyOp9
 70
     1
102
RTVSPropertyOp10
 70
     1
102
RTVSPropertyOp11
 70
     1
102
RTVSPropertyOp12
 70
     1
102
RTVSPropertyOp13
 70
     1
102
RTVSPropertyOp14
 70
     1
102
RTVSPropertyOp15
 70
     1
102
RTVSPropertyOp16
 70
     1
102
RTVSPropertyOp17
 70
     1
102
RTVSPropertyOp18
 70
     1
102
RTVSPropertyOp19
 70
     1
102
RTVSPropertyOp20
 70
     1
102
RTVSPropertyOp21
 70
     1
102
RTVSPropertyOp22
 70
     1
102
RTVSPropertyOp23
 70
     1
102
RTVSPropertyOp24
 70
     1
102
RTVSPropertyOp25
 70
     1
102
RTVSPropertyOp26
 70
     1
102
RTVSPropertyOp27
 70
     1
102
RTVSPropertyOp28
 70
     1
102
RTVSPropertyOp29
 70
     1
102
RTVSPropertyOp30
 70
     1
102
RTVSPropertyOp31
 70
     1
102
RTVSPropertyOp32
 70
     1
  0
XRECORD
  5
247
102
{ACAD_REACTORS
330
246
102
}
330
246
100
AcDbXrecord
280
     1
102
RTVSPropertyOp0
 70
     1
102
RTVSPropertyOp1
 70
     1
102
RTVSPropertyOp2
 70
     1
102
RTVSPropertyOp3
 70
     1
102
RTVSPropertyOp4
 70
     1
102
RTVSPropertyOp5
 70
     1
102
RTVSPropertyOp6
 70
     1
102
RTVSPropertyOp7
 70
     1
102
RTVSPropertyOp8
 70
     1
102
RTVSPropertyOp9
 70
     1
102
RTVSPropertyOp10
 70
     1
102
RTVSPropertyOp11
 70
     1
102
RTVSPropertyOp12
 70
     1
102
RTVSPropertyOp13
 70
     1
102
RTVSPropertyOp14
 70
     1
102
RTVSPropertyOp15
 70
     1
102
RTVSPropertyOp16
 70
     1
102
RTVSPropertyOp17
 70
     1
102
RTVSPropertyOp18
 70
     1
102
RTVSPropertyOp19
 70
     1
102
RTVSPropertyOp20
 70
     1
102
RTVSPropertyOp21
 70
     1
102
RTVSPropertyOp22
 70
     1
102
RTVSPropertyOp23
 70
     1
102
RTVSPropertyOp24
 70
     1
102
RTVSPropertyOp25
 70
     1
102
RTVSPropertyOp26
 70
     1
102
RTVSPropertyOp27
 70
     1
102
RTVSPropertyOp28
 70
     1
102
RTVSPropertyOp29
 70
     1
102
RTVSPropertyOp30
 70
     1
102
RTVSPropertyOp31
 70
     1
102
RTVSPropertyOp32
 70
     1
  0
XRECORD
  5
23D
102
{ACAD_REACTORS
330
23C
102
}
330
23C
100
AcDbXrecord
280
     1
102
RTVSPropertyOp0
 70
     1
102
RTVSPropertyOp1
 70
     1
102
RTVSPropertyOp2
 70
     1
102
RTVSPropertyOp3
 70
     1
102
RTVSPropertyOp4
 70
     1
102
RTVSPropertyOp5
 70
     1
102
RTVSPropertyOp6
 70
     1
102
RTVSPropertyOp7
 70
     1
102
RTVSPropertyOp8
 70
     1
102
RTVSPropertyOp9
 70
     1
102
RTVSPropertyOp10
 70
     1
102
RTVSPropertyOp11
 70
     1
102
RTVSPropertyOp12
 70
     1
102
RTVSPropertyOp13
 70
     1
102
RTVSPropertyOp14
 70
     1
102
RTVSPropertyOp15
 70
     1
102
RTVSPropertyOp16
 70
     1
102
RTVSPropertyOp17
 70
     1
102
RTVSPropertyOp18
 70
     1
102
RTVSPropertyOp19
 70
     1
102
RTVSPropertyOp20
 70
     1
102
RTVSPropertyOp21
 70
     1
102
RTVSPropertyOp22
 70
     1
102
RTVSPropertyOp23
 70
     1
102
RTVSPropertyOp24
 70
     1
102
RTVSPropertyOp25
 70
     1
102
RTVSPropertyOp26
 70
     1
102
RTVSPropertyOp27
 70
     1
102
RTVSPropertyOp28
 70
     1
102
RTVSPropertyOp29
 70
     1
102
RTVSPropertyOp30
 70
     1
102
RTVSPropertyOp31
 70
     1
102
RTVSPropertyOp32
 70
     1
  0
XRECORD
  5
231
102
{ACAD_REACTORS
330
230
102
}
330
230
100
AcDbXrecord
280
     1
102
RTVSPropertyOp0
 70
     1
102
RTVSPropertyOp1
 70
     1
102
RTVSPropertyOp2
 70
     1
102
RTVSPropertyOp3
 70
     1
102
RTVSPropertyOp4
 70
     1
102
RTVSPropertyOp5
 70
     1
102
RTVSPropertyOp6
 70
     1
102
RTVSPropertyOp7
 70
     1
102
RTVSPropertyOp8
 70
     1
102
RTVSPropertyOp9
 70
     1
102
RTVSPropertyOp10
 70
     1
102
RTVSPropertyOp11
 70
     1
102
RTVSPropertyOp12
 70
     1
102
RTVSPropertyOp13
 70
     1
102
RTVSPropertyOp14
 70
     1
102
RTVSPropertyOp15
 70
     1
102
RTVSPropertyOp16
 70
     1
102
RTVSPropertyOp17
 70
     1
102
RTVSPropertyOp18
 70
     1
102
RTVSPropertyOp19
 70
     1
102
RTVSPropertyOp20
 70
     1
102
RTVSPropertyOp21
 70
     1
102
RTVSPropertyOp22
 70
     1
102
RTVSPropertyOp23
 70
     1
102
RTVSPropertyOp24
 70
     1
102
RTVSPropertyOp25
 70
     1
102
RTVSPropertyOp26
 70
     1
102
RTVSPropertyOp27
 70
     1
102
RTVSPropertyOp28
 70
     1
102
RTVSPropertyOp29
 70
     1
102
RTVSPropertyOp30
 70
     1
102
RTVSPropertyOp31
 70
     1
102
RTVSPropertyOp32
 70
     1
  0
XRECORD
  5
249
102
{ACAD_REACTORS
330
248
102
}
330
248
100
AcDbXrecord
280
     1
102
RTVSPropertyOp0
 70
     1
102
RTVSPropertyOp1
 70
     1
102
RTVSPropertyOp2
 70
     1
102
RTVSPropertyOp3
 70
     1
102
RTVSPropertyOp4
 70
     1
102
RTVSPropertyOp5
 70
     1
102
RTVSPropertyOp6
 70
     1
102
RTVSPropertyOp7
 70
     1
102
RTVSPropertyOp8
 70
     1
102
RTVSPropertyOp9
 70
     1
102
RTVSPropertyOp10
 70
     1
102
RTVSPropertyOp11
 70
     1
102
RTVSPropertyOp12
 70
     1
102
RTVSPropertyOp13
 70
     1
102
RTVSPropertyOp14
 70
     1
102
RTVSPropertyOp15
 70
     1
102
RTVSPropertyOp16
 70
     1
102
RTVSPropertyOp17
 70
     1
102
RTVSPropertyOp18
 70
     1
102
RTVSPropertyOp19
 70
     1
102
RTVSPropertyOp20
 70
     1
102
RTVSPropertyOp21
 70
     1
102
RTVSPropertyOp22
 70
     1
102
RTVSPropertyOp23
 70
     1
102
RTVSPropertyOp24
 70
     1
102
RTVSPropertyOp25
 70
     1
102
RTVSPropertyOp26
 70
     1
102
RTVSPropertyOp27
 70
     1
102
RTVSPropertyOp28
 70
     1
102
RTVSPropertyOp29
 70
     1
102
RTVSPropertyOp30
 70
     1
102
RTVSPropertyOp31
 70
     1
102
RTVSPropertyOp32
 70
     1
  0
ENDSEC
  0
EOF
