  0
SECTION
  2
HEADER
  9
$ACADVER
  1
AC1015
  9
$ACADMAINTVER
 70
    20
  9
$DWGCODEPAGE
  3
ANSI_1252
  9
$INSBASE
 10
0.0
 20
0.0
 30
0.0
  9
$EXTMIN
 10
-15.62978165118416
 20
-7.46894860267639
 30
-0.7812499999992739
  9
$EXTMAX
 10
22.24521834880457
 20
7.531051397323607
 30
29.22656249968844
  9
$LIMMIN
 10
0.0
 20
0.0
  9
$LIMMAX
 10
12.0
 20
9.0
  9
$ORTHOMODE
 70
     0
  9
$REGENMODE
 70
     1
  9
$FILLMODE
 70
     1
  9
$QTEXTMODE
 70
     0
  9
$MIRRTEXT
 70
     0
  9
$LTSCALE
 40
1.0
  9
$ATTMODE
 70
     1
  9
$TEXTSIZE
 40
0.2
  9
$TRACEWID
 40
0.05
  9
$TEXTSTYLE
  7
Standard
  9
$CLAYER
  8
0
  9
$CELTYPE
  6
ByLayer
  9
$CECOLOR
 62
   256
  9
$CELTSCALE
 40
1.0
  9
$DISPSILH
 70
     0
  9
$DIMSCALE
 40
1.0
  9
$DIMASZ
 40
0.18
  9
$DIMEXO
 40
0.0625
  9
$DIMDLI
 40
0.38
  9
$DIMRND
 40
0.0
  9
$DIMDLE
 40
0.0
  9
$DIMEXE
 40
0.18
  9
$DIMTP
 40
0.0
  9
$DIMTM
 40
0.0
  9
$DIMTXT
 40
0.18
  9
$DIMCEN
 40
0.09
  9
$DIMTSZ
 40
0.0
  9
$DIMTOL
 70
     0
  9
$DIMLIM
 70
     0
  9
$DIMTIH
 70
     1
  9
$DIMTOH
 70
     1
  9
$DIMSE1
 70
     0
  9
$DIMSE2
 70
     0
  9
$DIMTAD
 70
     0
  9
$DIMZIN
 70
     0
  9
$DIMBLK
  1

  9
$DIMASO
 70
     1
  9
$DIMSHO
 70
     1
  9
$DIMPOST
  1

  9
$DIMAPOST
  1

  9
$DIMALT
 70
     0
  9
$DIMALTD
 70
     2
  9
$DIMALTF
 40
25.4
  9
$DIMLFAC
 40
1.0
  9
$DIMTOFL
 70
     0
  9
$DIMTVP
 40
0.0
  9
$DIMTIX
 70
     0
  9
$DIMSOXD
 70
     0
  9
$DIMSAH
 70
     0
  9
$DIMBLK1
  1

  9
$DIMBLK2
  1

  9
$DIMSTYLE
  2
Standard
  9
$DIMCLRD
 70
     0
  9
$DIMCLRE
 70
     0
  9
$DIMCLRT
 70
     0
  9
$DIMTFAC
 40
1.0
  9
$DIMGAP
 40
0.09
  9
$DIMJUST
 70
     0
  9
$DIMSD1
 70
     0
  9
$DIMSD2
 70
     0
  9
$DIMTOLJ
 70
     1
  9
$DIMTZIN
 70
     0
  9
$DIMALTZ
 70
     0
  9
$DIMALTTZ
 70
     0
  9
$DIMUPT
 70
     0
  9
$DIMDEC
 70
     4
  9
$DIMTDEC
 70
     4
  9
$DIMALTU
 70
     4
  9
$DIMALTTD
 70
     2
  9
$DIMTXSTY
  7
Standard
  9
$DIMAUNIT
 70
     0
  9
$DIMADEC
 70
     0
  9
$DIMALTRND
 40
0.0
  9
$DIMAZIN
 70
     0
  9
$DIMDSEP
 70
    46
  9
$DIMATFIT
 70
     3
  9
$DIMFRAC
 70
     0
  9
$DIMLDRBLK
  1

  9
$DIMLUNIT
 70
     4
  9
$DIMLWD
 70
    -2
  9
$DIMLWE
 70
    -2
  9
$DIMTMOVE
 70
     0
  9
$LUNITS
 70
     4
  9
$LUPREC
 70
     4
  9
$SKETCHINC
 40
0.1
  9
$FILLETRAD
 40
0.0
  9
$AUNITS
 70
     0
  9
$AUPREC
 70
     0
  9
$MENU
  1
.
  9
$ELEVATION
 40
0.0
  9
$PELEVATION
 40
0.0
  9
$THICKNESS
 40
0.0
  9
$LIMCHECK
 70
     0
  9
$CHAMFERA
 40
0.0
  9
$CHAMFERB
 40
0.0
  9
$CHAMFERC
 40
0.0
  9
$CHAMFERD
 40
0.0
  9
$SKPOLY
 70
     0
  9
$TDCREATE
 40
2456030.384901979
  9
$TDUCREATE
 40
2456030.593235313
  9
$TDUPDATE
 40
2456030.385663531
  9
$TDUUPDATE
 40
2456030.593996863
  9
$TDINDWG
 40
0.0004270949
  9
$TDUSRTIMER
 40
0.0004270949
  9
$USRTIMER
 70
     1
  9
$ANGBASE
 50
0.0
  9
$ANGDIR
 70
     0
  9
$PDMODE
 70
     0
  9
$PDSIZE
 40
0.0
  9
$PLINEWID
 40
0.0
  9
$SPLFRAME
 70
     0
  9
$SPLINETYPE
 70
     6
  9
$SPLINESEGS
 70
     8
  9
$HANDSEED
  5
3FB
  9
$SURFTAB1
 70
     6
  9
$SURFTAB2
 70
     6
  9
$SURFTYPE
 70
     6
  9
$SURFU
 70
     6
  9
$SURFV
 70
     6
  9
$UCSBASE
  2

  9
$UCSNAME
  2

  9
$UCSORG
 10
0.0
 20
0.0
 30
0.0
  9
$UCSXDIR
 10
1.0
 20
0.0
 30
0.0
  9
$UCSYDIR
 10
0.0
 20
1.0
 30
0.0
  9
$UCSORTHOREF
  2

  9
$UCSORTHOVIEW
 70
     0
  9
$UCSORGTOP
 10
0.0
 20
0.0
 30
0.0
  9
$UCSORGBOTTOM
 10
0.0
 20
0.0
 30
0.0
  9
$UCSORGLEFT
 10
0.0
 20
0.0
 30
0.0
  9
$UCSORGRIGHT
 10
0.0
 20
0.0
 30
0.0
  9
$UCSORGFRONT
 10
0.0
 20
0.0
 30
0.0
  9
$UCSORGBACK
 10
0.0
 20
0.0
 30
0.0
  9
$PUCSBASE
  2

  9
$PUCSNAME
  2

  9
$PUCSORG
 10
0.0
 20
0.0
 30
0.0
  9
$PUCSXDIR
 10
1.0
 20
0.0
 30
0.0
  9
$PUCSYDIR
 10
0.0
 20
1.0
 30
0.0
  9
$PUCSORTHOREF
  2

  9
$PUCSORTHOVIEW
 70
     0
  9
$PUCSORGTOP
 10
0.0
 20
0.0
 30
0.0
  9
$PUCSORGBOTTOM
 10
0.0
 20
0.0
 30
0.0
  9
$PUCSORGLEFT
 10
0.0
 20
0.0
 30
0.0
  9
$PUCSORGRIGHT
 10
0.0
 20
0.0
 30
0.0
  9
$PUCSORGFRONT
 10
0.0
 20
0.0
 30
0.0
  9
$PUCSORGBACK
 10
0.0
 20
0.0
 30
0.0
  9
$USERI1
 70
     0
  9
$USERI2
 70
     0
  9
$USERI3
 70
     0
  9
$USERI4
 70
     0
  9
$USERI5
 70
     0
  9
$USERR1
 40
0.0
  9
$USERR2
 40
0.0
  9
$USERR3
 40
0.0
  9
$USERR4
 40
0.0
  9
$USERR5
 40
0.0
  9
$WORLDVIEW
 70
     1
  9
$SHADEDGE
 70
     3
  9
$SHADEDIF
 70
    70
  9
$TILEMODE
 70
     1
  9
$MAXACTVP
 70
    64
  9
$PINSBASE
 10
0.0
 20
0.0
 30
0.0
  9
$PLIMCHECK
 70
     0
  9
$PEXTMIN
 10
1.000000000000000E+20
 20
1.000000000000000E+20
 30
1.000000000000000E+20
  9
$PEXTMAX
 10
-1.000000000000000E+20
 20
-1.000000000000000E+20
 30
-1.000000000000000E+20
  9
$PLIMMIN
 10
0.0
 20
0.0
  9
$PLIMMAX
 10
12.0
 20
9.0
  9
$UNITMODE
 70
     0
  9
$VISRETAIN
 70
     1
  9
$PLINEGEN
 70
     0
  9
$PSLTSCALE
 70
     1
  9
$TREEDEPTH
 70
  3020
  9
$CMLSTYLE
  2
Standard
  9
$CMLJUST
 70
     0
  9
$CMLSCALE
 40
1.0
  9
$PROXYGRAPHICS
 70
     1
  9
$MEASUREMENT
 70
     0
  9
$CELWEIGHT
370
    -1
  9
$ENDCAPS
280
     0
  9
$JOINSTYLE
280
     0
  9
$LWDISPLAY
290
     0
  9
$INSUNITS
 70
     1
  9
$HYPERLINKBASE
  1

  9
$STYLESHEET
  1

  9
$XEDIT
290
     1
  9
$CEPSNTYPE
380
     0
  9
$PSTYLEMODE
290
     1
  9
$FINGERPRINTGUID
  2
{FAA27DED-6CFE-49BC-91BC-411C0919988E}
  9
$VERSIONGUID
  2
{6F27DBBE-1FCA-4B63-9CA9-65614349C343}
  9
$EXTNAMES
290
     1
  9
$PSVPSCALE
 40
0.0
  9
$OLESTARTUP
290
     0
  0
ENDSEC
  0
SECTION
  2
CLASSES
  0
CLASS
  1
ACDBDICTIONARYWDFLT
  2
AcDbDictionaryWithDefault
  3
ObjectDBX Classes
 90
        0
280
     0
281
     0
  0
CLASS
  1
MATERIAL
  2
AcDbMaterial
  3
ObjectDBX Classes
 90
     1153
280
     0
281
     0
  0
CLASS
  1
VISUALSTYLE
  2
AcDbVisualStyle
  3
ObjectDBX Classes
 90
     4095
280
     0
281
     0
  0
CLASS
  1
SCALE
  2
AcDbScale
  3
ObjectDBX Classes
 90
     1153
280
     0
281
     0
  0
CLASS
  1
TABLESTYLE
  2
AcDbTableStyle
  3
ObjectDBX Classes
 90
     4095
280
     0
281
     0
  0
CLASS
  1
MLEADERSTYLE
  2
AcDbMLeaderStyle
  3
ACDB_MLEADERSTYLE_CLASS
 90
     4095
280
     0
281
     0
  0
CLASS
  1
RASTERVARIABLES
  2
AcDbRasterVariables
  3
ISM
 90
        0
280
     0
281
     0
  0
CLASS
  1
DICTIONARYVAR
  2
AcDbDictionaryVar
  3
ObjectDBX Classes
 90
        0
280
     0
281
     0
  0
CLASS
  1
SUN
  2
AcDbSun
  3
SCENEOE
 90
     1153
280
     0
281
     0
  0
CLASS
  1
SOLID_BACKGROUND
  2
AcDbSolidBackground
  3
SCENEOE
 90
     4095
280
     0
281
     0
  0
CLASS
  1
NPOCOLLECTION
  2
AcDbImpNonPersistentObjectsCollection
  3
ObjectDBX Classes
 90
     1153
280
     0
281
     0
  0
CLASS
  1
GROUND_PLANE_BACKGROUND
  2
AcDbGroundPlaneBackground
  3
SCENEOE
 90
     4095
280
     0
281
     0
  0
CLASS
  1
CELLSTYLEMAP
  2
AcDbCellStyleMap
  3
ObjectDBX Classes
 90
     1152
280
     0
281
     0
  0
CLASS
  1
ACDBPLACEHOLDER
  2
AcDbPlaceHolder
  3
ObjectDBX Classes
 90
        0
280
     0
281
     0
  0
CLASS
  1
LAYOUT
  2
AcDbLayout
  3
ObjectDBX Classes
 90
        0
280
     0
281
     0
  0
ENDSEC
  0
SECTION
  2
TABLES
  0
TABLE
  2
VPORT
  5
8
330
0
100
AcDbSymbolTable
 70
     1
  0
VPORT
  5
57
330
8
100
AcDbSymbolTableRecord
100
AcDbViewportTableRecord
  2
*Active
 70
     0
 10
0.0
 20
0.0
 11
1.0
 21
1.0
 12
0.0
 22
0.0
 13
0.0
 23
0.0
 14
1.0
 24
1.0
 15
0.0
 25
0.0
 16
61.65098614238964
 26
-61.65098614238964
 36
61.65098614238964
 17
3.307718348810183
 27
0.0310513973235942
 37
14.22265624984457
 40
52.078924349813
 41
1.402298850574712
 42
50.0
 43
0.0
 44
0.0
 50
0.0
 51
0.0
 71
     0
 72
   100
 73
     1
 74
     1
 75
     0
 76
     0
 77
     0
 78
     0
281
     6
 65
     1
110
0.0
120
0.0
130
0.0
111
1.0
121
0.0
131
0.0
112
0.0
122
1.0
132
0.0
 79
     0
146
0.0
1001
ACAD_NAV_VCDISPLAY
1070
     3
  0
ENDTAB
  0
TABLE
  2
LTYPE
  5
5
330
0
100
AcDbSymbolTable
 70
     1
  0
LTYPE
  5
5B
330
5
100
AcDbSymbolTableRecord
100
AcDbLinetypeTableRecord
  2
ByBlock
 70
     0
  3

 72
    65
 73
     0
 40
0.0
  0
LTYPE
  5
5C
330
5
100
AcDbSymbolTableRecord
100
AcDbLinetypeTableRecord
  2
ByLayer
 70
     0
  3

 72
    65
 73
     0
 40
0.0
  0
LTYPE
  5
5D
330
5
100
AcDbSymbolTableRecord
100
AcDbLinetypeTableRecord
  2
Continuous
 70
     0
  3
Solid line
 72
    65
 73
     0
 40
0.0
  0
ENDTAB
  0
TABLE
  2
LAYER
  5
2
330
0
100
AcDbSymbolTable
 70
     4
  0
LAYER
  5
54
330
2
100
AcDbSymbolTableRecord
100
AcDbLayerTableRecord
  2
0
 70
     0
 62
     7
  6
Continuous
370
    -3
390
F
  0
LAYER
  5
7A
330
2
100
AcDbSymbolTableRecord
100
AcDbLayerTableRecord
  2
3D-S-COLS-ANLY
 70
     0
 62
     2
  6
Continuous
370
    -3
390
F
  0
LAYER
  5
1FA
330
2
100
AcDbSymbolTableRecord
100
AcDbLayerTableRecord
  2
3D-GENM
 70
     0
 62
     6
  6
Continuous
370
    -3
390
F
  0
LAYER
  5
29B
330
2
100
AcDbSymbolTableRecord
100
AcDbLayerTableRecord
  2
3D-S-BEAM
 70
     0
 62
     4
  6
Continuous
370
    -3
390
F
  0
ENDTAB
  0
TABLE
  2
STYLE
  5
3
330
0
100
AcDbSymbolTable
 70
     2
  0
STYLE
  5
55
330
3
100
AcDbSymbolTableRecord
100
AcDbTextStyleTableRecord
  2
Standard
 70
     0
 40
0.0
 41
1.0
 50
0.0
 71
     0
 42
0.2
  3
txt
  4

  0
STYLE
  5
5A
330
3
100
AcDbSymbolTableRecord
100
AcDbTextStyleTableRecord
  2
Annotative
 70
     0
 40
0.0
 41
1.0
 50
0.0
 71
     0
 42
0.2
  3
txt
  4

1001
AcadAnnotative
1000
AnnotativeData
1002
{
1070
     1
1070
     1
1002
}
  0
ENDTAB
  0
TABLE
  2
VIEW
  5
6
330
0
100
AcDbSymbolTable
 70
     1
  0
VIEW
  5
343
330
6
100
AcDbSymbolTableRecord
100
AcDbViewTableRecord
  2
Preview
 70
     0
 40
2400.0
 10
0.0
 20
0.0
 41
2400.0
 11
29.22243068941807
 21
-29.22243068941807
 31
29.22243068941807
 12
3.307718348810426
 22
-0.0000000000016986
 32
15.00390626615321
 42
50.0
 43
0.0
 44
0.0
 50
0.0
 71
     0
281
     0
 72
     0
  0
ENDTAB
  0
TABLE
  2
UCS
  5
7
330
0
100
AcDbSymbolTable
 70
     0
  0
ENDTAB
  0
TABLE
  2
APPID
  5
9
330
0
100
AcDbSymbolTable
 70
     5
  0
APPID
  5
56
330
9
100
AcDbSymbolTableRecord
100
AcDbRegAppTableRecord
  2
ACAD
 70
     0
  0
APPID
  5
5E
330
9
100
AcDbSymbolTableRecord
100
AcDbRegAppTableRecord
  2
AcadAnnotative
 70
     0
  0
APPID
  5
74
330
9
100
AcDbSymbolTableRecord
100
AcDbRegAppTableRecord
  2
REVIT
 70
     0
  0
APPID
  5
35C
330
9
100
AcDbSymbolTableRecord
100
AcDbRegAppTableRecord
  2
ACAD_NAV_VCDISPLAY
 70
     0
  0
APPID
  5
3F3
330
9
100
AcDbSymbolTableRecord
100
AcDbRegAppTableRecord
  2
ACAD_MLEADERVER
 70
     0
  0
ENDTAB
  0
TABLE
  2
DIMSTYLE
  5
A
330
0
100
AcDbSymbolTable
 70
     2
100
AcDbDimStyleTable
 71
     0
  0
DIMSTYLE
105
58
330
A
100
AcDbSymbolTableRecord
100
AcDbDimStyleTableRecord
  2
Standard
 70
     0
340
55
  0
DIMSTYLE
105
59
330
A
100
AcDbSymbolTableRecord
100
AcDbDimStyleTableRecord
  2
Annotative
 70
     0
340
55
1001
AcadAnnotative
1000
AnnotativeData
1002
{
1070
     1
1070
     1
1002
}
  0
ENDTAB
  0
TABLE
  2
BLOCK_RECORD
  5
1
330
0
100
AcDbSymbolTable
 70
     4
  0
BLOCK_RECORD
  5
6C
330
1
100
AcDbSymbolTableRecord
100
AcDbBlockTableRecord
  2
*Model_Space
340
6F
  0
BLOCK_RECORD
  5
68
330
1
100
AcDbSymbolTableRecord
100
AcDbBlockTableRecord
  2
*Paper_Space
340
6B
  0
BLOCK_RECORD
  5
70
330
1
100
AcDbSymbolTableRecord
100
AcDbBlockTableRecord
  2
*Paper_Space0
340
73
  0
BLOCK_RECORD
  5
7B
330
1
100
AcDbSymbolTableRecord
100
AcDbBlockTableRecord
  2
Outrigger-Kawneer-Curved - 5_-160363-Preview
340
0
102
{BLKREFS
331
1E3
331
1E4
331
1E5
331
1E6
331
1E7
331
1E8
331
1E9
331
1EA
331
1EB
331
1EC
331
1ED
331
1EE
331
1EF
331
1F0
331
1F1
331
1F2
331
1F3
331
1F4
331
1F5
331
1F6
331
1F7
331
1F8
331
1F9
102
}
  0
BLOCK_RECORD
  5
1FB
330
1
100
AcDbSymbolTableRecord
100
AcDbBlockTableRecord
  2
Blade-Kawneer-Circular - Versoleil-170207-Preview
340
0
102
{BLKREFS
331
29A
331
33E
331
33F
331
340
331
341
331
342
102
}
  0
BLOCK_RECORD
  5
29C
330
1
100
AcDbSymbolTableRecord
100
AcDbBlockTableRecord
  2
Fascia-Kawneer-Circular - Versoleil-171120-Preview
340
0
102
{BLKREFS
331
33D
102
}
  0
ENDTAB
  0
ENDSEC
  0
SECTION
  2
BLOCKS
  0
BLOCK
  5
6D
330
6C
100
AcDbEntity
  8
0
100
AcDbBlockBegin
  2
*Model_Space
 70
     0
 10
0.0
 20
0.0
 30
0.0
  3
*Model_Space
  1

  0
ENDBLK
  5
6E
330
6C
100
AcDbEntity
  8
0
100
AcDbBlockEnd
  0
BLOCK
  5
69
330
68
100
AcDbEntity
 67
     1
  8
0
100
AcDbBlockBegin
  2
*Paper_Space
 70
     0
 10
0.0
 20
0.0
 30
0.0
  3
*Paper_Space
  1

  0
ENDBLK
  5
6A
330
68
100
AcDbEntity
 67
     1
  8
0
100
AcDbBlockEnd
  0
BLOCK
  5
71
330
70
100
AcDbEntity
 67
     1
  8
0
100
AcDbBlockBegin
  2
*Paper_Space0
 70
     0
 10
0.0
 20
0.0
 30
0.0
  3
*Paper_Space0
  1

  0
ENDBLK
  5
72
330
70
100
AcDbEntity
 67
     1
  8
0
100
AcDbBlockEnd
  0
BLOCK
  5
1E1
330
7B
100
AcDbEntity
  8
0
100
AcDbBlockBegin
  2
Outrigger-Kawneer-Curved - 5_-160363-Preview
 70
     0
 10
0.0
 20
0.0
 30
0.0
  3
Outrigger-Kawneer-Curved - 5_-160363-Preview
  1

  0
POLYLINE
  5
7C
330
7B
100
AcDbEntity
  8
3D-S-COLS-ANLY
370
     9
100
AcDbPolyFaceMesh
 66
     1
 10
0.0
 20
0.0
 30
0.0
 70
    64
 71
    31
 72
    17
1001
REVIT
1002
{
1070
     3
1000
160355
1002
}
  0
VERTEX
  5
7D
330
7C
100
AcDbEntity
  8
3D-S-COLS-ANLY
370
     9
100
AcDbVertex
100
AcDbPolyFaceMeshVertex
 10
0.46875
 20
-2.499999940395354
 30
0.0000000000025486
 70
   192
  0
VERTEX
  5
7E
330
7C
100
AcDbEntity
  8
3D-S-COLS-ANLY
370
     9
100
AcDbVertex
100
AcDbPolyFaceMeshVertex
 10
0.46875
 20
2.499999940395354
 30
0.0000000000026192
 70
   192
  0
VERTEX
  5
7F
330
7C
100
AcDbEntity
  8
3D-S-COLS-ANLY
370
     9
100
AcDbVertex
100
AcDbPolyFaceMeshVertex
 10
0.46875
 20
2.499999940395354
 30
3.861525177955627
 70
   192
  0
VERTEX
  5
80
330
7C
100
AcDbEntity
  8
3D-S-COLS-ANLY
370
     9
100
AcDbVertex
100
AcDbPolyFaceMeshVertex
 10
0.46875
 20
2.254142224788665
 30
9.591819763183591
 70
   192
  0
VERTEX
  5
81
330
7C
100
AcDbEntity
  8
3D-S-COLS-ANLY
370
     9
100
AcDbVertex
100
AcDbPolyFaceMeshVertex
 10
0.46875
 20
1.518375992774963
 30
15.27999687194824
 70
   192
  0
VERTEX
  5
82
330
7C
100
AcDbEntity
  8
3D-S-COLS-ANLY
370
     9
100
AcDbVertex
100
AcDbPolyFaceMeshVertex
 10
0.46875
 20
0.2981090024113655
 30
20.88425159454345
 70
   192
  0
VERTEX
  5
83
330
7C
100
AcDbEntity
  8
3D-S-COLS-ANLY
370
     9
100
AcDbVertex
100
AcDbPolyFaceMeshVertex
 10
0.46875
 20
-1.397689998149871
 30
26.36339378356933
 70
   192
  0
VERTEX
  5
84
330
7C
100
AcDbEntity
  8
3D-S-COLS-ANLY
370
     9
100
AcDbVertex
100
AcDbPolyFaceMeshVertex
 10
0.46875
 20
-1.695722043514251
 30
27.28062915802002
 70
   192
  0
VERTEX
  5
85
330
7C
100
AcDbEntity
  8
3D-S-COLS-ANLY
370
     9
100
AcDbVertex
100
AcDbPolyFaceMeshVertex
 10
0.46875
 20
-1.976007163524627
 30
28.20344352722168
 70
   192
  0
VERTEX
  5
86
330
7C
100
AcDbEntity
  8
3D-S-COLS-ANLY
370
     9
100
AcDbVertex
100
AcDbPolyFaceMeshVertex
 10
0.46875
 20
-2.233745455741881
 30
28.79035949707031
 70
   192
  0
VERTEX
  5
87
330
7C
100
AcDbEntity
  8
3D-S-COLS-ANLY
370
     9
100
AcDbVertex
100
AcDbPolyFaceMeshVertex
 10
0.46875
 20
-2.632258057594298
 30
29.29244327545166
 70
   192
  0
VERTEX
  5
88
330
7C
100
AcDbEntity
  8
3D-S-COLS-ANLY
370
     9
100
AcDbVertex
100
AcDbPolyFaceMeshVertex
 10
0.46875
 20
-3.14534568786621
 30
29.67668437957764
 70
   192
  0
VERTEX
  5
89
330
7C
100
AcDbEntity
  8
3D-S-COLS-ANLY
370
     9
100
AcDbVertex
100
AcDbPolyFaceMeshVertex
 10
0.46875
 20
-3.739275097846984
 30
29.91781997680664
 70
   192
  0
VERTEX
  5
8A
330
7C
100
AcDbEntity
  8
3D-S-COLS-ANLY
370
     9
100
AcDbVertex
100
AcDbPolyFaceMeshVertex
 10
0.46875
 20
-4.375000119209288
 30
30.0
 70
   192
  0
VERTEX
  5
8B
330
7C
100
AcDbEntity
  8
3D-S-COLS-ANLY
370
     9
100
AcDbVertex
100
AcDbPolyFaceMeshVertex
 10
0.46875
 20
-5.022047638893126
 30
29.91481590270996
 70
   192
  0
VERTEX
  5
8C
330
7C
100
AcDbEntity
  8
3D-S-COLS-ANLY
370
     9
100
AcDbVertex
100
AcDbPolyFaceMeshVertex
 10
0.46875
 20
-5.624999999999999
 30
29.66506290435791
 70
   192
  0
VERTEX
  5
8D
330
7C
100
AcDbEntity
  8
3D-S-COLS-ANLY
370
     9
100
AcDbVertex
100
AcDbPolyFaceMeshVertex
 10
0.46875
 20
-6.142767190933226
 30
29.26776695251465
 70
   192
  0
VERTEX
  5
8E
330
7C
100
AcDbEntity
  8
3D-S-COLS-ANLY
370
     9
100
AcDbVertex
100
AcDbPolyFaceMeshVertex
 10
0.46875
 20
-6.540063858032225
 30
28.74999904632568
 70
   192
  0
VERTEX
  5
8F
330
7C
100
AcDbEntity
  8
3D-S-COLS-ANLY
370
     9
100
AcDbVertex
100
AcDbPolyFaceMeshVertex
 10
0.46875
 20
-6.789814710617064
 30
28.14704704284668
 70
   192
  0
VERTEX
  5
90
330
7C
100
AcDbEntity
  8
3D-S-COLS-ANLY
370
     9
100
AcDbVertex
100
AcDbPolyFaceMeshVertex
 10
0.46875
 20
-6.875000238418578
 30
27.50000095367431
 70
   192
  0
VERTEX
  5
91
330
7C
100
AcDbEntity
  8
3D-S-COLS-ANLY
370
     9
100
AcDbVertex
100
AcDbPolyFaceMeshVertex
 10
0.46875
 20
-6.789814710617064
 30
26.852952003479
 70
   192
  0
VERTEX
  5
92
330
7C
100
AcDbEntity
  8
3D-S-COLS-ANLY
370
     9
100
AcDbVertex
100
AcDbPolyFaceMeshVertex
 10
0.46875
 20
-6.540063858032225
 30
26.25
 70
   192
  0
VERTEX
  5
93
330
7C
100
AcDbEntity
  8
3D-S-COLS-ANLY
370
     9
100
AcDbVertex
100
AcDbPolyFaceMeshVertex
 10
0.46875
 20
-6.142767190933226
 30
25.73223209381103
 70
   192
  0
VERTEX
  5
94
330
7C
100
AcDbEntity
  8
3D-S-COLS-ANLY
370
     9
100
AcDbVertex
100
AcDbPolyFaceMeshVertex
 10
0.46875
 20
-5.624999999999999
 30
25.33493614196777
 70
   192
  0
VERTEX
  5
95
330
7C
100
AcDbEntity
  8
3D-S-COLS-ANLY
370
     9
100
AcDbVertex
100
AcDbPolyFaceMeshVertex
 10
0.46875
 20
-5.022047638893126
 30
25.08518600463867
 70
   192
  0
VERTEX
  5
96
330
7C
100
AcDbEntity
  8
3D-S-COLS-ANLY
370
     9
100
AcDbVertex
100
AcDbPolyFaceMeshVertex
 10
0.46875
 20
-4.375000119209288
 30
24.99999904632568
 70
   192
  0
VERTEX
  5
97
330
7C
100
AcDbEntity
  8
3D-S-COLS-ANLY
370
     9
100
AcDbVertex
100
AcDbPolyFaceMeshVertex
 10
0.46875
 20
-4.375000119209288
 30
24.95282649993896
 70
   192
  0
VERTEX
  5
98
330
7C
100
AcDbEntity
  8
3D-S-COLS-ANLY
370
     9
100
AcDbVertex
100
AcDbPolyFaceMeshVertex
 10
0.46875
 20
-3.378304839134215
 30
19.39485454559326
 70
   192
  0
VERTEX
  5
99
330
7C
100
AcDbEntity
  8
3D-S-COLS-ANLY
370
     9
100
AcDbVertex
100
AcDbPolyFaceMeshVertex
 10
0.46875
 20
-2.732109189033507
 30
13.78531980514526
 70
   192
  0
VERTEX
  5
9A
330
7C
100
AcDbEntity
  8
3D-S-COLS-ANLY
370
     9
100
AcDbVertex
100
AcDbPolyFaceMeshVertex
 10
0.46875
 20
-2.438956260681151
 30
8.146302223205564
 70
   192
  0
VERTEX
  5
9B
330
7C
100
AcDbEntity
  8
3D-S-COLS-ANLY
370
     9
100
AcDbVertex
100
AcDbPolyFaceMeshVertex
 10
0.46875
 20
-2.499999940395354
 30
2.499999940395354
 70
   192
  0
VERTEX
  5
9C
330
7C
100
AcDbEntity
  8
3D-S-COLS-ANLY
370
     9
100
AcDbFaceRecord
 10
0.0
 20
0.0
 30
0.0
 70
   128
 71
     3
 72
    -4
 73
    30
 74
   -31
  0
VERTEX
  5
9D
330
7C
100
AcDbEntity
  8
3D-S-COLS-ANLY
370
     9
100
AcDbFaceRecord
 10
0.0
 20
0.0
 30
0.0
 70
   128
 71
     2
 72
    -3
 73
    31
 74
     1
  0
VERTEX
  5
9E
330
7C
100
AcDbEntity
  8
3D-S-COLS-ANLY
370
     9
100
AcDbFaceRecord
 10
0.0
 20
0.0
 30
0.0
 70
   128
 71
    -4
 72
    29
 73
   -30
  0
VERTEX
  5
9F
330
7C
100
AcDbEntity
  8
3D-S-COLS-ANLY
370
     9
100
AcDbFaceRecord
 10
0.0
 20
0.0
 30
0.0
 70
   128
 71
    -5
 72
    28
 73
   -29
 74
     4
  0
VERTEX
  5
A0
330
7C
100
AcDbEntity
  8
3D-S-COLS-ANLY
370
     9
100
AcDbFaceRecord
 10
0.0
 20
0.0
 30
0.0
 70
   128
 71
     6
 72
    -7
 73
    27
 74
   -28
  0
VERTEX
  5
A1
330
7C
100
AcDbEntity
  8
3D-S-COLS-ANLY
370
     9
100
AcDbFaceRecord
 10
0.0
 20
0.0
 30
0.0
 70
   128
 71
    -9
 72
   -26
 73
     8
  0
VERTEX
  5
A2
330
7C
100
AcDbEntity
  8
3D-S-COLS-ANLY
370
     9
100
AcDbFaceRecord
 10
0.0
 20
0.0
 30
0.0
 70
   128
 71
     5
 72
    -6
 73
   -28
  0
VERTEX
  5
A3
330
7C
100
AcDbEntity
  8
3D-S-COLS-ANLY
370
     9
100
AcDbFaceRecord
 10
0.0
 20
0.0
 30
0.0
 70
   128
 71
   -19
 72
    10
 73
   -11
 74
    18
  0
VERTEX
  5
A4
330
7C
100
AcDbEntity
  8
3D-S-COLS-ANLY
370
     9
100
AcDbFaceRecord
 10
0.0
 20
0.0
 30
0.0
 70
   128
 71
   -18
 72
    11
 73
   -12
 74
    17
  0
VERTEX
  5
A5
330
7C
100
AcDbEntity
  8
3D-S-COLS-ANLY
370
     9
100
AcDbFaceRecord
 10
0.0
 20
0.0
 30
0.0
 70
   128
 71
     9
 72
   -10
 73
    20
 74
   -21
  0
VERTEX
  5
A6
330
7C
100
AcDbEntity
  8
3D-S-COLS-ANLY
370
     9
100
AcDbFaceRecord
 10
0.0
 20
0.0
 30
0.0
 70
   128
 71
     7
 72
    -8
 73
    26
 74
   -27
  0
VERTEX
  5
A7
330
7C
100
AcDbEntity
  8
3D-S-COLS-ANLY
370
     9
100
AcDbFaceRecord
 10
0.0
 20
0.0
 30
0.0
 70
   128
 71
    24
 72
    25
 73
   -26
 74
    -9
  0
VERTEX
  5
A8
330
7C
100
AcDbEntity
  8
3D-S-COLS-ANLY
370
     9
100
AcDbFaceRecord
 10
0.0
 20
0.0
 30
0.0
 70
   128
 71
    22
 72
   -23
 73
    -9
 74
    21
  0
VERTEX
  5
A9
330
7C
100
AcDbEntity
  8
3D-S-COLS-ANLY
370
     9
100
AcDbFaceRecord
 10
0.0
 20
0.0
 30
0.0
 70
   128
 71
    -9
 72
    23
 73
   -24
  0
VERTEX
  5
AA
330
7C
100
AcDbEntity
  8
3D-S-COLS-ANLY
370
     9
100
AcDbFaceRecord
 10
0.0
 20
0.0
 30
0.0
 70
   128
 71
    14
 72
    15
 73
   -16
 74
    13
  0
VERTEX
  5
AB
330
7C
100
AcDbEntity
  8
3D-S-COLS-ANLY
370
     9
100
AcDbFaceRecord
 10
0.0
 20
0.0
 30
0.0
 70
   128
 71
   -13
 72
    16
 73
   -17
 74
    12
  0
VERTEX
  5
AC
330
7C
100
AcDbEntity
  8
3D-S-COLS-ANLY
370
     9
100
AcDbFaceRecord
 10
0.0
 20
0.0
 30
0.0
 70
   128
 71
   -10
 72
    19
 73
   -20
  0
SEQEND
  5
AD
330
7C
100
AcDbEntity
  8
3D-S-COLS-ANLY
370
     9
  0
POLYLINE
  5
AE
330
7B
100
AcDbEntity
  8
3D-S-COLS-ANLY
370
     9
100
AcDbPolyFaceMesh
 66
     1
 10
0.0
 20
0.0
 30
0.0
 70
    64
 71
    31
 72
    17
1001
REVIT
1002
{
1070
     3
1000
160355
1002
}
  0
VERTEX
  5
AF
330
AE
100
AcDbEntity
  8
3D-S-COLS-ANLY
370
     9
100
AcDbVertex
100
AcDbPolyFaceMeshVertex
 10
-0.46875
 20
2.499999940395354
 30
0.0000000000026192
 70
   192
  0
VERTEX
  5
B0
330
AE
100
AcDbEntity
  8
3D-S-COLS-ANLY
370
     9
100
AcDbVertex
100
AcDbPolyFaceMeshVertex
 10
-0.46875
 20
-2.499999940395354
 30
0.00000000000255
 70
   192
  0
VERTEX
  5
B1
330
AE
100
AcDbEntity
  8
3D-S-COLS-ANLY
370
     9
100
AcDbVertex
100
AcDbPolyFaceMeshVertex
 10
-0.46875
 20
-2.499999940395354
 30
2.499999940395354
 70
   192
  0
VERTEX
  5
B2
330
AE
100
AcDbEntity
  8
3D-S-COLS-ANLY
370
     9
100
AcDbVertex
100
AcDbPolyFaceMeshVertex
 10
-0.46875
 20
-2.438956260681151
 30
8.146302223205564
 70
   192
  0
VERTEX
  5
B3
330
AE
100
AcDbEntity
  8
3D-S-COLS-ANLY
370
     9
100
AcDbVertex
100
AcDbPolyFaceMeshVertex
 10
-0.46875
 20
-2.732109189033507
 30
13.78531980514526
 70
   192
  0
VERTEX
  5
B4
330
AE
100
AcDbEntity
  8
3D-S-COLS-ANLY
370
     9
100
AcDbVertex
100
AcDbPolyFaceMeshVertex
 10
-0.46875
 20
-3.378304839134215
 30
19.39485454559326
 70
   192
  0
VERTEX
  5
B5
330
AE
100
AcDbEntity
  8
3D-S-COLS-ANLY
370
     9
100
AcDbVertex
100
AcDbPolyFaceMeshVertex
 10
-0.46875
 20
-4.375000119209288
 30
24.95282649993896
 70
   192
  0
VERTEX
  5
B6
330
AE
100
AcDbEntity
  8
3D-S-COLS-ANLY
370
     9
100
AcDbVertex
100
AcDbPolyFaceMeshVertex
 10
-0.46875
 20
-4.375000119209288
 30
24.99999904632568
 70
   192
  0
VERTEX
  5
B7
330
AE
100
AcDbEntity
  8
3D-S-COLS-ANLY
370
     9
100
AcDbVertex
100
AcDbPolyFaceMeshVertex
 10
-0.46875
 20
-5.022047638893126
 30
25.08518600463867
 70
   192
  0
VERTEX
  5
B8
330
AE
100
AcDbEntity
  8
3D-S-COLS-ANLY
370
     9
100
AcDbVertex
100
AcDbPolyFaceMeshVertex
 10
-0.46875
 20
-5.624999999999999
 30
25.33493614196777
 70
   192
  0
VERTEX
  5
B9
330
AE
100
AcDbEntity
  8
3D-S-COLS-ANLY
370
     9
100
AcDbVertex
100
AcDbPolyFaceMeshVertex
 10
-0.46875
 20
-6.142767190933226
 30
25.73223209381103
 70
   192
  0
VERTEX
  5
BA
330
AE
100
AcDbEntity
  8
3D-S-COLS-ANLY
370
     9
100
AcDbVertex
100
AcDbPolyFaceMeshVertex
 10
-0.46875
 20
-6.540063858032225
 30
26.25
 70
   192
  0
VERTEX
  5
BB
330
AE
100
AcDbEntity
  8
3D-S-COLS-ANLY
370
     9
100
AcDbVertex
100
AcDbPolyFaceMeshVertex
 10
-0.46875
 20
-6.789814710617064
 30
26.852952003479
 70
   192
  0
VERTEX
  5
BC
330
AE
100
AcDbEntity
  8
3D-S-COLS-ANLY
370
     9
100
AcDbVertex
100
AcDbPolyFaceMeshVertex
 10
-0.46875
 20
-6.875000238418578
 30
27.50000095367431
 70
   192
  0
VERTEX
  5
BD
330
AE
100
AcDbEntity
  8
3D-S-COLS-ANLY
370
     9
100
AcDbVertex
100
AcDbPolyFaceMeshVertex
 10
-0.46875
 20
-6.789814710617064
 30
28.14704704284668
 70
   192
  0
VERTEX
  5
BE
330
AE
100
AcDbEntity
  8
3D-S-COLS-ANLY
370
     9
100
AcDbVertex
100
AcDbPolyFaceMeshVertex
 10
-0.46875
 20
-6.540063858032225
 30
28.74999904632568
 70
   192
  0
VERTEX
  5
BF
330
AE
100
AcDbEntity
  8
3D-S-COLS-ANLY
370
     9
100
AcDbVertex
100
AcDbPolyFaceMeshVertex
 10
-0.46875
 20
-6.142767190933226
 30
29.26776695251465
 70
   192
  0
VERTEX
  5
C0
330
AE
100
AcDbEntity
  8
3D-S-COLS-ANLY
370
     9
100
AcDbVertex
100
AcDbPolyFaceMeshVertex
 10
-0.46875
 20
-5.624999999999999
 30
29.66506290435791
 70
   192
  0
VERTEX
  5
C1
330
AE
100
AcDbEntity
  8
3D-S-COLS-ANLY
370
     9
100
AcDbVertex
100
AcDbPolyFaceMeshVertex
 10
-0.46875
 20
-5.022047638893126
 30
29.91481590270996
 70
   192
  0
VERTEX
  5
C2
330
AE
100
AcDbEntity
  8
3D-S-COLS-ANLY
370
     9
100
AcDbVertex
100
AcDbPolyFaceMeshVertex
 10
-0.46875
 20
-4.375000119209288
 30
30.0
 70
   192
  0
VERTEX
  5
C3
330
AE
100
AcDbEntity
  8
3D-S-COLS-ANLY
370
     9
100
AcDbVertex
100
AcDbPolyFaceMeshVertex
 10
-0.46875
 20
-3.739275097846984
 30
29.91781997680664
 70
   192
  0
VERTEX
  5
C4
330
AE
100
AcDbEntity
  8
3D-S-COLS-ANLY
370
     9
100
AcDbVertex
100
AcDbPolyFaceMeshVertex
 10
-0.46875
 20
-3.14534568786621
 30
29.67668437957764
 70
   192
  0
VERTEX
  5
C5
330
AE
100
AcDbEntity
  8
3D-S-COLS-ANLY
370
     9
100
AcDbVertex
100
AcDbPolyFaceMeshVertex
 10
-0.46875
 20
-2.632258057594298
 30
29.29244327545166
 70
   192
  0
VERTEX
  5
C6
330
AE
100
AcDbEntity
  8
3D-S-COLS-ANLY
370
     9
100
AcDbVertex
100
AcDbPolyFaceMeshVertex
 10
-0.46875
 20
-2.233745455741881
 30
28.79035949707031
 70
   192
  0
VERTEX
  5
C7
330
AE
100
AcDbEntity
  8
3D-S-COLS-ANLY
370
     9
100
AcDbVertex
100
AcDbPolyFaceMeshVertex
 10
-0.46875
 20
-1.976007163524627
 30
28.20344352722168
 70
   192
  0
VERTEX
  5
C8
330
AE
100
AcDbEntity
  8
3D-S-COLS-ANLY
370
     9
100
AcDbVertex
100
AcDbPolyFaceMeshVertex
 10
-0.46875
 20
-1.695722043514251
 30
27.28062915802002
 70
   192
  0
VERTEX
  5
C9
330
AE
100
AcDbEntity
  8
3D-S-COLS-ANLY
370
     9
100
AcDbVertex
100
AcDbPolyFaceMeshVertex
 10
-0.46875
 20
-1.397689998149871
 30
26.36339378356933
 70
   192
  0
VERTEX
  5
CA
330
AE
100
AcDbEntity
  8
3D-S-COLS-ANLY
370
     9
100
AcDbVertex
100
AcDbPolyFaceMeshVertex
 10
-0.46875
 20
0.2981090024113655
 30
20.88425159454345
 70
   192
  0
VERTEX
  5
CB
330
AE
100
AcDbEntity
  8
3D-S-COLS-ANLY
370
     9
100
AcDbVertex
100
AcDbPolyFaceMeshVertex
 10
-0.46875
 20
1.518375992774963
 30
15.27999687194824
 70
   192
  0
VERTEX
  5
CC
330
AE
100
AcDbEntity
  8
3D-S-COLS-ANLY
370
     9
100
AcDbVertex
100
AcDbPolyFaceMeshVertex
 10
-0.46875
 20
2.254142224788665
 30
9.591819763183591
 70
   192
  0
VERTEX
  5
CD
330
AE
100
AcDbEntity
  8
3D-S-COLS-ANLY
370
     9
100
AcDbVertex
100
AcDbPolyFaceMeshVertex
 10
-0.46875
 20
2.499999940395354
 30
3.861525177955627
 70
   192
  0
VERTEX
  5
CE
330
AE
100
AcDbEntity
  8
3D-S-COLS-ANLY
370
     9
100
AcDbFaceRecord
 10
0.0
 20
0.0
 30
0.0
 70
   128
 71
    30
 72
   -31
 73
     4
 74
    -5
  0
VERTEX
  5
CF
330
AE
100
AcDbEntity
  8
3D-S-COLS-ANLY
370
     9
100
AcDbFaceRecord
 10
0.0
 20
0.0
 30
0.0
 70
   128
 71
    31
 72
    -1
 73
     3
 74
    -4
  0
VERTEX
  5
D0
330
AE
100
AcDbEntity
  8
3D-S-COLS-ANLY
370
     9
100
AcDbFaceRecord
 10
0.0
 20
0.0
 30
0.0
 70
   128
 71
     5
 72
    -6
 73
    29
 74
   -30
  0
VERTEX
  5
D1
330
AE
100
AcDbEntity
  8
3D-S-COLS-ANLY
370
     9
100
AcDbFaceRecord
 10
0.0
 20
0.0
 30
0.0
 70
   128
 71
    -3
 72
     1
 73
     2
  0
VERTEX
  5
D2
330
AE
100
AcDbEntity
  8
3D-S-COLS-ANLY
370
     9
100
AcDbFaceRecord
 10
0.0
 20
0.0
 30
0.0
 70
   128
 71
    27
 72
   -28
 73
     7
 74
    -8
  0
VERTEX
  5
D3
330
AE
100
AcDbEntity
  8
3D-S-COLS-ANLY
370
     9
100
AcDbFaceRecord
 10
0.0
 20
0.0
 30
0.0
 70
   128
 71
    25
 72
   -26
 73
    -8
 74
   -10
  0
VERTEX
  5
D4
330
AE
100
AcDbEntity
  8
3D-S-COLS-ANLY
370
     9
100
AcDbFaceRecord
 10
0.0
 20
0.0
 30
0.0
 70
   128
 71
    28
 72
   -29
 73
     6
 74
    -7
  0
VERTEX
  5
D5
330
AE
100
AcDbEntity
  8
3D-S-COLS-ANLY
370
     9
100
AcDbFaceRecord
 10
0.0
 20
0.0
 30
0.0
 70
   128
 71
    23
 72
   -24
 73
    15
 74
   -16
  0
VERTEX
  5
D6
330
AE
100
AcDbEntity
  8
3D-S-COLS-ANLY
370
     9
100
AcDbFaceRecord
 10
0.0
 20
0.0
 30
0.0
 70
   128
 71
    22
 72
   -23
 73
    16
 74
   -17
  0
VERTEX
  5
D7
330
AE
100
AcDbEntity
  8
3D-S-COLS-ANLY
370
     9
100
AcDbFaceRecord
 10
0.0
 20
0.0
 30
0.0
 70
   128
 71
   -14
 72
    24
 73
   -25
 74
    13
  0
VERTEX
  5
D8
330
AE
100
AcDbEntity
  8
3D-S-COLS-ANLY
370
     9
100
AcDbFaceRecord
 10
0.0
 20
0.0
 30
0.0
 70
   128
 71
   -27
 72
    -8
 73
    26
  0
VERTEX
  5
D9
330
AE
100
AcDbEntity
  8
3D-S-COLS-ANLY
370
     9
100
AcDbFaceRecord
 10
0.0
 20
0.0
 30
0.0
 70
   128
 71
     8
 72
     9
 73
   -10
  0
VERTEX
  5
DA
330
AE
100
AcDbEntity
  8
3D-S-COLS-ANLY
370
     9
100
AcDbFaceRecord
 10
0.0
 20
0.0
 30
0.0
 70
   128
 71
   -25
 72
    11
 73
    12
 74
   -13
  0
VERTEX
  5
DB
330
AE
100
AcDbEntity
  8
3D-S-COLS-ANLY
370
     9
100
AcDbFaceRecord
 10
0.0
 20
0.0
 30
0.0
 70
   128
 71
    10
 72
   -11
 73
   -25
  0
VERTEX
  5
DC
330
AE
100
AcDbEntity
  8
3D-S-COLS-ANLY
370
     9
100
AcDbFaceRecord
 10
0.0
 20
0.0
 30
0.0
 70
   128
 71
    18
 72
    19
 73
    20
 74
   -21
  0
VERTEX
  5
DD
330
AE
100
AcDbEntity
  8
3D-S-COLS-ANLY
370
     9
100
AcDbFaceRecord
 10
0.0
 20
0.0
 30
0.0
 70
   128
 71
    17
 72
   -18
 73
    21
 74
   -22
  0
VERTEX
  5
DE
330
AE
100
AcDbEntity
  8
3D-S-COLS-ANLY
370
     9
100
AcDbFaceRecord
 10
0.0
 20
0.0
 30
0.0
 70
   128
 71
    14
 72
   -15
 73
   -24
  0
SEQEND
  5
DF
330
AE
100
AcDbEntity
  8
3D-S-COLS-ANLY
370
     9
  0
POLYLINE
  5
E0
330
7B
100
AcDbEntity
  8
3D-S-COLS-ANLY
370
     9
100
AcDbPolyFaceMesh
 66
     1
 10
0.0
 20
0.0
 30
0.0
 70
    64
 71
     4
 72
     1
1001
REVIT
1002
{
1070
     3
1000
160355
1002
}
  0
VERTEX
  5
E1
330
E0
100
AcDbEntity
  8
3D-S-COLS-ANLY
370
     9
100
AcDbVertex
100
AcDbPolyFaceMeshVertex
 10
0.46875
 20
2.499999940395354
 30
3.861525177955627
 70
   192
  0
VERTEX
  5
E2
330
E0
100
AcDbEntity
  8
3D-S-COLS-ANLY
370
     9
100
AcDbVertex
100
AcDbPolyFaceMeshVertex
 10
0.46875
 20
2.499999940395354
 30
0.0000000000026192
 70
   192
  0
VERTEX
  5
E3
330
E0
100
AcDbEntity
  8
3D-S-COLS-ANLY
370
     9
100
AcDbVertex
100
AcDbPolyFaceMeshVertex
 10
-0.46875
 20
2.499999940395354
 30
0.0000000000026192
 70
   192
  0
VERTEX
  5
E4
330
E0
100
AcDbEntity
  8
3D-S-COLS-ANLY
370
     9
100
AcDbVertex
100
AcDbPolyFaceMeshVertex
 10
-0.46875
 20
2.499999940395354
 30
3.861525177955627
 70
   192
  0
VERTEX
  5
E5
330
E0
100
AcDbEntity
  8
3D-S-COLS-ANLY
370
     9
100
AcDbFaceRecord
 10
0.0
 20
0.0
 30
0.0
 70
   128
 71
     4
 72
     1
 73
     2
 74
     3
  0
SEQEND
  5
E6
330
E0
100
AcDbEntity
  8
3D-S-COLS-ANLY
370
     9
  0
POLYLINE
  5
E7
330
7B
100
AcDbEntity
  8
3D-S-COLS-ANLY
370
     9
100
AcDbPolyFaceMesh
 66
     1
 10
0.0
 20
0.0
 30
0.0
 70
    64
 71
    10
 72
     4
1001
REVIT
1002
{
1070
     3
1000
160355
1002
}
  0
VERTEX
  5
E8
330
E7
100
AcDbEntity
  8
3D-S-COLS-ANLY
370
     9
100
AcDbVertex
100
AcDbPolyFaceMeshVertex
 10
0.46875
 20
-1.397689998149871
 30
26.36339378356933
 70
   192
  0
VERTEX
  5
E9
330
E7
100
AcDbEntity
  8
3D-S-COLS-ANLY
370
     9
100
AcDbVertex
100
AcDbPolyFaceMeshVertex
 10
0.46875
 20
0.2981090024113655
 30
20.88425159454345
 70
   192
  0
VERTEX
  5
EA
330
E7
100
AcDbEntity
  8
3D-S-COLS-ANLY
370
     9
100
AcDbVertex
100
AcDbPolyFaceMeshVertex
 10
0.46875
 20
1.518375992774963
 30
15.27999687194824
 70
   192
  0
VERTEX
  5
EB
330
E7
100
AcDbEntity
  8
3D-S-COLS-ANLY
370
     9
100
AcDbVertex
100
AcDbPolyFaceMeshVertex
 10
0.46875
 20
2.254142224788665
 30
9.591819763183591
 70
   192
  0
VERTEX
  5
EC
330
E7
100
AcDbEntity
  8
3D-S-COLS-ANLY
370
     9
100
AcDbVertex
100
AcDbPolyFaceMeshVertex
 10
0.46875
 20
2.499999940395354
 30
3.861525177955627
 70
   192
  0
VERTEX
  5
ED
330
E7
100
AcDbEntity
  8
3D-S-COLS-ANLY
370
     9
100
AcDbVertex
100
AcDbPolyFaceMeshVertex
 10
-0.46875
 20
2.499999940395354
 30
3.861525177955627
 70
   192
  0
VERTEX
  5
EE
330
E7
100
AcDbEntity
  8
3D-S-COLS-ANLY
370
     9
100
AcDbVertex
100
AcDbPolyFaceMeshVertex
 10
-0.46875
 20
2.254142224788665
 30
9.591819763183591
 70
   192
  0
VERTEX
  5
EF
330
E7
100
AcDbEntity
  8
3D-S-COLS-ANLY
370
     9
100
AcDbVertex
100
AcDbPolyFaceMeshVertex
 10
-0.46875
 20
1.518375992774963
 30
15.27999687194824
 70
   192
  0
VERTEX
  5
F0
330
E7
100
AcDbEntity
  8
3D-S-COLS-ANLY
370
     9
100
AcDbVertex
100
AcDbPolyFaceMeshVertex
 10
-0.46875
 20
0.2981090024113655
 30
20.88425159454345
 70
   192
  0
VERTEX
  5
F1
330
E7
100
AcDbEntity
  8
3D-S-COLS-ANLY
370
     9
100
AcDbVertex
100
AcDbPolyFaceMeshVertex
 10
-0.46875
 20
-1.397689998149871
 30
26.36339378356933
 70
   192
  0
VERTEX
  5
F2
330
E7
100
AcDbEntity
  8
3D-S-COLS-ANLY
370
     9
100
AcDbFaceRecord
 10
0.0
 20
0.0
 30
0.0
 70
   128
 71
     6
 72
    -7
 73
     4
 74
     5
  0
VERTEX
  5
F3
330
E7
100
AcDbEntity
  8
3D-S-COLS-ANLY
370
     9
100
AcDbFaceRecord
 10
0.0
 20
0.0
 30
0.0
 70
   128
 71
     3
 72
    -4
 73
     7
 74
    -8
  0
VERTEX
  5
F4
330
E7
100
AcDbEntity
  8
3D-S-COLS-ANLY
370
     9
100
AcDbFaceRecord
 10
0.0
 20
0.0
 30
0.0
 70
   128
 71
     9
 72
    10
 73
     1
 74
    -2
  0
VERTEX
  5
F5
330
E7
100
AcDbEntity
  8
3D-S-COLS-ANLY
370
     9
100
AcDbFaceRecord
 10
0.0
 20
0.0
 30
0.0
 70
   128
 71
     8
 72
    -9
 73
     2
 74
    -3
  0
SEQEND
  5
F6
330
E7
100
AcDbEntity
  8
3D-S-COLS-ANLY
370
     9
  0
POLYLINE
  5
F7
330
7B
100
AcDbEntity
  8
3D-S-COLS-ANLY
370
     9
100
AcDbPolyFaceMesh
 66
     1
 10
0.0
 20
0.0
 30
0.0
 70
    64
 71
     6
 72
     2
1001
REVIT
1002
{
1070
     3
1000
160355
1002
}
  0
VERTEX
  5
F8
330
F7
100
AcDbEntity
  8
3D-S-COLS-ANLY
370
     9
100
AcDbVertex
100
AcDbPolyFaceMeshVertex
 10
0.46875
 20
-1.976007163524627
 30
28.20344352722168
 70
   192
  0
VERTEX
  5
F9
330
F7
100
AcDbEntity
  8
3D-S-COLS-ANLY
370
     9
100
AcDbVertex
100
AcDbPolyFaceMeshVertex
 10
0.46875
 20
-1.695722043514251
 30
27.28062915802002
 70
   192
  0
VERTEX
  5
FA
330
F7
100
AcDbEntity
  8
3D-S-COLS-ANLY
370
     9
100
AcDbVertex
100
AcDbPolyFaceMeshVertex
 10
0.46875
 20
-1.397689998149871
 30
26.36339378356933
 70
   192
  0
VERTEX
  5
FB
330
F7
100
AcDbEntity
  8
3D-S-COLS-ANLY
370
     9
100
AcDbVertex
100
AcDbPolyFaceMeshVertex
 10
-0.46875
 20
-1.397689998149871
 30
26.36339378356933
 70
   192
  0
VERTEX
  5
FC
330
F7
100
AcDbEntity
  8
3D-S-COLS-ANLY
370
     9
100
AcDbVertex
100
AcDbPolyFaceMeshVertex
 10
-0.46875
 20
-1.695722043514251
 30
27.28062915802002
 70
   192
  0
VERTEX
  5
FD
330
F7
100
AcDbEntity
  8
3D-S-COLS-ANLY
370
     9
100
AcDbVertex
100
AcDbPolyFaceMeshVertex
 10
-0.46875
 20
-1.976007163524627
 30
28.20344352722168
 70
   192
  0
VERTEX
  5
FE
330
F7
100
AcDbEntity
  8
3D-S-COLS-ANLY
370
     9
100
AcDbFaceRecord
 10
0.0
 20
0.0
 30
0.0
 70
   128
 71
     2
 72
     3
 73
     4
 74
    -5
  0
VERTEX
  5
FF
330
F7
100
AcDbEntity
  8
3D-S-COLS-ANLY
370
     9
100
AcDbFaceRecord
 10
0.0
 20
0.0
 30
0.0
 70
   128
 71
     5
 72
     6
 73
     1
 74
    -2
  0
SEQEND
  5
100
330
F7
100
AcDbEntity
  8
3D-S-COLS-ANLY
370
     9
  0
POLYLINE
  5
101
330
7B
100
AcDbEntity
  8
3D-S-COLS-ANLY
370
     9
100
AcDbPolyFaceMesh
 66
     1
 10
0.0
 20
0.0
 30
0.0
 70
    64
 71
    26
 72
    12
1001
REVIT
1002
{
1070
     3
1000
160355
1002
}
  0
VERTEX
  5
102
330
101
100
AcDbEntity
  8
3D-S-COLS-ANLY
370
     9
100
AcDbVertex
100
AcDbPolyFaceMeshVertex
 10
0.46875
 20
-4.375000119209288
 30
24.99999904632568
 70
   192
  0
VERTEX
  5
103
330
101
100
AcDbEntity
  8
3D-S-COLS-ANLY
370
     9
100
AcDbVertex
100
AcDbPolyFaceMeshVertex
 10
0.46875
 20
-5.022047638893126
 30
25.08518600463867
 70
   192
  0
VERTEX
  5
104
330
101
100
AcDbEntity
  8
3D-S-COLS-ANLY
370
     9
100
AcDbVertex
100
AcDbPolyFaceMeshVertex
 10
0.46875
 20
-5.624999999999999
 30
25.33493614196777
 70
   192
  0
VERTEX
  5
105
330
101
100
AcDbEntity
  8
3D-S-COLS-ANLY
370
     9
100
AcDbVertex
100
AcDbPolyFaceMeshVertex
 10
0.46875
 20
-6.142767190933226
 30
25.73223209381103
 70
   192
  0
VERTEX
  5
106
330
101
100
AcDbEntity
  8
3D-S-COLS-ANLY
370
     9
100
AcDbVertex
100
AcDbPolyFaceMeshVertex
 10
0.46875
 20
-6.540063858032225
 30
26.25
 70
   192
  0
VERTEX
  5
107
330
101
100
AcDbEntity
  8
3D-S-COLS-ANLY
370
     9
100
AcDbVertex
100
AcDbPolyFaceMeshVertex
 10
0.46875
 20
-6.789814710617064
 30
26.852952003479
 70
   192
  0
VERTEX
  5
108
330
101
100
AcDbEntity
  8
3D-S-COLS-ANLY
370
     9
100
AcDbVertex
100
AcDbPolyFaceMeshVertex
 10
0.46875
 20
-6.875000238418578
 30
27.50000095367431
 70
   192
  0
VERTEX
  5
109
330
101
100
AcDbEntity
  8
3D-S-COLS-ANLY
370
     9
100
AcDbVertex
100
AcDbPolyFaceMeshVertex
 10
0.46875
 20
-6.789814710617064
 30
28.14704704284668
 70
   192
  0
VERTEX
  5
10A
330
101
100
AcDbEntity
  8
3D-S-COLS-ANLY
370
     9
100
AcDbVertex
100
AcDbPolyFaceMeshVertex
 10
0.46875
 20
-6.540063858032225
 30
28.74999904632568
 70
   192
  0
VERTEX
  5
10B
330
101
100
AcDbEntity
  8
3D-S-COLS-ANLY
370
     9
100
AcDbVertex
100
AcDbPolyFaceMeshVertex
 10
0.46875
 20
-6.142767190933226
 30
29.26776695251465
 70
   192
  0
VERTEX
  5
10C
330
101
100
AcDbEntity
  8
3D-S-COLS-ANLY
370
     9
100
AcDbVertex
100
AcDbPolyFaceMeshVertex
 10
0.46875
 20
-5.624999999999999
 30
29.66506290435791
 70
   192
  0
VERTEX
  5
10D
330
101
100
AcDbEntity
  8
3D-S-COLS-ANLY
370
     9
100
AcDbVertex
100
AcDbPolyFaceMeshVertex
 10
0.46875
 20
-5.022047638893126
 30
29.91481590270996
 70
   192
  0
VERTEX
  5
10E
330
101
100
AcDbEntity
  8
3D-S-COLS-ANLY
370
     9
100
AcDbVertex
100
AcDbPolyFaceMeshVertex
 10
0.46875
 20
-4.375000119209288
 30
30.0
 70
   192
  0
VERTEX
  5
10F
330
101
100
AcDbEntity
  8
3D-S-COLS-ANLY
370
     9
100
AcDbVertex
100
AcDbPolyFaceMeshVertex
 10
-0.46875
 20
-4.375000119209288
 30
30.0
 70
   192
  0
VERTEX
  5
110
330
101
100
AcDbEntity
  8
3D-S-COLS-ANLY
370
     9
100
AcDbVertex
100
AcDbPolyFaceMeshVertex
 10
-0.46875
 20
-5.022047638893126
 30
29.91481590270996
 70
   192
  0
VERTEX
  5
111
330
101
100
AcDbEntity
  8
3D-S-COLS-ANLY
370
     9
100
AcDbVertex
100
AcDbPolyFaceMeshVertex
 10
-0.46875
 20
-5.624999999999999
 30
29.66506290435791
 70
   192
  0
VERTEX
  5
112
330
101
100
AcDbEntity
  8
3D-S-COLS-ANLY
370
     9
100
AcDbVertex
100
AcDbPolyFaceMeshVertex
 10
-0.46875
 20
-6.142767190933226
 30
29.26776695251465
 70
   192
  0
VERTEX
  5
113
330
101
100
AcDbEntity
  8
3D-S-COLS-ANLY
370
     9
100
AcDbVertex
100
AcDbPolyFaceMeshVertex
 10
-0.46875
 20
-6.540063858032225
 30
28.74999904632568
 70
   192
  0
VERTEX
  5
114
330
101
100
AcDbEntity
  8
3D-S-COLS-ANLY
370
     9
100
AcDbVertex
100
AcDbPolyFaceMeshVertex
 10
-0.46875
 20
-6.789814710617064
 30
28.14704704284668
 70
   192
  0
VERTEX
  5
115
330
101
100
AcDbEntity
  8
3D-S-COLS-ANLY
370
     9
100
AcDbVertex
100
AcDbPolyFaceMeshVertex
 10
-0.46875
 20
-6.875000238418578
 30
27.50000095367431
 70
   192
  0
VERTEX
  5
116
330
101
100
AcDbEntity
  8
3D-S-COLS-ANLY
370
     9
100
AcDbVertex
100
AcDbPolyFaceMeshVertex
 10
-0.46875
 20
-6.789814710617064
 30
26.852952003479
 70
   192
  0
VERTEX
  5
117
330
101
100
AcDbEntity
  8
3D-S-COLS-ANLY
370
     9
100
AcDbVertex
100
AcDbPolyFaceMeshVertex
 10
-0.46875
 20
-6.540063858032225
 30
26.25
 70
   192
  0
VERTEX
  5
118
330
101
100
AcDbEntity
  8
3D-S-COLS-ANLY
370
     9
100
AcDbVertex
100
AcDbPolyFaceMeshVertex
 10
-0.46875
 20
-6.142767190933226
 30
25.73223209381103
 70
   192
  0
VERTEX
  5
119
330
101
100
AcDbEntity
  8
3D-S-COLS-ANLY
370
     9
100
AcDbVertex
100
AcDbPolyFaceMeshVertex
 10
-0.46875
 20
-5.624999999999999
 30
25.33493614196777
 70
   192
  0
VERTEX
  5
11A
330
101
100
AcDbEntity
  8
3D-S-COLS-ANLY
370
     9
100
AcDbVertex
100
AcDbPolyFaceMeshVertex
 10
-0.46875
 20
-5.022047638893126
 30
25.08518600463867
 70
   192
  0
VERTEX
  5
11B
330
101
100
AcDbEntity
  8
3D-S-COLS-ANLY
370
     9
100
AcDbVertex
100
AcDbPolyFaceMeshVertex
 10
-0.46875
 20
-4.375000119209288
 30
24.99999904632568
 70
   192
  0
VERTEX
  5
11C
330
101
100
AcDbEntity
  8
3D-S-COLS-ANLY
370
     9
100
AcDbFaceRecord
 10
0.0
 20
0.0
 30
0.0
 70
   128
 71
    13
 72
    14
 73
   -15
 74
    12
  0
VERTEX
  5
11D
330
101
100
AcDbEntity
  8
3D-S-COLS-ANLY
370
     9
100
AcDbFaceRecord
 10
0.0
 20
0.0
 30
0.0
 70
   128
 71
   -12
 72
    15
 73
   -16
 74
    11
  0
VERTEX
  5
11E
330
101
100
AcDbEntity
  8
3D-S-COLS-ANLY
370
     9
100
AcDbFaceRecord
 10
0.0
 20
0.0
 30
0.0
 70
   128
 71
   -10
 72
    17
 73
   -18
 74
     9
  0
VERTEX
  5
11F
330
101
100
AcDbEntity
  8
3D-S-COLS-ANLY
370
     9
100
AcDbFaceRecord
 10
0.0
 20
0.0
 30
0.0
 70
   128
 71
   -11
 72
    16
 73
   -17
 74
    10
  0
VERTEX
  5
120
330
101
100
AcDbEntity
  8
3D-S-COLS-ANLY
370
     9
100
AcDbFaceRecord
 10
0.0
 20
0.0
 30
0.0
 70
   128
 71
    -9
 72
    18
 73
   -19
 74
     8
  0
VERTEX
  5
121
330
101
100
AcDbEntity
  8
3D-S-COLS-ANLY
370
     9
100
AcDbFaceRecord
 10
0.0
 20
0.0
 30
0.0
 70
   128
 71
   -20
 72
     7
 73
    -8
 74
    19
  0
VERTEX
  5
122
330
101
100
AcDbEntity
  8
3D-S-COLS-ANLY
370
     9
100
AcDbFaceRecord
 10
0.0
 20
0.0
 30
0.0
 70
   128
 71
    -6
 72
    21
 73
   -22
 74
     5
  0
VERTEX
  5
123
330
101
100
AcDbEntity
  8
3D-S-COLS-ANLY
370
     9
100
AcDbFaceRecord
 10
0.0
 20
0.0
 30
0.0
 70
   128
 71
    -5
 72
    22
 73
   -23
 74
     4
  0
VERTEX
  5
124
330
101
100
AcDbEntity
  8
3D-S-COLS-ANLY
370
     9
100
AcDbFaceRecord
 10
0.0
 20
0.0
 30
0.0
 70
   128
 71
    -3
 72
    24
 73
   -25
 74
     2
  0
VERTEX
  5
125
330
101
100
AcDbEntity
  8
3D-S-COLS-ANLY
370
     9
100
AcDbFaceRecord
 10
0.0
 20
0.0
 30
0.0
 70
   128
 71
    -4
 72
    23
 73
   -24
 74
     3
  0
VERTEX
  5
126
330
101
100
AcDbEntity
  8
3D-S-COLS-ANLY
370
     9
100
AcDbFaceRecord
 10
0.0
 20
0.0
 30
0.0
 70
   128
 71
    -2
 72
    25
 73
    26
 74
     1
  0
VERTEX
  5
127
330
101
100
AcDbEntity
  8
3D-S-COLS-ANLY
370
     9
100
AcDbFaceRecord
 10
0.0
 20
0.0
 30
0.0
 70
   128
 71
   -21
 72
     6
 73
    -7
 74
    20
  0
SEQEND
  5
128
330
101
100
AcDbEntity
  8
3D-S-COLS-ANLY
370
     9
  0
POLYLINE
  5
129
330
7B
100
AcDbEntity
  8
3D-S-COLS-ANLY
370
     9
100
AcDbPolyFaceMesh
 66
     1
 10
0.0
 20
0.0
 30
0.0
 70
    64
 71
    10
 72
     4
1001
REVIT
1002
{
1070
     3
1000
160355
1002
}
  0
VERTEX
  5
12A
330
129
100
AcDbEntity
  8
3D-S-COLS-ANLY
370
     9
100
AcDbVertex
100
AcDbPolyFaceMeshVertex
 10
0.46875
 20
-2.499999940395354
 30
2.499999940395354
 70
   192
  0
VERTEX
  5
12B
330
129
100
AcDbEntity
  8
3D-S-COLS-ANLY
370
     9
100
AcDbVertex
100
AcDbPolyFaceMeshVertex
 10
0.46875
 20
-2.438956260681151
 30
8.146302223205564
 70
   192
  0
VERTEX
  5
12C
330
129
100
AcDbEntity
  8
3D-S-COLS-ANLY
370
     9
100
AcDbVertex
100
AcDbPolyFaceMeshVertex
 10
0.46875
 20
-2.732109189033507
 30
13.78531980514526
 70
   192
  0
VERTEX
  5
12D
330
129
100
AcDbEntity
  8
3D-S-COLS-ANLY
370
     9
100
AcDbVertex
100
AcDbPolyFaceMeshVertex
 10
0.46875
 20
-3.378304839134215
 30
19.39485454559326
 70
   192
  0
VERTEX
  5
12E
330
129
100
AcDbEntity
  8
3D-S-COLS-ANLY
370
     9
100
AcDbVertex
100
AcDbPolyFaceMeshVertex
 10
0.46875
 20
-4.375000119209288
 30
24.95282649993896
 70
   192
  0
VERTEX
  5
12F
330
129
100
AcDbEntity
  8
3D-S-COLS-ANLY
370
     9
100
AcDbVertex
100
AcDbPolyFaceMeshVertex
 10
-0.46875
 20
-4.375000119209288
 30
24.95282649993896
 70
   192
  0
VERTEX
  5
130
330
129
100
AcDbEntity
  8
3D-S-COLS-ANLY
370
     9
100
AcDbVertex
100
AcDbPolyFaceMeshVertex
 10
-0.46875
 20
-3.378304839134215
 30
19.39485454559326
 70
   192
  0
VERTEX
  5
131
330
129
100
AcDbEntity
  8
3D-S-COLS-ANLY
370
     9
100
AcDbVertex
100
AcDbPolyFaceMeshVertex
 10
-0.46875
 20
-2.732109189033507
 30
13.78531980514526
 70
   192
  0
VERTEX
  5
132
330
129
100
AcDbEntity
  8
3D-S-COLS-ANLY
370
     9
100
AcDbVertex
100
AcDbPolyFaceMeshVertex
 10
-0.46875
 20
-2.438956260681151
 30
8.146302223205564
 70
   192
  0
VERTEX
  5
133
330
129
100
AcDbEntity
  8
3D-S-COLS-ANLY
370
     9
100
AcDbVertex
100
AcDbPolyFaceMeshVertex
 10
-0.46875
 20
-2.499999940395354
 30
2.499999940395354
 70
   192
  0
VERTEX
  5
134
330
129
100
AcDbEntity
  8
3D-S-COLS-ANLY
370
     9
100
AcDbFaceRecord
 10
0.0
 20
0.0
 30
0.0
 70
   128
 71
     3
 72
    -4
 73
     7
 74
    -8
  0
VERTEX
  5
135
330
129
100
AcDbEntity
  8
3D-S-COLS-ANLY
370
     9
100
AcDbFaceRecord
 10
0.0
 20
0.0
 30
0.0
 70
   128
 71
     4
 72
     5
 73
     6
 74
    -7
  0
VERTEX
  5
136
330
129
100
AcDbEntity
  8
3D-S-COLS-ANLY
370
     9
100
AcDbFaceRecord
 10
0.0
 20
0.0
 30
0.0
 70
   128
 71
     1
 72
    -2
 73
     9
 74
    10
  0
VERTEX
  5
137
330
129
100
AcDbEntity
  8
3D-S-COLS-ANLY
370
     9
100
AcDbFaceRecord
 10
0.0
 20
0.0
 30
0.0
 70
   128
 71
     8
 72
    -9
 73
     2
 74
    -3
  0
SEQEND
  5
138
330
129
100
AcDbEntity
  8
3D-S-COLS-ANLY
370
     9
  0
POLYLINE
  5
139
330
7B
100
AcDbEntity
  8
3D-S-COLS-ANLY
370
     9
100
AcDbPolyFaceMesh
 66
     1
 10
0.0
 20
0.0
 30
0.0
 70
    64
 71
     4
 72
     1
1001
REVIT
1002
{
1070
     3
1000
160355
1002
}
  0
VERTEX
  5
13A
330
139
100
AcDbEntity
  8
3D-S-COLS-ANLY
370
     9
100
AcDbVertex
100
AcDbPolyFaceMeshVertex
 10
0.46875
 20
-2.499999940395354
 30
0.00000000000255
 70
   192
  0
VERTEX
  5
13B
330
139
100
AcDbEntity
  8
3D-S-COLS-ANLY
370
     9
100
AcDbVertex
100
AcDbPolyFaceMeshVertex
 10
0.46875
 20
-2.499999940395354
 30
2.499999940395354
 70
   192
  0
VERTEX
  5
13C
330
139
100
AcDbEntity
  8
3D-S-COLS-ANLY
370
     9
100
AcDbVertex
100
AcDbPolyFaceMeshVertex
 10
-0.46875
 20
-2.499999940395354
 30
2.499999940395354
 70
   192
  0
VERTEX
  5
13D
330
139
100
AcDbEntity
  8
3D-S-COLS-ANLY
370
     9
100
AcDbVertex
100
AcDbPolyFaceMeshVertex
 10
-0.46875
 20
-2.499999940395354
 30
0.00000000000255
 70
   192
  0
VERTEX
  5
13E
330
139
100
AcDbEntity
  8
3D-S-COLS-ANLY
370
     9
100
AcDbFaceRecord
 10
0.0
 20
0.0
 30
0.0
 70
   128
 71
     1
 72
     2
 73
     3
 74
     4
  0
SEQEND
  5
13F
330
139
100
AcDbEntity
  8
3D-S-COLS-ANLY
370
     9
  0
POLYLINE
  5
140
330
7B
100
AcDbEntity
  8
3D-S-COLS-ANLY
370
     9
100
AcDbPolyFaceMesh
 66
     1
 10
0.0
 20
0.0
 30
0.0
 70
    64
 71
     4
 72
     1
1001
REVIT
1002
{
1070
     3
1000
160355
1002
}
  0
VERTEX
  5
141
330
140
100
AcDbEntity
  8
3D-S-COLS-ANLY
370
     9
100
AcDbVertex
100
AcDbPolyFaceMeshVertex
 10
0.46875
 20
-2.499999940395354
 30
0.0000000000025484
 70
   192
  0
VERTEX
  5
142
330
140
100
AcDbEntity
  8
3D-S-COLS-ANLY
370
     9
100
AcDbVertex
100
AcDbPolyFaceMeshVertex
 10
-0.46875
 20
-2.499999940395354
 30
0.0000000000025484
 70
   192
  0
VERTEX
  5
143
330
140
100
AcDbEntity
  8
3D-S-COLS-ANLY
370
     9
100
AcDbVertex
100
AcDbPolyFaceMeshVertex
 10
-0.46875
 20
2.499999940395354
 30
0.0000000000026192
 70
   192
  0
VERTEX
  5
144
330
140
100
AcDbEntity
  8
3D-S-COLS-ANLY
370
     9
100
AcDbVertex
100
AcDbPolyFaceMeshVertex
 10
0.46875
 20
2.499999940395354
 30
0.0000000000026192
 70
   192
  0
VERTEX
  5
145
330
140
100
AcDbEntity
  8
3D-S-COLS-ANLY
370
     9
100
AcDbFaceRecord
 10
0.0
 20
0.0
 30
0.0
 70
   128
 71
     4
 72
     1
 73
     2
 74
     3
  0
SEQEND
  5
146
330
140
100
AcDbEntity
  8
3D-S-COLS-ANLY
370
     9
  0
POLYLINE
  5
147
330
7B
100
AcDbEntity
  8
3D-S-COLS-ANLY
370
     9
100
AcDbPolyFaceMesh
 66
     1
 10
0.0
 20
0.0
 30
0.0
 70
    64
 71
    12
 72
     5
1001
REVIT
1002
{
1070
     3
1000
160355
1002
}
  0
VERTEX
  5
148
330
147
100
AcDbEntity
  8
3D-S-COLS-ANLY
370
     9
100
AcDbVertex
100
AcDbPolyFaceMeshVertex
 10
0.46875
 20
-4.375000119209288
 30
30.0
 70
   192
  0
VERTEX
  5
149
330
147
100
AcDbEntity
  8
3D-S-COLS-ANLY
370
     9
100
AcDbVertex
100
AcDbPolyFaceMeshVertex
 10
0.46875
 20
-3.739275097846984
 30
29.91781997680664
 70
   192
  0
VERTEX
  5
14A
330
147
100
AcDbEntity
  8
3D-S-COLS-ANLY
370
     9
100
AcDbVertex
100
AcDbPolyFaceMeshVertex
 10
0.46875
 20
-3.14534568786621
 30
29.67668437957764
 70
   192
  0
VERTEX
  5
14B
330
147
100
AcDbEntity
  8
3D-S-COLS-ANLY
370
     9
100
AcDbVertex
100
AcDbPolyFaceMeshVertex
 10
0.46875
 20
-2.632258057594298
 30
29.29244327545166
 70
   192
  0
VERTEX
  5
14C
330
147
100
AcDbEntity
  8
3D-S-COLS-ANLY
370
     9
100
AcDbVertex
100
AcDbPolyFaceMeshVertex
 10
0.46875
 20
-2.233745455741881
 30
28.79035949707031
 70
   192
  0
VERTEX
  5
14D
330
147
100
AcDbEntity
  8
3D-S-COLS-ANLY
370
     9
100
AcDbVertex
100
AcDbPolyFaceMeshVertex
 10
0.46875
 20
-1.976007163524627
 30
28.20344352722168
 70
   192
  0
VERTEX
  5
14E
330
147
100
AcDbEntity
  8
3D-S-COLS-ANLY
370
     9
100
AcDbVertex
100
AcDbPolyFaceMeshVertex
 10
-0.46875
 20
-1.976007163524627
 30
28.20344352722168
 70
   192
  0
VERTEX
  5
14F
330
147
100
AcDbEntity
  8
3D-S-COLS-ANLY
370
     9
100
AcDbVertex
100
AcDbPolyFaceMeshVertex
 10
-0.46875
 20
-2.233745455741881
 30
28.79035949707031
 70
   192
  0
VERTEX
  5
150
330
147
100
AcDbEntity
  8
3D-S-COLS-ANLY
370
     9
100
AcDbVertex
100
AcDbPolyFaceMeshVertex
 10
-0.46875
 20
-2.632258057594298
 30
29.29244327545166
 70
   192
  0
VERTEX
  5
151
330
147
100
AcDbEntity
  8
3D-S-COLS-ANLY
370
     9
100
AcDbVertex
100
AcDbPolyFaceMeshVertex
 10
-0.46875
 20
-3.14534568786621
 30
29.67668437957764
 70
   192
  0
VERTEX
  5
152
330
147
100
AcDbEntity
  8
3D-S-COLS-ANLY
370
     9
100
AcDbVertex
100
AcDbPolyFaceMeshVertex
 10
-0.46875
 20
-3.739275097846984
 30
29.91781997680664
 70
   192
  0
VERTEX
  5
153
330
147
100
AcDbEntity
  8
3D-S-COLS-ANLY
370
     9
100
AcDbVertex
100
AcDbPolyFaceMeshVertex
 10
-0.46875
 20
-4.375000119209288
 30
30.0
 70
   192
  0
VERTEX
  5
154
330
147
100
AcDbEntity
  8
3D-S-COLS-ANLY
370
     9
100
AcDbFaceRecord
 10
0.0
 20
0.0
 30
0.0
 70
   128
 71
     6
 72
     7
 73
    -8
 74
     5
  0
VERTEX
  5
155
330
147
100
AcDbEntity
  8
3D-S-COLS-ANLY
370
     9
100
AcDbFaceRecord
 10
0.0
 20
0.0
 30
0.0
 70
   128
 71
    -5
 72
     8
 73
    -9
 74
     4
  0
VERTEX
  5
156
330
147
100
AcDbEntity
  8
3D-S-COLS-ANLY
370
     9
100
AcDbFaceRecord
 10
0.0
 20
0.0
 30
0.0
 70
   128
 71
    -4
 72
     9
 73
   -10
 74
     3
  0
VERTEX
  5
157
330
147
100
AcDbEntity
  8
3D-S-COLS-ANLY
370
     9
100
AcDbFaceRecord
 10
0.0
 20
0.0
 30
0.0
 70
   128
 71
    -3
 72
    10
 73
   -11
 74
     2
  0
VERTEX
  5
158
330
147
100
AcDbEntity
  8
3D-S-COLS-ANLY
370
     9
100
AcDbFaceRecord
 10
0.0
 20
0.0
 30
0.0
 70
   128
 71
    -2
 72
    11
 73
    12
 74
     1
  0
SEQEND
  5
159
330
147
100
AcDbEntity
  8
3D-S-COLS-ANLY
370
     9
  0
POLYLINE
  5
15A
330
7B
100
AcDbEntity
  8
3D-S-COLS-ANLY
370
     9
100
AcDbPolyFaceMesh
 66
     1
 10
0.0
 20
0.0
 30
0.0
 70
    64
 71
     4
 72
     1
1001
REVIT
1002
{
1070
     3
1000
160355
1002
}
  0
VERTEX
  5
15B
330
15A
100
AcDbEntity
  8
3D-S-COLS-ANLY
370
     9
100
AcDbVertex
100
AcDbPolyFaceMeshVertex
 10
0.46875
 20
-4.375000119209288
 30
24.95282649993896
 70
   192
  0
VERTEX
  5
15C
330
15A
100
AcDbEntity
  8
3D-S-COLS-ANLY
370
     9
100
AcDbVertex
100
AcDbPolyFaceMeshVertex
 10
0.46875
 20
-4.375000119209288
 30
24.99999904632568
 70
   192
  0
VERTEX
  5
15D
330
15A
100
AcDbEntity
  8
3D-S-COLS-ANLY
370
     9
100
AcDbVertex
100
AcDbPolyFaceMeshVertex
 10
-0.46875
 20
-4.375000119209288
 30
24.99999904632568
 70
   192
  0
VERTEX
  5
15E
330
15A
100
AcDbEntity
  8
3D-S-COLS-ANLY
370
     9
100
AcDbVertex
100
AcDbPolyFaceMeshVertex
 10
-0.46875
 20
-4.375000119209288
 30
24.95282649993896
 70
   192
  0
VERTEX
  5
15F
330
15A
100
AcDbEntity
  8
3D-S-COLS-ANLY
370
     9
100
AcDbFaceRecord
 10
0.0
 20
0.0
 30
0.0
 70
   128
 71
     4
 72
     1
 73
     2
 74
     3
  0
SEQEND
  5
160
330
15A
100
AcDbEntity
  8
3D-S-COLS-ANLY
370
     9
  0
POLYLINE
  5
161
330
7B
100
AcDbEntity
  8
3D-S-COLS-ANLY
370
     9
100
AcDbPolyFaceMesh
 66
     1
 10
0.0
 20
0.0
 30
0.0
 70
    64
 71
    14
 72
     7
1001
REVIT
1002
{
1070
     3
1000
167494
1002
}
  0
VERTEX
  5
162
330
161
100
AcDbEntity
  8
3D-S-COLS-ANLY
370
     9
100
AcDbVertex
100
AcDbPolyFaceMeshVertex
 10
0.46875
 20
-4.722607970237731
 30
0.9839555919170377
 70
   192
  0
VERTEX
  5
163
330
161
100
AcDbEntity
  8
3D-S-COLS-ANLY
370
     9
100
AcDbVertex
100
AcDbPolyFaceMeshVertex
 10
0.46875
 20
-4.91659641265869
 30
0.8563673794269559
 70
   192
  0
VERTEX
  5
164
330
161
100
AcDbEntity
  8
3D-S-COLS-ANLY
370
     9
100
AcDbVertex
100
AcDbPolyFaceMeshVertex
 10
0.46875
 20
-5.134779453277587
 30
0.7769551277160644
 70
   192
  0
VERTEX
  5
165
330
161
100
AcDbEntity
  8
3D-S-COLS-ANLY
370
     9
100
AcDbVertex
100
AcDbPolyFaceMeshVertex
 10
0.46875
 20
-5.365395426750182
 30
0.75
 70
   192
  0
VERTEX
  5
166
330
161
100
AcDbEntity
  8
3D-S-COLS-ANLY
370
     9
100
AcDbVertex
100
AcDbPolyFaceMeshVertex
 10
0.46875
 20
-7.46894860267639
 30
0.75
 70
   192
  0
VERTEX
  5
167
330
161
100
AcDbEntity
  8
3D-S-COLS-ANLY
370
     9
100
AcDbVertex
100
AcDbPolyFaceMeshVertex
 10
0.46875
 20
-7.46894860267639
 30
0.000000000001247
 70
   192
  0
VERTEX
  5
168
330
161
100
AcDbEntity
  8
3D-S-COLS-ANLY
370
     9
100
AcDbVertex
100
AcDbPolyFaceMeshVertex
 10
0.46875
 20
7.531051397323607
 30
0.0000000000012736
 70
   192
  0
VERTEX
  5
169
330
161
100
AcDbEntity
  8
3D-S-COLS-ANLY
370
     9
100
AcDbVertex
100
AcDbPolyFaceMeshVertex
 10
0.46875
 20
7.531051397323607
 30
0.75
 70
   192
  0
VERTEX
  5
16A
330
161
100
AcDbEntity
  8
3D-S-COLS-ANLY
370
     9
100
AcDbVertex
100
AcDbPolyFaceMeshVertex
 10
0.46875
 20
5.42749786376953
 30
0.75
 70
   192
  0
VERTEX
  5
16B
330
161
100
AcDbEntity
  8
3D-S-COLS-ANLY
370
     9
100
AcDbVertex
100
AcDbPolyFaceMeshVertex
 10
0.46875
 20
5.196881890296935
 30
0.7769551277160644
 70
   192
  0
VERTEX
  5
16C
330
161
100
AcDbEntity
  8
3D-S-COLS-ANLY
370
     9
100
AcDbVertex
100
AcDbPolyFaceMeshVertex
 10
0.46875
 20
4.97869849205017
 30
0.8563673794269559
 70
   192
  0
VERTEX
  5
16D
330
161
100
AcDbEntity
  8
3D-S-COLS-ANLY
370
     9
100
AcDbVertex
100
AcDbPolyFaceMeshVertex
 10
0.46875
 20
4.78471004962921
 30
0.9839555919170377
 70
   192
  0
VERTEX
  5
16E
330
161
100
AcDbEntity
  8
3D-S-COLS-ANLY
370
     9
100
AcDbVertex
100
AcDbPolyFaceMeshVertex
 10
0.46875
 20
2.501257359981536
 30
2.899999916553496
 70
   192
  0
VERTEX
  5
16F
330
161
100
AcDbEntity
  8
3D-S-COLS-ANLY
370
     9
100
AcDbVertex
100
AcDbPolyFaceMeshVertex
 10
0.46875
 20
-2.439154922962188
 30
2.899999916553496
 70
   192
  0
VERTEX
  5
170
330
161
100
AcDbEntity
  8
3D-S-COLS-ANLY
370
     9
100
AcDbFaceRecord
 10
0.0
 20
0.0
 30
0.0
 70
   128
 71
     8
 72
    -9
 73
     7
  0
VERTEX
  5
171
330
161
100
AcDbEntity
  8
3D-S-COLS-ANLY
370
     9
100
AcDbFaceRecord
 10
0.0
 20
0.0
 30
0.0
 70
   128
 71
    -7
 72
     9
 73
   -10
 74
    -3
  0
VERTEX
  5
172
330
161
100
AcDbEntity
  8
3D-S-COLS-ANLY
370
     9
100
AcDbFaceRecord
 10
0.0
 20
0.0
 30
0.0
 70
   128
 71
    10
 72
   -11
 73
     2
 74
    -3
  0
VERTEX
  5
173
330
161
100
AcDbEntity
  8
3D-S-COLS-ANLY
370
     9
100
AcDbFaceRecord
 10
0.0
 20
0.0
 30
0.0
 70
   128
 71
    -1
 72
    12
 73
    13
 74
    14
  0
VERTEX
  5
174
330
161
100
AcDbEntity
  8
3D-S-COLS-ANLY
370
     9
100
AcDbFaceRecord
 10
0.0
 20
0.0
 30
0.0
 70
   128
 71
    -2
 72
    11
 73
   -12
 74
     1
  0
VERTEX
  5
175
330
161
100
AcDbEntity
  8
3D-S-COLS-ANLY
370
     9
100
AcDbFaceRecord
 10
0.0
 20
0.0
 30
0.0
 70
   128
 71
     5
 72
    -6
 73
     4
  0
VERTEX
  5
176
330
161
100
AcDbEntity
  8
3D-S-COLS-ANLY
370
     9
100
AcDbFaceRecord
 10
0.0
 20
0.0
 30
0.0
 70
   128
 71
     3
 72
    -4
 73
     6
 74
    -7
  0
SEQEND
  5
177
330
161
100
AcDbEntity
  8
3D-S-COLS-ANLY
370
     9
  0
POLYLINE
  5
178
330
7B
100
AcDbEntity
  8
3D-S-COLS-ANLY
370
     9
100
AcDbPolyFaceMesh
 66
     1
 10
0.0
 20
0.0
 30
0.0
 70
    64
 71
    14
 72
     7
1001
REVIT
1002
{
1070
     3
1000
167494
1002
}
  0
VERTEX
  5
179
330
178
100
AcDbEntity
  8
3D-S-COLS-ANLY
370
     9
100
AcDbVertex
100
AcDbPolyFaceMeshVertex
 10
-0.46875
 20
-4.722607970237731
 30
0.9839555919170377
 70
   192
  0
VERTEX
  5
17A
330
178
100
AcDbEntity
  8
3D-S-COLS-ANLY
370
     9
100
AcDbVertex
100
AcDbPolyFaceMeshVertex
 10
-0.46875
 20
-2.439154922962188
 30
2.899999916553496
 70
   192
  0
VERTEX
  5
17B
330
178
100
AcDbEntity
  8
3D-S-COLS-ANLY
370
     9
100
AcDbVertex
100
AcDbPolyFaceMeshVertex
 10
-0.46875
 20
2.501257359981536
 30
2.899999916553496
 70
   192
  0
VERTEX
  5
17C
330
178
100
AcDbEntity
  8
3D-S-COLS-ANLY
370
     9
100
AcDbVertex
100
AcDbPolyFaceMeshVertex
 10
-0.46875
 20
4.78471004962921
 30
0.9839555919170377
 70
   192
  0
VERTEX
  5
17D
330
178
100
AcDbEntity
  8
3D-S-COLS-ANLY
370
     9
100
AcDbVertex
100
AcDbPolyFaceMeshVertex
 10
-0.46875
 20
4.97869849205017
 30
0.8563673794269559
 70
   192
  0
VERTEX
  5
17E
330
178
100
AcDbEntity
  8
3D-S-COLS-ANLY
370
     9
100
AcDbVertex
100
AcDbPolyFaceMeshVertex
 10
-0.46875
 20
5.196881890296935
 30
0.7769551277160644
 70
   192
  0
VERTEX
  5
17F
330
178
100
AcDbEntity
  8
3D-S-COLS-ANLY
370
     9
100
AcDbVertex
100
AcDbPolyFaceMeshVertex
 10
-0.46875
 20
5.42749786376953
 30
0.75
 70
   192
  0
VERTEX
  5
180
330
178
100
AcDbEntity
  8
3D-S-COLS-ANLY
370
     9
100
AcDbVertex
100
AcDbPolyFaceMeshVertex
 10
-0.46875
 20
7.531051397323607
 30
0.75
 70
   192
  0
VERTEX
  5
181
330
178
100
AcDbEntity
  8
3D-S-COLS-ANLY
370
     9
100
AcDbVertex
100
AcDbPolyFaceMeshVertex
 10
-0.46875
 20
7.531051397323607
 30
0.0000000000012736
 70
   192
  0
VERTEX
  5
182
330
178
100
AcDbEntity
  8
3D-S-COLS-ANLY
370
     9
100
AcDbVertex
100
AcDbPolyFaceMeshVertex
 10
-0.46875
 20
-7.46894860267639
 30
0.000000000001247
 70
   192
  0
VERTEX
  5
183
330
178
100
AcDbEntity
  8
3D-S-COLS-ANLY
370
     9
100
AcDbVertex
100
AcDbPolyFaceMeshVertex
 10
-0.46875
 20
-7.46894860267639
 30
0.75
 70
   192
  0
VERTEX
  5
184
330
178
100
AcDbEntity
  8
3D-S-COLS-ANLY
370
     9
100
AcDbVertex
100
AcDbPolyFaceMeshVertex
 10
-0.46875
 20
-5.365395426750182
 30
0.75
 70
   192
  0
VERTEX
  5
185
330
178
100
AcDbEntity
  8
3D-S-COLS-ANLY
370
     9
100
AcDbVertex
100
AcDbPolyFaceMeshVertex
 10
-0.46875
 20
-5.134779453277587
 30
0.7769551277160644
 70
   192
  0
VERTEX
  5
186
330
178
100
AcDbEntity
  8
3D-S-COLS-ANLY
370
     9
100
AcDbVertex
100
AcDbPolyFaceMeshVertex
 10
-0.46875
 20
-4.91659641265869
 30
0.8563673794269559
 70
   192
  0
VERTEX
  5
187
330
178
100
AcDbEntity
  8
3D-S-COLS-ANLY
370
     9
100
AcDbFaceRecord
 10
0.0
 20
0.0
 30
0.0
 70
   128
 71
    -9
 72
     7
 73
     8
  0
VERTEX
  5
188
330
178
100
AcDbEntity
  8
3D-S-COLS-ANLY
370
     9
100
AcDbFaceRecord
 10
0.0
 20
0.0
 30
0.0
 70
   128
 71
     6
 72
    -7
 73
    -9
 74
   -13
  0
VERTEX
  5
189
330
178
100
AcDbEntity
  8
3D-S-COLS-ANLY
370
     9
100
AcDbFaceRecord
 10
0.0
 20
0.0
 30
0.0
 70
   128
 71
   -14
 72
     5
 73
    -6
 74
    13
  0
VERTEX
  5
18A
330
178
100
AcDbEntity
  8
3D-S-COLS-ANLY
370
     9
100
AcDbFaceRecord
 10
0.0
 20
0.0
 30
0.0
 70
   128
 71
     3
 72
    -4
 73
     1
 74
     2
  0
VERTEX
  5
18B
330
178
100
AcDbEntity
  8
3D-S-COLS-ANLY
370
     9
100
AcDbFaceRecord
 10
0.0
 20
0.0
 30
0.0
 70
   128
 71
     4
 72
    -5
 73
    14
 74
    -1
  0
VERTEX
  5
18C
330
178
100
AcDbEntity
  8
3D-S-COLS-ANLY
370
     9
100
AcDbFaceRecord
 10
0.0
 20
0.0
 30
0.0
 70
   128
 71
   -12
 72
    10
 73
    11
  0
VERTEX
  5
18D
330
178
100
AcDbEntity
  8
3D-S-COLS-ANLY
370
     9
100
AcDbFaceRecord
 10
0.0
 20
0.0
 30
0.0
 70
   128
 71
   -10
 72
    12
 73
   -13
 74
     9
  0
SEQEND
  5
18E
330
178
100
AcDbEntity
  8
3D-S-COLS-ANLY
370
     9
  0
POLYLINE
  5
18F
330
7B
100
AcDbEntity
  8
3D-S-COLS-ANLY
370
     9
100
AcDbPolyFaceMesh
 66
     1
 10
0.0
 20
0.0
 30
0.0
 70
    64
 71
     8
 72
     3
1001
REVIT
1002
{
1070
     3
1000
167494
1002
}
  0
VERTEX
  5
190
330
18F
100
AcDbEntity
  8
3D-S-COLS-ANLY
370
     9
100
AcDbVertex
100
AcDbPolyFaceMeshVertex
 10
0.46875
 20
-5.365395426750182
 30
0.75
 70
   192
  0
VERTEX
  5
191
330
18F
100
AcDbEntity
  8
3D-S-COLS-ANLY
370
     9
100
AcDbVertex
100
AcDbPolyFaceMeshVertex
 10
0.46875
 20
-5.134779453277587
 30
0.7769551277160644
 70
   192
  0
VERTEX
  5
192
330
18F
100
AcDbEntity
  8
3D-S-COLS-ANLY
370
     9
100
AcDbVertex
100
AcDbPolyFaceMeshVertex
 10
0.46875
 20
-4.91659641265869
 30
0.8563673794269559
 70
   192
  0
VERTEX
  5
193
330
18F
100
AcDbEntity
  8
3D-S-COLS-ANLY
370
     9
100
AcDbVertex
100
AcDbPolyFaceMeshVertex
 10
0.46875
 20
-4.722607970237731
 30
0.9839555919170377
 70
   192
  0
VERTEX
  5
194
330
18F
100
AcDbEntity
  8
3D-S-COLS-ANLY
370
     9
100
AcDbVertex
100
AcDbPolyFaceMeshVertex
 10
-0.46875
 20
-4.722607970237731
 30
0.9839555919170377
 70
   192
  0
VERTEX
  5
195
330
18F
100
AcDbEntity
  8
3D-S-COLS-ANLY
370
     9
100
AcDbVertex
100
AcDbPolyFaceMeshVertex
 10
-0.46875
 20
-4.91659641265869
 30
0.8563673794269559
 70
   192
  0
VERTEX
  5
196
330
18F
100
AcDbEntity
  8
3D-S-COLS-ANLY
370
     9
100
AcDbVertex
100
AcDbPolyFaceMeshVertex
 10
-0.46875
 20
-5.134779453277587
 30
0.7769551277160644
 70
   192
  0
VERTEX
  5
197
330
18F
100
AcDbEntity
  8
3D-S-COLS-ANLY
370
     9
100
AcDbVertex
100
AcDbPolyFaceMeshVertex
 10
-0.46875
 20
-5.365395426750182
 30
0.75
 70
   192
  0
VERTEX
  5
198
330
18F
100
AcDbEntity
  8
3D-S-COLS-ANLY
370
     9
100
AcDbFaceRecord
 10
0.0
 20
0.0
 30
0.0
 70
   128
 71
    -6
 72
     3
 73
     4
 74
     5
  0
VERTEX
  5
199
330
18F
100
AcDbEntity
  8
3D-S-COLS-ANLY
370
     9
100
AcDbFaceRecord
 10
0.0
 20
0.0
 30
0.0
 70
   128
 71
    -3
 72
     6
 73
    -7
 74
     2
  0
VERTEX
  5
19A
330
18F
100
AcDbEntity
  8
3D-S-COLS-ANLY
370
     9
100
AcDbFaceRecord
 10
0.0
 20
0.0
 30
0.0
 70
   128
 71
     8
 72
     1
 73
    -2
 74
     7
  0
SEQEND
  5
19B
330
18F
100
AcDbEntity
  8
3D-S-COLS-ANLY
370
     9
  0
POLYLINE
  5
19C
330
7B
100
AcDbEntity
  8
3D-S-COLS-ANLY
370
     9
100
AcDbPolyFaceMesh
 66
     1
 10
0.0
 20
0.0
 30
0.0
 70
    64
 71
     4
 72
     1
1001
REVIT
1002
{
1070
     3
1000
167494
1002
}
  0
VERTEX
  5
19D
330
19C
100
AcDbEntity
  8
3D-S-COLS-ANLY
370
     9
100
AcDbVertex
100
AcDbPolyFaceMeshVertex
 10
0.46875
 20
-7.46894860267639
 30
0.75
 70
   192
  0
VERTEX
  5
19E
330
19C
100
AcDbEntity
  8
3D-S-COLS-ANLY
370
     9
100
AcDbVertex
100
AcDbPolyFaceMeshVertex
 10
0.46875
 20
-5.365395426750182
 30
0.75
 70
   192
  0
VERTEX
  5
19F
330
19C
100
AcDbEntity
  8
3D-S-COLS-ANLY
370
     9
100
AcDbVertex
100
AcDbPolyFaceMeshVertex
 10
-0.46875
 20
-5.365395426750182
 30
0.75
 70
   192
  0
VERTEX
  5
1A0
330
19C
100
AcDbEntity
  8
3D-S-COLS-ANLY
370
     9
100
AcDbVertex
100
AcDbPolyFaceMeshVertex
 10
-0.46875
 20
-7.46894860267639
 30
0.75
 70
   192
  0
VERTEX
  5
1A1
330
19C
100
AcDbEntity
  8
3D-S-COLS-ANLY
370
     9
100
AcDbFaceRecord
 10
0.0
 20
0.0
 30
0.0
 70
   128
 71
     1
 72
     2
 73
     3
 74
     4
  0
SEQEND
  5
1A2
330
19C
100
AcDbEntity
  8
3D-S-COLS-ANLY
370
     9
  0
POLYLINE
  5
1A3
330
7B
100
AcDbEntity
  8
3D-S-COLS-ANLY
370
     9
100
AcDbPolyFaceMesh
 66
     1
 10
0.0
 20
0.0
 30
0.0
 70
    64
 71
     4
 72
     1
1001
REVIT
1002
{
1070
     3
1000
167494
1002
}
  0
VERTEX
  5
1A4
330
1A3
100
AcDbEntity
  8
3D-S-COLS-ANLY
370
     9
100
AcDbVertex
100
AcDbPolyFaceMeshVertex
 10
0.46875
 20
-7.46894860267639
 30
0.000000000001245
 70
   192
  0
VERTEX
  5
1A5
330
1A3
100
AcDbEntity
  8
3D-S-COLS-ANLY
370
     9
100
AcDbVertex
100
AcDbPolyFaceMeshVertex
 10
0.46875
 20
-7.46894860267639
 30
0.75
 70
   192
  0
VERTEX
  5
1A6
330
1A3
100
AcDbEntity
  8
3D-S-COLS-ANLY
370
     9
100
AcDbVertex
100
AcDbPolyFaceMeshVertex
 10
-0.46875
 20
-7.46894860267639
 30
0.75
 70
   192
  0
VERTEX
  5
1A7
330
1A3
100
AcDbEntity
  8
3D-S-COLS-ANLY
370
     9
100
AcDbVertex
100
AcDbPolyFaceMeshVertex
 10
-0.46875
 20
-7.46894860267639
 30
0.000000000001245
 70
   192
  0
VERTEX
  5
1A8
330
1A3
100
AcDbEntity
  8
3D-S-COLS-ANLY
370
     9
100
AcDbFaceRecord
 10
0.0
 20
0.0
 30
0.0
 70
   128
 71
     1
 72
     2
 73
     3
 74
     4
  0
SEQEND
  5
1A9
330
1A3
100
AcDbEntity
  8
3D-S-COLS-ANLY
370
     9
  0
POLYLINE
  5
1AA
330
7B
100
AcDbEntity
  8
3D-S-COLS-ANLY
370
     9
100
AcDbPolyFaceMesh
 66
     1
 10
0.0
 20
0.0
 30
0.0
 70
    64
 71
     4
 72
     1
1001
REVIT
1002
{
1070
     3
1000
167494
1002
}
  0
VERTEX
  5
1AB
330
1AA
100
AcDbEntity
  8
3D-S-COLS-ANLY
370
     9
100
AcDbVertex
100
AcDbPolyFaceMeshVertex
 10
0.46875
 20
7.531051397323607
 30
0.0000000000012733
 70
   192
  0
VERTEX
  5
1AC
330
1AA
100
AcDbEntity
  8
3D-S-COLS-ANLY
370
     9
100
AcDbVertex
100
AcDbPolyFaceMeshVertex
 10
0.46875
 20
-7.46894860267639
 30
0.000000000001245
 70
   192
  0
VERTEX
  5
1AD
330
1AA
100
AcDbEntity
  8
3D-S-COLS-ANLY
370
     9
100
AcDbVertex
100
AcDbPolyFaceMeshVertex
 10
-0.46875
 20
-7.46894860267639
 30
0.000000000001245
 70
   192
  0
VERTEX
  5
1AE
330
1AA
100
AcDbEntity
  8
3D-S-COLS-ANLY
370
     9
100
AcDbVertex
100
AcDbPolyFaceMeshVertex
 10
-0.46875
 20
7.531051397323607
 30
0.0000000000012733
 70
   192
  0
VERTEX
  5
1AF
330
1AA
100
AcDbEntity
  8
3D-S-COLS-ANLY
370
     9
100
AcDbFaceRecord
 10
0.0
 20
0.0
 30
0.0
 70
   128
 71
     1
 72
     2
 73
     3
 74
     4
  0
SEQEND
  5
1B0
330
1AA
100
AcDbEntity
  8
3D-S-COLS-ANLY
370
     9
  0
POLYLINE
  5
1B1
330
7B
100
AcDbEntity
  8
3D-S-COLS-ANLY
370
     9
100
AcDbPolyFaceMesh
 66
     1
 10
0.0
 20
0.0
 30
0.0
 70
    64
 71
     4
 72
     1
1001
REVIT
1002
{
1070
     3
1000
167494
1002
}
  0
VERTEX
  5
1B2
330
1B1
100
AcDbEntity
  8
3D-S-COLS-ANLY
370
     9
100
AcDbVertex
100
AcDbPolyFaceMeshVertex
 10
0.46875
 20
7.531051397323607
 30
0.75
 70
   192
  0
VERTEX
  5
1B3
330
1B1
100
AcDbEntity
  8
3D-S-COLS-ANLY
370
     9
100
AcDbVertex
100
AcDbPolyFaceMeshVertex
 10
0.46875
 20
7.531051397323607
 30
0.0000000000012733
 70
   192
  0
VERTEX
  5
1B4
330
1B1
100
AcDbEntity
  8
3D-S-COLS-ANLY
370
     9
100
AcDbVertex
100
AcDbPolyFaceMeshVertex
 10
-0.46875
 20
7.531051397323607
 30
0.0000000000012733
 70
   192
  0
VERTEX
  5
1B5
330
1B1
100
AcDbEntity
  8
3D-S-COLS-ANLY
370
     9
100
AcDbVertex
100
AcDbPolyFaceMeshVertex
 10
-0.46875
 20
7.531051397323607
 30
0.75
 70
   192
  0
VERTEX
  5
1B6
330
1B1
100
AcDbEntity
  8
3D-S-COLS-ANLY
370
     9
100
AcDbFaceRecord
 10
0.0
 20
0.0
 30
0.0
 70
   128
 71
     1
 72
     2
 73
     3
 74
     4
  0
SEQEND
  5
1B7
330
1B1
100
AcDbEntity
  8
3D-S-COLS-ANLY
370
     9
  0
POLYLINE
  5
1B8
330
7B
100
AcDbEntity
  8
3D-S-COLS-ANLY
370
     9
100
AcDbPolyFaceMesh
 66
     1
 10
0.0
 20
0.0
 30
0.0
 70
    64
 71
     4
 72
     1
1001
REVIT
1002
{
1070
     3
1000
167494
1002
}
  0
VERTEX
  5
1B9
330
1B8
100
AcDbEntity
  8
3D-S-COLS-ANLY
370
     9
100
AcDbVertex
100
AcDbPolyFaceMeshVertex
 10
0.46875
 20
5.42749786376953
 30
0.75
 70
   192
  0
VERTEX
  5
1BA
330
1B8
100
AcDbEntity
  8
3D-S-COLS-ANLY
370
     9
100
AcDbVertex
100
AcDbPolyFaceMeshVertex
 10
0.46875
 20
7.531051397323607
 30
0.75
 70
   192
  0
VERTEX
  5
1BB
330
1B8
100
AcDbEntity
  8
3D-S-COLS-ANLY
370
     9
100
AcDbVertex
100
AcDbPolyFaceMeshVertex
 10
-0.46875
 20
7.531051397323607
 30
0.75
 70
   192
  0
VERTEX
  5
1BC
330
1B8
100
AcDbEntity
  8
3D-S-COLS-ANLY
370
     9
100
AcDbVertex
100
AcDbPolyFaceMeshVertex
 10
-0.46875
 20
5.42749786376953
 30
0.75
 70
   192
  0
VERTEX
  5
1BD
330
1B8
100
AcDbEntity
  8
3D-S-COLS-ANLY
370
     9
100
AcDbFaceRecord
 10
0.0
 20
0.0
 30
0.0
 70
   128
 71
     4
 72
     1
 73
     2
 74
     3
  0
SEQEND
  5
1BE
330
1B8
100
AcDbEntity
  8
3D-S-COLS-ANLY
370
     9
  0
POLYLINE
  5
1BF
330
7B
100
AcDbEntity
  8
3D-S-COLS-ANLY
370
     9
100
AcDbPolyFaceMesh
 66
     1
 10
0.0
 20
0.0
 30
0.0
 70
    64
 71
     8
 72
     3
1001
REVIT
1002
{
1070
     3
1000
167494
1002
}
  0
VERTEX
  5
1C0
330
1BF
100
AcDbEntity
  8
3D-S-COLS-ANLY
370
     9
100
AcDbVertex
100
AcDbPolyFaceMeshVertex
 10
0.46875
 20
4.78471004962921
 30
0.9839555919170377
 70
   192
  0
VERTEX
  5
1C1
330
1BF
100
AcDbEntity
  8
3D-S-COLS-ANLY
370
     9
100
AcDbVertex
100
AcDbPolyFaceMeshVertex
 10
0.46875
 20
4.97869849205017
 30
0.8563673794269559
 70
   192
  0
VERTEX
  5
1C2
330
1BF
100
AcDbEntity
  8
3D-S-COLS-ANLY
370
     9
100
AcDbVertex
100
AcDbPolyFaceMeshVertex
 10
0.46875
 20
5.196881890296935
 30
0.7769551277160644
 70
   192
  0
VERTEX
  5
1C3
330
1BF
100
AcDbEntity
  8
3D-S-COLS-ANLY
370
     9
100
AcDbVertex
100
AcDbPolyFaceMeshVertex
 10
0.46875
 20
5.42749786376953
 30
0.75
 70
   192
  0
VERTEX
  5
1C4
330
1BF
100
AcDbEntity
  8
3D-S-COLS-ANLY
370
     9
100
AcDbVertex
100
AcDbPolyFaceMeshVertex
 10
-0.46875
 20
5.42749786376953
 30
0.75
 70
   192
  0
VERTEX
  5
1C5
330
1BF
100
AcDbEntity
  8
3D-S-COLS-ANLY
370
     9
100
AcDbVertex
100
AcDbPolyFaceMeshVertex
 10
-0.46875
 20
5.196881890296935
 30
0.7769551277160644
 70
   192
  0
VERTEX
  5
1C6
330
1BF
100
AcDbEntity
  8
3D-S-COLS-ANLY
370
     9
100
AcDbVertex
100
AcDbPolyFaceMeshVertex
 10
-0.46875
 20
4.97869849205017
 30
0.8563673794269559
 70
   192
  0
VERTEX
  5
1C7
330
1BF
100
AcDbEntity
  8
3D-S-COLS-ANLY
370
     9
100
AcDbVertex
100
AcDbPolyFaceMeshVertex
 10
-0.46875
 20
4.78471004962921
 30
0.9839555919170377
 70
   192
  0
VERTEX
  5
1C8
330
1BF
100
AcDbEntity
  8
3D-S-COLS-ANLY
370
     9
100
AcDbFaceRecord
 10
0.0
 20
0.0
 30
0.0
 70
   128
 71
    -6
 72
     3
 73
     4
 74
     5
  0
VERTEX
  5
1C9
330
1BF
100
AcDbEntity
  8
3D-S-COLS-ANLY
370
     9
100
AcDbFaceRecord
 10
0.0
 20
0.0
 30
0.0
 70
   128
 71
    -3
 72
     6
 73
    -7
 74
     2
  0
VERTEX
  5
1CA
330
1BF
100
AcDbEntity
  8
3D-S-COLS-ANLY
370
     9
100
AcDbFaceRecord
 10
0.0
 20
0.0
 30
0.0
 70
   128
 71
     8
 72
     1
 73
    -2
 74
     7
  0
SEQEND
  5
1CB
330
1BF
100
AcDbEntity
  8
3D-S-COLS-ANLY
370
     9
  0
POLYLINE
  5
1CC
330
7B
100
AcDbEntity
  8
3D-S-COLS-ANLY
370
     9
100
AcDbPolyFaceMesh
 66
     1
 10
0.0
 20
0.0
 30
0.0
 70
    64
 71
     4
 72
     1
1001
REVIT
1002
{
1070
     3
1000
167494
1002
}
  0
VERTEX
  5
1CD
330
1CC
100
AcDbEntity
  8
3D-S-COLS-ANLY
370
     9
100
AcDbVertex
100
AcDbPolyFaceMeshVertex
 10
0.46875
 20
2.501257359981536
 30
2.899999916553496
 70
   192
  0
VERTEX
  5
1CE
330
1CC
100
AcDbEntity
  8
3D-S-COLS-ANLY
370
     9
100
AcDbVertex
100
AcDbPolyFaceMeshVertex
 10
0.46875
 20
4.78471004962921
 30
0.9839555919170377
 70
   192
  0
VERTEX
  5
1CF
330
1CC
100
AcDbEntity
  8
3D-S-COLS-ANLY
370
     9
100
AcDbVertex
100
AcDbPolyFaceMeshVertex
 10
-0.46875
 20
4.78471004962921
 30
0.9839555919170377
 70
   192
  0
VERTEX
  5
1D0
330
1CC
100
AcDbEntity
  8
3D-S-COLS-ANLY
370
     9
100
AcDbVertex
100
AcDbPolyFaceMeshVertex
 10
-0.46875
 20
2.501257359981536
 30
2.899999916553496
 70
   192
  0
VERTEX
  5
1D1
330
1CC
100
AcDbEntity
  8
3D-S-COLS-ANLY
370
     9
100
AcDbFaceRecord
 10
0.0
 20
0.0
 30
0.0
 70
   128
 71
     4
 72
     1
 73
     2
 74
     3
  0
SEQEND
  5
1D2
330
1CC
100
AcDbEntity
  8
3D-S-COLS-ANLY
370
     9
  0
POLYLINE
  5
1D3
330
7B
100
AcDbEntity
  8
3D-S-COLS-ANLY
370
     9
100
AcDbPolyFaceMesh
 66
     1
 10
0.0
 20
0.0
 30
0.0
 70
    64
 71
     4
 72
     1
1001
REVIT
1002
{
1070
     3
1000
167494
1002
}
  0
VERTEX
  5
1D4
330
1D3
100
AcDbEntity
  8
3D-S-COLS-ANLY
370
     9
100
AcDbVertex
100
AcDbPolyFaceMeshVertex
 10
0.46875
 20
-2.439154922962188
 30
2.899999916553496
 70
   192
  0
VERTEX
  5
1D5
330
1D3
100
AcDbEntity
  8
3D-S-COLS-ANLY
370
     9
100
AcDbVertex
100
AcDbPolyFaceMeshVertex
 10
0.46875
 20
2.501257359981536
 30
2.899999916553496
 70
   192
  0
VERTEX
  5
1D6
330
1D3
100
AcDbEntity
  8
3D-S-COLS-ANLY
370
     9
100
AcDbVertex
100
AcDbPolyFaceMeshVertex
 10
-0.46875
 20
2.501257359981536
 30
2.899999916553496
 70
   192
  0
VERTEX
  5
1D7
330
1D3
100
AcDbEntity
  8
3D-S-COLS-ANLY
370
     9
100
AcDbVertex
100
AcDbPolyFaceMeshVertex
 10
-0.46875
 20
-2.439154922962188
 30
2.899999916553496
 70
   192
  0
VERTEX
  5
1D8
330
1D3
100
AcDbEntity
  8
3D-S-COLS-ANLY
370
     9
100
AcDbFaceRecord
 10
0.0
 20
0.0
 30
0.0
 70
   128
 71
     1
 72
     2
 73
     3
 74
     4
  0
SEQEND
  5
1D9
330
1D3
100
AcDbEntity
  8
3D-S-COLS-ANLY
370
     9
  0
POLYLINE
  5
1DA
330
7B
100
AcDbEntity
  8
3D-S-COLS-ANLY
370
     9
100
AcDbPolyFaceMesh
 66
     1
 10
0.0
 20
0.0
 30
0.0
 70
    64
 71
     4
 72
     1
1001
REVIT
1002
{
1070
     3
1000
167494
1002
}
  0
VERTEX
  5
1DB
330
1DA
100
AcDbEntity
  8
3D-S-COLS-ANLY
370
     9
100
AcDbVertex
100
AcDbPolyFaceMeshVertex
 10
0.46875
 20
-4.722607970237731
 30
0.9839555919170377
 70
   192
  0
VERTEX
  5
1DC
330
1DA
100
AcDbEntity
  8
3D-S-COLS-ANLY
370
     9
100
AcDbVertex
100
AcDbPolyFaceMeshVertex
 10
0.46875
 20
-2.439154922962188
 30
2.899999916553496
 70
   192
  0
VERTEX
  5
1DD
330
1DA
100
AcDbEntity
  8
3D-S-COLS-ANLY
370
     9
100
AcDbVertex
100
AcDbPolyFaceMeshVertex
 10
-0.46875
 20
-2.439154922962188
 30
2.899999916553496
 70
   192
  0
VERTEX
  5
1DE
330
1DA
100
AcDbEntity
  8
3D-S-COLS-ANLY
370
     9
100
AcDbVertex
100
AcDbPolyFaceMeshVertex
 10
-0.46875
 20
-4.722607970237731
 30
0.9839555919170377
 70
   192
  0
VERTEX
  5
1DF
330
1DA
100
AcDbEntity
  8
3D-S-COLS-ANLY
370
     9
100
AcDbFaceRecord
 10
0.0
 20
0.0
 30
0.0
 70
   128
 71
     4
 72
     1
 73
     2
 74
     3
  0
SEQEND
  5
1E0
330
1DA
100
AcDbEntity
  8
3D-S-COLS-ANLY
370
     9
  0
ENDBLK
  5
1E2
330
7B
100
AcDbEntity
  8
0
100
AcDbBlockEnd
  0
BLOCK
  5
298
330
1FB
100
AcDbEntity
  8
0
100
AcDbBlockBegin
  2
Blade-Kawneer-Circular - Versoleil-170207-Preview
 70
     0
 10
0.0
 20
0.0
 30
0.0
  3
Blade-Kawneer-Circular - Versoleil-170207-Preview
  1

  0
POLYLINE
  5
1FC
330
1FB
100
AcDbEntity
  8
3D-GENM
370
     9
100
AcDbPolyFaceMesh
 66
     1
 10
0.0
 20
0.0
 30
0.0
 70
    64
 71
    24
 72
    12
1001
REVIT
1002
{
1070
     3
1000
103689
1002
}
  0
VERTEX
  5
1FD
330
1FC
100
AcDbEntity
  8
3D-GENM
370
     9
100
AcDbVertex
100
AcDbPolyFaceMeshVertex
 10
18.0
 20
1.264111876487731
 30
1.263370156288146
 70
   192
  0
VERTEX
  5
1FE
330
1FC
100
AcDbEntity
  8
3D-GENM
370
     9
100
AcDbVertex
100
AcDbPolyFaceMeshVertex
 10
18.0
 20
1.221519112586974
 30
1.586893916130065
 70
   192
  0
VERTEX
  5
1FF
330
1FC
100
AcDbEntity
  8
3D-GENM
370
     9
100
AcDbVertex
100
AcDbPolyFaceMeshVertex
 10
18.0
 20
1.096643596887588
 30
1.888370275497436
 70
   192
  0
VERTEX
  5
200
330
1FC
100
AcDbEntity
  8
3D-GENM
370
     9
100
AcDbVertex
100
AcDbPolyFaceMeshVertex
 10
18.0
 20
0.8979953527450559
 30
2.147253692150115
 70
   192
  0
VERTEX
  5
201
330
1FC
100
AcDbEntity
  8
3D-GENM
370
     9
100
AcDbVertex
100
AcDbPolyFaceMeshVertex
 10
18.0
 20
0.6391118466854095
 30
2.345902025699615
 70
   192
  0
VERTEX
  5
202
330
1FC
100
AcDbEntity
  8
3D-GENM
370
     9
100
AcDbVertex
100
AcDbPolyFaceMeshVertex
 10
18.0
 20
0.3376356661319732
 30
2.470777451992034
 70
   192
  0
VERTEX
  5
203
330
1FC
100
AcDbEntity
  8
3D-GENM
370
     9
100
AcDbVertex
100
AcDbPolyFaceMeshVertex
 10
18.0
 20
0.014111849013716
 30
2.513370215892791
 70
   192
  0
VERTEX
  5
204
330
1FC
100
AcDbEntity
  8
3D-GENM
370
     9
100
AcDbVertex
100
AcDbPolyFaceMeshVertex
 10
18.0
 20
-0.3094119653105735
 30
2.470777451992034
 70
   192
  0
VERTEX
  5
205
330
1FC
100
AcDbEntity
  8
3D-GENM
370
     9
100
AcDbVertex
100
AcDbPolyFaceMeshVertex
 10
18.0
 20
-0.6108881682157516
 30
2.345902025699615
 70
   192
  0
VERTEX
  5
206
330
1FC
100
AcDbEntity
  8
3D-GENM
370
     9
100
AcDbVertex
100
AcDbPolyFaceMeshVertex
 10
18.0
 20
-0.8697716295719144
 30
2.147253692150115
 70
   192
  0
VERTEX
  5
207
330
1FC
100
AcDbEntity
  8
3D-GENM
370
     9
100
AcDbVertex
100
AcDbPolyFaceMeshVertex
 10
18.0
 20
-1.068419873714446
 30
1.888370275497436
 70
   192
  0
VERTEX
  5
208
330
1FC
100
AcDbEntity
  8
3D-GENM
370
     9
100
AcDbVertex
100
AcDbPolyFaceMeshVertex
 10
18.0
 20
-1.193295389413833
 30
1.586893916130065
 70
   192
  0
VERTEX
  5
209
330
1FC
100
AcDbEntity
  8
3D-GENM
370
     9
100
AcDbVertex
100
AcDbPolyFaceMeshVertex
 10
18.0
 20
-1.23588815331459
 30
1.263370156288146
 70
   192
  0
VERTEX
  5
20A
330
1FC
100
AcDbEntity
  8
3D-GENM
370
     9
100
AcDbVertex
100
AcDbPolyFaceMeshVertex
 10
18.0
 20
-1.193295389413833
 30
0.9398463964462278
 70
   192
  0
VERTEX
  5
20B
330
1FC
100
AcDbEntity
  8
3D-GENM
370
     9
100
AcDbVertex
100
AcDbPolyFaceMeshVertex
 10
18.0
 20
-1.068419873714446
 30
0.6383702158927917
 70
   192
  0
VERTEX
  5
20C
330
1FC
100
AcDbEntity
  8
3D-GENM
370
     9
100
AcDbVertex
100
AcDbPolyFaceMeshVertex
 10
18.0
 20
-0.8697716295719144
 30
0.3794867098331451
 70
   192
  0
VERTEX
  5
20D
330
1FC
100
AcDbEntity
  8
3D-GENM
370
     9
100
AcDbVertex
100
AcDbPolyFaceMeshVertex
 10
18.0
 20
-0.6108881682157516
 30
0.180838443338871
 70
   192
  0
VERTEX
  5
20E
330
1FC
100
AcDbEntity
  8
3D-GENM
370
     9
100
AcDbVertex
100
AcDbPolyFaceMeshVertex
 10
18.0
 20
-0.3094119653105735
 30
0.0559629108756781
 70
   192
  0
VERTEX
  5
20F
330
1FC
100
AcDbEntity
  8
3D-GENM
370
     9
100
AcDbVertex
100
AcDbPolyFaceMeshVertex
 10
18.0
 20
0.014111849013716
 30
0.0133701958693564
 70
   192
  0
VERTEX
  5
210
330
1FC
100
AcDbEntity
  8
3D-GENM
370
     9
100
AcDbVertex
100
AcDbPolyFaceMeshVertex
 10
18.0
 20
0.3376356661319732
 30
0.0559629108756781
 70
   192
  0
VERTEX
  5
211
330
1FC
100
AcDbEntity
  8
3D-GENM
370
     9
100
AcDbVertex
100
AcDbPolyFaceMeshVertex
 10
18.0
 20
0.6391118466854095
 30
0.180838443338871
 70
   192
  0
VERTEX
  5
212
330
1FC
100
AcDbEntity
  8
3D-GENM
370
     9
100
AcDbVertex
100
AcDbPolyFaceMeshVertex
 10
18.0
 20
0.8979953527450559
 30
0.3794867098331451
 70
   192
  0
VERTEX
  5
213
330
1FC
100
AcDbEntity
  8
3D-GENM
370
     9
100
AcDbVertex
100
AcDbPolyFaceMeshVertex
 10
18.0
 20
1.096643596887588
 30
0.6383702158927917
 70
   192
  0
VERTEX
  5
214
330
1FC
100
AcDbEntity
  8
3D-GENM
370
     9
100
AcDbVertex
100
AcDbPolyFaceMeshVertex
 10
18.0
 20
1.221519112586974
 30
0.9398463964462278
 70
   192
  0
VERTEX
  5
215
330
1FC
100
AcDbEntity
  8
3D-GENM
370
     9
100
AcDbFaceRecord
 10
0.0
 20
0.0
 30
0.0
 70
   128
 71
    23
 72
    24
 73
    -1
 74
    -3
  0
VERTEX
  5
216
330
1FC
100
AcDbEntity
  8
3D-GENM
370
     9
100
AcDbFaceRecord
 10
0.0
 20
0.0
 30
0.0
 70
   128
 71
    20
 72
    21
 73
   -22
 74
    19
  0
VERTEX
  5
217
330
1FC
100
AcDbEntity
  8
3D-GENM
370
     9
100
AcDbFaceRecord
 10
0.0
 20
0.0
 30
0.0
 70
   128
 71
   -19
 72
    22
 73
   -23
 74
    -3
  0
VERTEX
  5
218
330
1FC
100
AcDbEntity
  8
3D-GENM
370
     9
100
AcDbFaceRecord
 10
0.0
 20
0.0
 30
0.0
 70
   128
 71
    -6
 72
     3
 73
     4
 74
     5
  0
VERTEX
  5
219
330
1FC
100
AcDbEntity
  8
3D-GENM
370
     9
100
AcDbFaceRecord
 10
0.0
 20
0.0
 30
0.0
 70
   128
 71
     1
 72
     2
 73
    -3
  0
VERTEX
  5
21A
330
1FC
100
AcDbEntity
  8
3D-GENM
370
     9
100
AcDbFaceRecord
 10
0.0
 20
0.0
 30
0.0
 70
   128
 71
    -8
 72
    -3
 73
     6
 74
     7
  0
VERTEX
  5
21B
330
1FC
100
AcDbEntity
  8
3D-GENM
370
     9
100
AcDbFaceRecord
 10
0.0
 20
0.0
 30
0.0
 70
   128
 71
    17
 72
    18
 73
   -19
 74
   -15
  0
VERTEX
  5
21C
330
1FC
100
AcDbEntity
  8
3D-GENM
370
     9
100
AcDbFaceRecord
 10
0.0
 20
0.0
 30
0.0
 70
   128
 71
   -15
 72
   -19
 73
    11
 74
   -12
  0
VERTEX
  5
21D
330
1FC
100
AcDbEntity
  8
3D-GENM
370
     9
100
AcDbFaceRecord
 10
0.0
 20
0.0
 30
0.0
 70
   128
 71
    16
 72
   -17
 73
    15
  0
VERTEX
  5
21E
330
1FC
100
AcDbEntity
  8
3D-GENM
370
     9
100
AcDbFaceRecord
 10
0.0
 20
0.0
 30
0.0
 70
   128
 71
    13
 72
    14
 73
   -15
 74
    12
  0
VERTEX
  5
21F
330
1FC
100
AcDbEntity
  8
3D-GENM
370
     9
100
AcDbFaceRecord
 10
0.0
 20
0.0
 30
0.0
 70
   128
 71
     8
 72
     9
 73
    10
 74
   -11
  0
VERTEX
  5
220
330
1FC
100
AcDbEntity
  8
3D-GENM
370
     9
100
AcDbFaceRecord
 10
0.0
 20
0.0
 30
0.0
 70
   128
 71
    -3
 72
    -8
 73
   -11
 74
   -19
  0
SEQEND
  5
221
330
1FC
100
AcDbEntity
  8
3D-GENM
370
     9
  0
POLYLINE
  5
222
330
1FB
100
AcDbEntity
  8
3D-GENM
370
     9
100
AcDbPolyFaceMesh
 66
     1
 10
0.0
 20
0.0
 30
0.0
 70
    64
 71
    24
 72
    12
1001
REVIT
1002
{
1070
     3
1000
103689
1002
}
  0
VERTEX
  5
223
330
222
100
AcDbEntity
  8
3D-GENM
370
     9
100
AcDbVertex
100
AcDbPolyFaceMeshVertex
 10
-18.0
 20
1.264111876487731
 30
1.263370156288146
 70
   192
  0
VERTEX
  5
224
330
222
100
AcDbEntity
  8
3D-GENM
370
     9
100
AcDbVertex
100
AcDbPolyFaceMeshVertex
 10
-18.0
 20
1.221519112586974
 30
0.9398463964462278
 70
   192
  0
VERTEX
  5
225
330
222
100
AcDbEntity
  8
3D-GENM
370
     9
100
AcDbVertex
100
AcDbPolyFaceMeshVertex
 10
-18.0
 20
1.096643596887588
 30
0.6383702158927917
 70
   192
  0
VERTEX
  5
226
330
222
100
AcDbEntity
  8
3D-GENM
370
     9
100
AcDbVertex
100
AcDbPolyFaceMeshVertex
 10
-18.0
 20
0.8979953527450559
 30
0.3794867098331451
 70
   192
  0
VERTEX
  5
227
330
222
100
AcDbEntity
  8
3D-GENM
370
     9
100
AcDbVertex
100
AcDbPolyFaceMeshVertex
 10
-18.0
 20
0.6391118466854095
 30
0.180838443338871
 70
   192
  0
VERTEX
  5
228
330
222
100
AcDbEntity
  8
3D-GENM
370
     9
100
AcDbVertex
100
AcDbPolyFaceMeshVertex
 10
-18.0
 20
0.3376356661319732
 30
0.0559629108756781
 70
   192
  0
VERTEX
  5
229
330
222
100
AcDbEntity
  8
3D-GENM
370
     9
100
AcDbVertex
100
AcDbPolyFaceMeshVertex
 10
-18.0
 20
0.014111849013716
 30
0.0133701958693564
 70
   192
  0
VERTEX
  5
22A
330
222
100
AcDbEntity
  8
3D-GENM
370
     9
100
AcDbVertex
100
AcDbPolyFaceMeshVertex
 10
-18.0
 20
-0.3094119653105735
 30
0.0559629108756781
 70
   192
  0
VERTEX
  5
22B
330
222
100
AcDbEntity
  8
3D-GENM
370
     9
100
AcDbVertex
100
AcDbPolyFaceMeshVertex
 10
-18.0
 20
-0.6108881682157516
 30
0.180838443338871
 70
   192
  0
VERTEX
  5
22C
330
222
100
AcDbEntity
  8
3D-GENM
370
     9
100
AcDbVertex
100
AcDbPolyFaceMeshVertex
 10
-18.0
 20
-0.8697716295719144
 30
0.3794867098331451
 70
   192
  0
VERTEX
  5
22D
330
222
100
AcDbEntity
  8
3D-GENM
370
     9
100
AcDbVertex
100
AcDbPolyFaceMeshVertex
 10
-18.0
 20
-1.068419873714446
 30
0.6383702158927917
 70
   192
  0
VERTEX
  5
22E
330
222
100
AcDbEntity
  8
3D-GENM
370
     9
100
AcDbVertex
100
AcDbPolyFaceMeshVertex
 10
-18.0
 20
-1.193295389413833
 30
0.9398463964462278
 70
   192
  0
VERTEX
  5
22F
330
222
100
AcDbEntity
  8
3D-GENM
370
     9
100
AcDbVertex
100
AcDbPolyFaceMeshVertex
 10
-18.0
 20
-1.23588815331459
 30
1.263370156288146
 70
   192
  0
VERTEX
  5
230
330
222
100
AcDbEntity
  8
3D-GENM
370
     9
100
AcDbVertex
100
AcDbPolyFaceMeshVertex
 10
-18.0
 20
-1.193295389413833
 30
1.586893916130065
 70
   192
  0
VERTEX
  5
231
330
222
100
AcDbEntity
  8
3D-GENM
370
     9
100
AcDbVertex
100
AcDbPolyFaceMeshVertex
 10
-18.0
 20
-1.068419873714446
 30
1.888370275497436
 70
   192
  0
VERTEX
  5
232
330
222
100
AcDbEntity
  8
3D-GENM
370
     9
100
AcDbVertex
100
AcDbPolyFaceMeshVertex
 10
-18.0
 20
-0.8697716295719144
 30
2.147253692150115
 70
   192
  0
VERTEX
  5
233
330
222
100
AcDbEntity
  8
3D-GENM
370
     9
100
AcDbVertex
100
AcDbPolyFaceMeshVertex
 10
-18.0
 20
-0.6108881682157516
 30
2.345902025699615
 70
   192
  0
VERTEX
  5
234
330
222
100
AcDbEntity
  8
3D-GENM
370
     9
100
AcDbVertex
100
AcDbPolyFaceMeshVertex
 10
-18.0
 20
-0.3094119653105735
 30
2.470777451992034
 70
   192
  0
VERTEX
  5
235
330
222
100
AcDbEntity
  8
3D-GENM
370
     9
100
AcDbVertex
100
AcDbPolyFaceMeshVertex
 10
-18.0
 20
0.014111849013716
 30
2.513370215892791
 70
   192
  0
VERTEX
  5
236
330
222
100
AcDbEntity
  8
3D-GENM
370
     9
100
AcDbVertex
100
AcDbPolyFaceMeshVertex
 10
-18.0
 20
0.3376356661319732
 30
2.470777451992034
 70
   192
  0
VERTEX
  5
237
330
222
100
AcDbEntity
  8
3D-GENM
370
     9
100
AcDbVertex
100
AcDbPolyFaceMeshVertex
 10
-18.0
 20
0.6391118466854095
 30
2.345902025699615
 70
   192
  0
VERTEX
  5
238
330
222
100
AcDbEntity
  8
3D-GENM
370
     9
100
AcDbVertex
100
AcDbPolyFaceMeshVertex
 10
-18.0
 20
0.8979953527450559
 30
2.147253692150115
 70
   192
  0
VERTEX
  5
239
330
222
100
AcDbEntity
  8
3D-GENM
370
     9
100
AcDbVertex
100
AcDbPolyFaceMeshVertex
 10
-18.0
 20
1.096643596887588
 30
1.888370275497436
 70
   192
  0
VERTEX
  5
23A
330
222
100
AcDbEntity
  8
3D-GENM
370
     9
100
AcDbVertex
100
AcDbPolyFaceMeshVertex
 10
-18.0
 20
1.221519112586974
 30
1.586893916130065
 70
   192
  0
VERTEX
  5
23B
330
222
100
AcDbEntity
  8
3D-GENM
370
     9
100
AcDbFaceRecord
 10
0.0
 20
0.0
 30
0.0
 70
   128
 71
     1
 72
     2
 73
    -3
 74
   -23
  0
VERTEX
  5
23C
330
222
100
AcDbEntity
  8
3D-GENM
370
     9
100
AcDbFaceRecord
 10
0.0
 20
0.0
 30
0.0
 70
   128
 71
     4
 72
     5
 73
     6
 74
    -7
  0
VERTEX
  5
23D
330
222
100
AcDbEntity
  8
3D-GENM
370
     9
100
AcDbFaceRecord
 10
0.0
 20
0.0
 30
0.0
 70
   128
 71
     3
 72
    -4
 73
    -7
 74
   -23
  0
VERTEX
  5
23E
330
222
100
AcDbEntity
  8
3D-GENM
370
     9
100
AcDbFaceRecord
 10
0.0
 20
0.0
 30
0.0
 70
   128
 71
    22
 72
   -23
 73
    20
 74
    21
  0
VERTEX
  5
23F
330
222
100
AcDbEntity
  8
3D-GENM
370
     9
100
AcDbFaceRecord
 10
0.0
 20
0.0
 30
0.0
 70
   128
 71
    23
 72
    24
 73
    -1
  0
VERTEX
  5
240
330
222
100
AcDbEntity
  8
3D-GENM
370
     9
100
AcDbFaceRecord
 10
0.0
 20
0.0
 30
0.0
 70
   128
 71
   -20
 72
   -23
 73
    18
 74
    19
  0
VERTEX
  5
241
330
222
100
AcDbEntity
  8
3D-GENM
370
     9
100
AcDbFaceRecord
 10
0.0
 20
0.0
 30
0.0
 70
   128
 71
     7
 72
     8
 73
    -9
 74
   -11
  0
VERTEX
  5
242
330
222
100
AcDbEntity
  8
3D-GENM
370
     9
100
AcDbFaceRecord
 10
0.0
 20
0.0
 30
0.0
 70
   128
 71
   -15
 72
    -7
 73
   -11
 74
    14
  0
VERTEX
  5
243
330
222
100
AcDbEntity
  8
3D-GENM
370
     9
100
AcDbFaceRecord
 10
0.0
 20
0.0
 30
0.0
 70
   128
 71
   -11
 72
     9
 73
    10
  0
VERTEX
  5
244
330
222
100
AcDbEntity
  8
3D-GENM
370
     9
100
AcDbFaceRecord
 10
0.0
 20
0.0
 30
0.0
 70
   128
 71
    11
 72
    12
 73
    13
 74
   -14
  0
VERTEX
  5
245
330
222
100
AcDbEntity
  8
3D-GENM
370
     9
100
AcDbFaceRecord
 10
0.0
 20
0.0
 30
0.0
 70
   128
 71
    16
 72
    17
 73
   -18
 74
    15
  0
VERTEX
  5
246
330
222
100
AcDbEntity
  8
3D-GENM
370
     9
100
AcDbFaceRecord
 10
0.0
 20
0.0
 30
0.0
 70
   128
 71
   -15
 72
   -18
 73
   -23
 74
    -7
  0
SEQEND
  5
247
330
222
100
AcDbEntity
  8
3D-GENM
370
     9
  0
POLYLINE
  5
248
330
1FB
100
AcDbEntity
  8
3D-GENM
370
     9
100
AcDbPolyFaceMesh
 66
     1
 10
0.0
 20
0.0
 30
0.0
 70
    64
 71
    26
 72
    12
1001
REVIT
1002
{
1070
     3
1000
103689
1002
}
  0
VERTEX
  5
249
330
248
100
AcDbEntity
  8
3D-GENM
370
     9
100
AcDbVertex
100
AcDbPolyFaceMeshVertex
 10
18.0
 20
-1.23588815331459
 30
1.263370156288146
 70
   192
  0
VERTEX
  5
24A
330
248
100
AcDbEntity
  8
3D-GENM
370
     9
100
AcDbVertex
100
AcDbPolyFaceMeshVertex
 10
18.0
 20
-1.193295389413833
 30
1.586893916130065
 70
   192
  0
VERTEX
  5
24B
330
248
100
AcDbEntity
  8
3D-GENM
370
     9
100
AcDbVertex
100
AcDbPolyFaceMeshVertex
 10
18.0
 20
-1.068419873714446
 30
1.888370275497436
 70
   192
  0
VERTEX
  5
24C
330
248
100
AcDbEntity
  8
3D-GENM
370
     9
100
AcDbVertex
100
AcDbPolyFaceMeshVertex
 10
18.0
 20
-0.8697716295719144
 30
2.147253692150115
 70
   192
  0
VERTEX
  5
24D
330
248
100
AcDbEntity
  8
3D-GENM
370
     9
100
AcDbVertex
100
AcDbPolyFaceMeshVertex
 10
18.0
 20
-0.6108881682157516
 30
2.345902025699615
 70
   192
  0
VERTEX
  5
24E
330
248
100
AcDbEntity
  8
3D-GENM
370
     9
100
AcDbVertex
100
AcDbPolyFaceMeshVertex
 10
18.0
 20
-0.3094119653105735
 30
2.470777451992034
 70
   192
  0
VERTEX
  5
24F
330
248
100
AcDbEntity
  8
3D-GENM
370
     9
100
AcDbVertex
100
AcDbPolyFaceMeshVertex
 10
18.0
 20
0.014111849013716
 30
2.513370215892791
 70
   192
  0
VERTEX
  5
250
330
248
100
AcDbEntity
  8
3D-GENM
370
     9
100
AcDbVertex
100
AcDbPolyFaceMeshVertex
 10
18.0
 20
0.3376356661319732
 30
2.470777451992034
 70
   192
  0
VERTEX
  5
251
330
248
100
AcDbEntity
  8
3D-GENM
370
     9
100
AcDbVertex
100
AcDbPolyFaceMeshVertex
 10
18.0
 20
0.6391118466854095
 30
2.345902025699615
 70
   192
  0
VERTEX
  5
252
330
248
100
AcDbEntity
  8
3D-GENM
370
     9
100
AcDbVertex
100
AcDbPolyFaceMeshVertex
 10
18.0
 20
0.8979953527450559
 30
2.147253692150115
 70
   192
  0
VERTEX
  5
253
330
248
100
AcDbEntity
  8
3D-GENM
370
     9
100
AcDbVertex
100
AcDbPolyFaceMeshVertex
 10
18.0
 20
1.096643596887588
 30
1.888370275497436
 70
   192
  0
VERTEX
  5
254
330
248
100
AcDbEntity
  8
3D-GENM
370
     9
100
AcDbVertex
100
AcDbPolyFaceMeshVertex
 10
18.0
 20
1.221519112586974
 30
1.586893916130065
 70
   192
  0
VERTEX
  5
255
330
248
100
AcDbEntity
  8
3D-GENM
370
     9
100
AcDbVertex
100
AcDbPolyFaceMeshVertex
 10
18.0
 20
1.264111876487731
 30
1.263370156288146
 70
   192
  0
VERTEX
  5
256
330
248
100
AcDbEntity
  8
3D-GENM
370
     9
100
AcDbVertex
100
AcDbPolyFaceMeshVertex
 10
-18.0
 20
1.264111876487731
 30
1.263370156288146
 70
   192
  0
VERTEX
  5
257
330
248
100
AcDbEntity
  8
3D-GENM
370
     9
100
AcDbVertex
100
AcDbPolyFaceMeshVertex
 10
-18.0
 20
1.221519112586974
 30
1.586893916130065
 70
   192
  0
VERTEX
  5
258
330
248
100
AcDbEntity
  8
3D-GENM
370
     9
100
AcDbVertex
100
AcDbPolyFaceMeshVertex
 10
-18.0
 20
1.096643596887588
 30
1.888370275497436
 70
   192
  0
VERTEX
  5
259
330
248
100
AcDbEntity
  8
3D-GENM
370
     9
100
AcDbVertex
100
AcDbPolyFaceMeshVertex
 10
-18.0
 20
0.8979953527450559
 30
2.147253692150115
 70
   192
  0
VERTEX
  5
25A
330
248
100
AcDbEntity
  8
3D-GENM
370
     9
100
AcDbVertex
100
AcDbPolyFaceMeshVertex
 10
-18.0
 20
0.6391118466854095
 30
2.345902025699615
 70
   192
  0
VERTEX
  5
25B
330
248
100
AcDbEntity
  8
3D-GENM
370
     9
100
AcDbVertex
100
AcDbPolyFaceMeshVertex
 10
-18.0
 20
0.3376356661319732
 30
2.470777451992034
 70
   192
  0
VERTEX
  5
25C
330
248
100
AcDbEntity
  8
3D-GENM
370
     9
100
AcDbVertex
100
AcDbPolyFaceMeshVertex
 10
-18.0
 20
0.014111849013716
 30
2.513370215892791
 70
   192
  0
VERTEX
  5
25D
330
248
100
AcDbEntity
  8
3D-GENM
370
     9
100
AcDbVertex
100
AcDbPolyFaceMeshVertex
 10
-18.0
 20
-0.3094119653105735
 30
2.470777451992034
 70
   192
  0
VERTEX
  5
25E
330
248
100
AcDbEntity
  8
3D-GENM
370
     9
100
AcDbVertex
100
AcDbPolyFaceMeshVertex
 10
-18.0
 20
-0.6108881682157516
 30
2.345902025699615
 70
   192
  0
VERTEX
  5
25F
330
248
100
AcDbEntity
  8
3D-GENM
370
     9
100
AcDbVertex
100
AcDbPolyFaceMeshVertex
 10
-18.0
 20
-0.8697716295719144
 30
2.147253692150115
 70
   192
  0
VERTEX
  5
260
330
248
100
AcDbEntity
  8
3D-GENM
370
     9
100
AcDbVertex
100
AcDbPolyFaceMeshVertex
 10
-18.0
 20
-1.068419873714446
 30
1.888370275497436
 70
   192
  0
VERTEX
  5
261
330
248
100
AcDbEntity
  8
3D-GENM
370
     9
100
AcDbVertex
100
AcDbPolyFaceMeshVertex
 10
-18.0
 20
-1.193295389413833
 30
1.586893916130065
 70
   192
  0
VERTEX
  5
262
330
248
100
AcDbEntity
  8
3D-GENM
370
     9
100
AcDbVertex
100
AcDbPolyFaceMeshVertex
 10
-18.0
 20
-1.23588815331459
 30
1.263370156288146
 70
   192
  0
VERTEX
  5
263
330
248
100
AcDbEntity
  8
3D-GENM
370
     9
100
AcDbFaceRecord
 10
0.0
 20
0.0
 30
0.0
 70
   128
 71
    14
 72
   -15
 73
    12
 74
    13
  0
VERTEX
  5
264
330
248
100
AcDbEntity
  8
3D-GENM
370
     9
100
AcDbFaceRecord
 10
0.0
 20
0.0
 30
0.0
 70
   128
 71
    15
 72
   -16
 73
    11
 74
   -12
  0
VERTEX
  5
265
330
248
100
AcDbEntity
  8
3D-GENM
370
     9
100
AcDbFaceRecord
 10
0.0
 20
0.0
 30
0.0
 70
   128
 71
    17
 72
   -18
 73
     9
 74
   -10
  0
VERTEX
  5
266
330
248
100
AcDbEntity
  8
3D-GENM
370
     9
100
AcDbFaceRecord
 10
0.0
 20
0.0
 30
0.0
 70
   128
 71
    16
 72
   -17
 73
    10
 74
   -11
  0
VERTEX
  5
267
330
248
100
AcDbEntity
  8
3D-GENM
370
     9
100
AcDbFaceRecord
 10
0.0
 20
0.0
 30
0.0
 70
   128
 71
    18
 72
   -19
 73
     8
 74
    -9
  0
VERTEX
  5
268
330
248
100
AcDbEntity
  8
3D-GENM
370
     9
100
AcDbFaceRecord
 10
0.0
 20
0.0
 30
0.0
 70
   128
 71
     7
 72
    -8
 73
    19
 74
   -20
  0
VERTEX
  5
269
330
248
100
AcDbEntity
  8
3D-GENM
370
     9
100
AcDbFaceRecord
 10
0.0
 20
0.0
 30
0.0
 70
   128
 71
    21
 72
   -22
 73
     5
 74
    -6
  0
VERTEX
  5
26A
330
248
100
AcDbEntity
  8
3D-GENM
370
     9
100
AcDbFaceRecord
 10
0.0
 20
0.0
 30
0.0
 70
   128
 71
    22
 72
   -23
 73
     4
 74
    -5
  0
VERTEX
  5
26B
330
248
100
AcDbEntity
  8
3D-GENM
370
     9
100
AcDbFaceRecord
 10
0.0
 20
0.0
 30
0.0
 70
   128
 71
    24
 72
   -25
 73
     2
 74
    -3
  0
VERTEX
  5
26C
330
248
100
AcDbEntity
  8
3D-GENM
370
     9
100
AcDbFaceRecord
 10
0.0
 20
0.0
 30
0.0
 70
   128
 71
    23
 72
   -24
 73
     3
 74
    -4
  0
VERTEX
  5
26D
330
248
100
AcDbEntity
  8
3D-GENM
370
     9
100
AcDbFaceRecord
 10
0.0
 20
0.0
 30
0.0
 70
   128
 71
    25
 72
    26
 73
     1
 74
    -2
  0
VERTEX
  5
26E
330
248
100
AcDbEntity
  8
3D-GENM
370
     9
100
AcDbFaceRecord
 10
0.0
 20
0.0
 30
0.0
 70
   128
 71
    20
 72
   -21
 73
     6
 74
    -7
  0
SEQEND
  5
26F
330
248
100
AcDbEntity
  8
3D-GENM
370
     9
  0
POLYLINE
  5
270
330
1FB
100
AcDbEntity
  8
3D-GENM
370
     9
100
AcDbPolyFaceMesh
 66
     1
 10
0.0
 20
0.0
 30
0.0
 70
    64
 71
    26
 72
    12
1001
REVIT
1002
{
1070
     3
1000
103689
1002
}
  0
VERTEX
  5
271
330
270
100
AcDbEntity
  8
3D-GENM
370
     9
100
AcDbVertex
100
AcDbPolyFaceMeshVertex
 10
18.0
 20
1.264111876487731
 30
1.263370156288146
 70
   192
  0
VERTEX
  5
272
330
270
100
AcDbEntity
  8
3D-GENM
370
     9
100
AcDbVertex
100
AcDbPolyFaceMeshVertex
 10
18.0
 20
1.221519112586974
 30
0.9398463964462278
 70
   192
  0
VERTEX
  5
273
330
270
100
AcDbEntity
  8
3D-GENM
370
     9
100
AcDbVertex
100
AcDbPolyFaceMeshVertex
 10
18.0
 20
1.096643596887588
 30
0.6383702158927917
 70
   192
  0
VERTEX
  5
274
330
270
100
AcDbEntity
  8
3D-GENM
370
     9
100
AcDbVertex
100
AcDbPolyFaceMeshVertex
 10
18.0
 20
0.8979953527450559
 30
0.3794867098331451
 70
   192
  0
VERTEX
  5
275
330
270
100
AcDbEntity
  8
3D-GENM
370
     9
100
AcDbVertex
100
AcDbPolyFaceMeshVertex
 10
18.0
 20
0.6391118466854095
 30
0.180838443338871
 70
   192
  0
VERTEX
  5
276
330
270
100
AcDbEntity
  8
3D-GENM
370
     9
100
AcDbVertex
100
AcDbPolyFaceMeshVertex
 10
18.0
 20
0.3376356661319732
 30
0.0559629108756781
 70
   192
  0
VERTEX
  5
277
330
270
100
AcDbEntity
  8
3D-GENM
370
     9
100
AcDbVertex
100
AcDbPolyFaceMeshVertex
 10
18.0
 20
0.014111849013716
 30
0.0133701958693564
 70
   192
  0
VERTEX
  5
278
330
270
100
AcDbEntity
  8
3D-GENM
370
     9
100
AcDbVertex
100
AcDbPolyFaceMeshVertex
 10
18.0
 20
-0.3094119653105735
 30
0.0559629108756781
 70
   192
  0
VERTEX
  5
279
330
270
100
AcDbEntity
  8
3D-GENM
370
     9
100
AcDbVertex
100
AcDbPolyFaceMeshVertex
 10
18.0
 20
-0.6108881682157516
 30
0.180838443338871
 70
   192
  0
VERTEX
  5
27A
330
270
100
AcDbEntity
  8
3D-GENM
370
     9
100
AcDbVertex
100
AcDbPolyFaceMeshVertex
 10
18.0
 20
-0.8697716295719144
 30
0.3794867098331451
 70
   192
  0
VERTEX
  5
27B
330
270
100
AcDbEntity
  8
3D-GENM
370
     9
100
AcDbVertex
100
AcDbPolyFaceMeshVertex
 10
18.0
 20
-1.068419873714446
 30
0.6383702158927917
 70
   192
  0
VERTEX
  5
27C
330
270
100
AcDbEntity
  8
3D-GENM
370
     9
100
AcDbVertex
100
AcDbPolyFaceMeshVertex
 10
18.0
 20
-1.193295389413833
 30
0.9398463964462278
 70
   192
  0
VERTEX
  5
27D
330
270
100
AcDbEntity
  8
3D-GENM
370
     9
100
AcDbVertex
100
AcDbPolyFaceMeshVertex
 10
18.0
 20
-1.23588815331459
 30
1.263370156288146
 70
   192
  0
VERTEX
  5
27E
330
270
100
AcDbEntity
  8
3D-GENM
370
     9
100
AcDbVertex
100
AcDbPolyFaceMeshVertex
 10
-18.0
 20
-1.23588815331459
 30
1.263370156288146
 70
   192
  0
VERTEX
  5
27F
330
270
100
AcDbEntity
  8
3D-GENM
370
     9
100
AcDbVertex
100
AcDbPolyFaceMeshVertex
 10
-18.0
 20
-1.193295389413833
 30
0.9398463964462278
 70
   192
  0
VERTEX
  5
280
330
270
100
AcDbEntity
  8
3D-GENM
370
     9
100
AcDbVertex
100
AcDbPolyFaceMeshVertex
 10
-18.0
 20
-1.068419873714446
 30
0.6383702158927917
 70
   192
  0
VERTEX
  5
281
330
270
100
AcDbEntity
  8
3D-GENM
370
     9
100
AcDbVertex
100
AcDbPolyFaceMeshVertex
 10
-18.0
 20
-0.8697716295719144
 30
0.3794867098331451
 70
   192
  0
VERTEX
  5
282
330
270
100
AcDbEntity
  8
3D-GENM
370
     9
100
AcDbVertex
100
AcDbPolyFaceMeshVertex
 10
-18.0
 20
-0.6108881682157516
 30
0.180838443338871
 70
   192
  0
VERTEX
  5
283
330
270
100
AcDbEntity
  8
3D-GENM
370
     9
100
AcDbVertex
100
AcDbPolyFaceMeshVertex
 10
-18.0
 20
-0.3094119653105735
 30
0.0559629108756781
 70
   192
  0
VERTEX
  5
284
330
270
100
AcDbEntity
  8
3D-GENM
370
     9
100
AcDbVertex
100
AcDbPolyFaceMeshVertex
 10
-18.0
 20
0.014111849013716
 30
0.0133701958693564
 70
   192
  0
VERTEX
  5
285
330
270
100
AcDbEntity
  8
3D-GENM
370
     9
100
AcDbVertex
100
AcDbPolyFaceMeshVertex
 10
-18.0
 20
0.3376356661319732
 30
0.0559629108756781
 70
   192
  0
VERTEX
  5
286
330
270
100
AcDbEntity
  8
3D-GENM
370
     9
100
AcDbVertex
100
AcDbPolyFaceMeshVertex
 10
-18.0
 20
0.6391118466854095
 30
0.180838443338871
 70
   192
  0
VERTEX
  5
287
330
270
100
AcDbEntity
  8
3D-GENM
370
     9
100
AcDbVertex
100
AcDbPolyFaceMeshVertex
 10
-18.0
 20
0.8979953527450559
 30
0.3794867098331451
 70
   192
  0
VERTEX
  5
288
330
270
100
AcDbEntity
  8
3D-GENM
370
     9
100
AcDbVertex
100
AcDbPolyFaceMeshVertex
 10
-18.0
 20
1.096643596887588
 30
0.6383702158927917
 70
   192
  0
VERTEX
  5
289
330
270
100
AcDbEntity
  8
3D-GENM
370
     9
100
AcDbVertex
100
AcDbPolyFaceMeshVertex
 10
-18.0
 20
1.221519112586974
 30
0.9398463964462278
 70
   192
  0
VERTEX
  5
28A
330
270
100
AcDbEntity
  8
3D-GENM
370
     9
100
AcDbVertex
100
AcDbPolyFaceMeshVertex
 10
-18.0
 20
1.264111876487731
 30
1.263370156288146
 70
   192
  0
VERTEX
  5
28B
330
270
100
AcDbEntity
  8
3D-GENM
370
     9
100
AcDbFaceRecord
 10
0.0
 20
0.0
 30
0.0
 70
   128
 71
    14
 72
   -15
 73
    12
 74
    13
  0
VERTEX
  5
28C
330
270
100
AcDbEntity
  8
3D-GENM
370
     9
100
AcDbFaceRecord
 10
0.0
 20
0.0
 30
0.0
 70
   128
 71
    15
 72
   -16
 73
    11
 74
   -12
  0
VERTEX
  5
28D
330
270
100
AcDbEntity
  8
3D-GENM
370
     9
100
AcDbFaceRecord
 10
0.0
 20
0.0
 30
0.0
 70
   128
 71
    17
 72
   -18
 73
     9
 74
   -10
  0
VERTEX
  5
28E
330
270
100
AcDbEntity
  8
3D-GENM
370
     9
100
AcDbFaceRecord
 10
0.0
 20
0.0
 30
0.0
 70
   128
 71
    16
 72
   -17
 73
    10
 74
   -11
  0
VERTEX
  5
28F
330
270
100
AcDbEntity
  8
3D-GENM
370
     9
100
AcDbFaceRecord
 10
0.0
 20
0.0
 30
0.0
 70
   128
 71
    18
 72
   -19
 73
     8
 74
    -9
  0
VERTEX
  5
290
330
270
100
AcDbEntity
  8
3D-GENM
370
     9
100
AcDbFaceRecord
 10
0.0
 20
0.0
 30
0.0
 70
   128
 71
     7
 72
    -8
 73
    19
 74
   -20
  0
VERTEX
  5
291
330
270
100
AcDbEntity
  8
3D-GENM
370
     9
100
AcDbFaceRecord
 10
0.0
 20
0.0
 30
0.0
 70
   128
 71
    21
 72
   -22
 73
     5
 74
    -6
  0
VERTEX
  5
292
330
270
100
AcDbEntity
  8
3D-GENM
370
     9
100
AcDbFaceRecord
 10
0.0
 20
0.0
 30
0.0
 70
   128
 71
    22
 72
   -23
 73
     4
 74
    -5
  0
VERTEX
  5
293
330
270
100
AcDbEntity
  8
3D-GENM
370
     9
100
AcDbFaceRecord
 10
0.0
 20
0.0
 30
0.0
 70
   128
 71
    24
 72
   -25
 73
     2
 74
    -3
  0
VERTEX
  5
294
330
270
100
AcDbEntity
  8
3D-GENM
370
     9
100
AcDbFaceRecord
 10
0.0
 20
0.0
 30
0.0
 70
   128
 71
    23
 72
   -24
 73
     3
 74
    -4
  0
VERTEX
  5
295
330
270
100
AcDbEntity
  8
3D-GENM
370
     9
100
AcDbFaceRecord
 10
0.0
 20
0.0
 30
0.0
 70
   128
 71
    25
 72
    26
 73
     1
 74
    -2
  0
VERTEX
  5
296
330
270
100
AcDbEntity
  8
3D-GENM
370
     9
100
AcDbFaceRecord
 10
0.0
 20
0.0
 30
0.0
 70
   128
 71
    20
 72
   -21
 73
     6
 74
    -7
  0
SEQEND
  5
297
330
270
100
AcDbEntity
  8
3D-GENM
370
     9
  0
ENDBLK
  5
299
330
1FB
100
AcDbEntity
  8
0
100
AcDbBlockEnd
  0
BLOCK
  5
33B
330
29C
100
AcDbEntity
  8
0
100
AcDbBlockBegin
  2
Fascia-Kawneer-Circular - Versoleil-171120-Preview
 70
     0
 10
0.0
 20
0.0
 30
0.0
  3
Fascia-Kawneer-Circular - Versoleil-171120-Preview
  1

  0
POLYLINE
  5
29D
330
29C
100
AcDbEntity
  8
3D-S-BEAM
370
     9
100
AcDbPolyFaceMesh
 66
     1
 10
0.0
 20
0.0
 30
0.0
 70
    64
 71
    24
 72
    13
1001
REVIT
1002
{
1070
     3
1000
148189
1002
}
  0
VERTEX
  5
29E
330
29D
100
AcDbEntity
  8
3D-S-BEAM
370
     9
100
AcDbVertex
100
AcDbPolyFaceMeshVertex
 10
18.0
 20
-0.0000000000003922
 30
4.992187499999999
 70
   192
  0
VERTEX
  5
29F
330
29D
100
AcDbEntity
  8
3D-S-BEAM
370
     9
100
AcDbVertex
100
AcDbPolyFaceMeshVertex
 10
18.0
 20
-0.647047609090805
 30
4.907001972198485
 70
   192
  0
VERTEX
  5
2A0
330
29D
100
AcDbEntity
  8
3D-S-BEAM
370
     9
100
AcDbVertex
100
AcDbPolyFaceMeshVertex
 10
18.0
 20
-1.250000059604644
 30
4.657251119613646
 70
   192
  0
VERTEX
  5
2A1
330
29D
100
AcDbEntity
  8
3D-S-BEAM
370
     9
100
AcDbVertex
100
AcDbPolyFaceMeshVertex
 10
18.0
 20
-1.767766892910003
 30
4.259954452514647
 70
   192
  0
VERTEX
  5
2A2
330
29D
100
AcDbEntity
  8
3D-S-BEAM
370
     9
100
AcDbVertex
100
AcDbPolyFaceMeshVertex
 10
18.0
 20
-2.165063560009002
 30
3.742187619209289
 70
   192
  0
VERTEX
  5
2A3
330
29D
100
AcDbEntity
  8
3D-S-BEAM
370
     9
100
AcDbVertex
100
AcDbPolyFaceMeshVertex
 10
18.0
 20
-2.414814591407775
 30
3.139235258102416
 70
   192
  0
VERTEX
  5
2A4
330
29D
100
AcDbEntity
  8
3D-S-BEAM
370
     9
100
AcDbVertex
100
AcDbPolyFaceMeshVertex
 10
18.0
 20
-2.500000119209289
 30
2.492187559604644
 70
   192
  0
VERTEX
  5
2A5
330
29D
100
AcDbEntity
  8
3D-S-BEAM
370
     9
100
AcDbVertex
100
AcDbPolyFaceMeshVertex
 10
18.0
 20
-2.414814591407775
 30
1.845139861106872
 70
   192
  0
VERTEX
  5
2A6
330
29D
100
AcDbEntity
  8
3D-S-BEAM
370
     9
100
AcDbVertex
100
AcDbPolyFaceMeshVertex
 10
18.0
 20
-2.165063560009002
 30
1.242187499999999
 70
   192
  0
VERTEX
  5
2A7
330
29D
100
AcDbEntity
  8
3D-S-BEAM
370
     9
100
AcDbVertex
100
AcDbPolyFaceMeshVertex
 10
18.0
 20
-1.767766892910003
 30
0.7244205325841903
 70
   192
  0
VERTEX
  5
2A8
330
29D
100
AcDbEntity
  8
3D-S-BEAM
370
     9
100
AcDbVertex
100
AcDbPolyFaceMeshVertex
 10
18.0
 20
-1.250000059604644
 30
0.3271239548921585
 70
   192
  0
VERTEX
  5
2A9
330
29D
100
AcDbEntity
  8
3D-S-BEAM
370
     9
100
AcDbVertex
100
AcDbPolyFaceMeshVertex
 10
18.0
 20
-0.647047609090805
 30
0.0773729011416435
 70
   192
  0
VERTEX
  5
2AA
330
29D
100
AcDbEntity
  8
3D-S-BEAM
370
     9
100
AcDbVertex
100
AcDbPolyFaceMeshVertex
 10
18.0
 20
-0.0000000000003473
 30
-0.0078125323634595
 70
   192
  0
VERTEX
  5
2AB
330
29D
100
AcDbEntity
  8
3D-S-BEAM
370
     9
100
AcDbVertex
100
AcDbPolyFaceMeshVertex
 10
18.0
 20
0.647047609090805
 30
0.0773729011416435
 70
   192
  0
VERTEX
  5
2AC
330
29D
100
AcDbEntity
  8
3D-S-BEAM
370
     9
100
AcDbVertex
100
AcDbPolyFaceMeshVertex
 10
18.0
 20
1.250000059604644
 30
0.3271239548921585
 70
   192
  0
VERTEX
  5
2AD
330
29D
100
AcDbEntity
  8
3D-S-BEAM
370
     9
100
AcDbVertex
100
AcDbPolyFaceMeshVertex
 10
18.0
 20
1.767766892910003
 30
0.7244205325841903
 70
   192
  0
VERTEX
  5
2AE
330
29D
100
AcDbEntity
  8
3D-S-BEAM
370
     9
100
AcDbVertex
100
AcDbPolyFaceMeshVertex
 10
18.0
 20
2.165063560009002
 30
1.242187499999999
 70
   192
  0
VERTEX
  5
2AF
330
29D
100
AcDbEntity
  8
3D-S-BEAM
370
     9
100
AcDbVertex
100
AcDbPolyFaceMeshVertex
 10
18.0
 20
2.414814591407775
 30
1.845139861106872
 70
   192
  0
VERTEX
  5
2B0
330
29D
100
AcDbEntity
  8
3D-S-BEAM
370
     9
100
AcDbVertex
100
AcDbPolyFaceMeshVertex
 10
18.0
 20
2.500000119209289
 30
2.492187559604644
 70
   192
  0
VERTEX
  5
2B1
330
29D
100
AcDbEntity
  8
3D-S-BEAM
370
     9
100
AcDbVertex
100
AcDbPolyFaceMeshVertex
 10
18.0
 20
2.414814591407775
 30
3.139235258102416
 70
   192
  0
VERTEX
  5
2B2
330
29D
100
AcDbEntity
  8
3D-S-BEAM
370
     9
100
AcDbVertex
100
AcDbPolyFaceMeshVertex
 10
18.0
 20
2.165063560009002
 30
3.742187619209289
 70
   192
  0
VERTEX
  5
2B3
330
29D
100
AcDbEntity
  8
3D-S-BEAM
370
     9
100
AcDbVertex
100
AcDbPolyFaceMeshVertex
 10
18.0
 20
1.767766892910003
 30
4.259954452514647
 70
   192
  0
VERTEX
  5
2B4
330
29D
100
AcDbEntity
  8
3D-S-BEAM
370
     9
100
AcDbVertex
100
AcDbPolyFaceMeshVertex
 10
18.0
 20
1.250000059604644
 30
4.657251119613646
 70
   192
  0
VERTEX
  5
2B5
330
29D
100
AcDbEntity
  8
3D-S-BEAM
370
     9
100
AcDbVertex
100
AcDbPolyFaceMeshVertex
 10
18.0
 20
0.647047609090805
 30
4.907001972198485
 70
   192
  0
VERTEX
  5
2B6
330
29D
100
AcDbEntity
  8
3D-S-BEAM
370
     9
100
AcDbFaceRecord
 10
0.0
 20
0.0
 30
0.0
 70
   128
 71
    18
 72
   -19
 73
   -23
 74
   -12
  0
VERTEX
  5
2B7
330
29D
100
AcDbEntity
  8
3D-S-BEAM
370
     9
100
AcDbFaceRecord
 10
0.0
 20
0.0
 30
0.0
 70
   128
 71
    17
 72
   -18
 73
   -12
 74
    16
  0
VERTEX
  5
2B8
330
29D
100
AcDbEntity
  8
3D-S-BEAM
370
     9
100
AcDbFaceRecord
 10
0.0
 20
0.0
 30
0.0
 70
   128
 71
    14
 72
    15
 73
   -16
 74
   -12
  0
VERTEX
  5
2B9
330
29D
100
AcDbEntity
  8
3D-S-BEAM
370
     9
100
AcDbFaceRecord
 10
0.0
 20
0.0
 30
0.0
 70
   128
 71
    22
 72
   -23
 73
    21
  0
VERTEX
  5
2BA
330
29D
100
AcDbEntity
  8
3D-S-BEAM
370
     9
100
AcDbFaceRecord
 10
0.0
 20
0.0
 30
0.0
 70
   128
 71
    19
 72
    20
 73
   -21
 74
   -23
  0
VERTEX
  5
2BB
330
29D
100
AcDbEntity
  8
3D-S-BEAM
370
     9
100
AcDbFaceRecord
 10
0.0
 20
0.0
 30
0.0
 70
   128
 71
    23
 72
   -24
 73
    -6
 74
   -12
  0
VERTEX
  5
2BC
330
29D
100
AcDbEntity
  8
3D-S-BEAM
370
     9
100
AcDbFaceRecord
 10
0.0
 20
0.0
 30
0.0
 70
   128
 71
    24
 72
     1
 73
     2
 74
    -3
  0
VERTEX
  5
2BD
330
29D
100
AcDbEntity
  8
3D-S-BEAM
370
     9
100
AcDbFaceRecord
 10
0.0
 20
0.0
 30
0.0
 70
   128
 71
    10
 72
    11
 73
   -12
 74
     9
  0
VERTEX
  5
2BE
330
29D
100
AcDbEntity
  8
3D-S-BEAM
370
     9
100
AcDbFaceRecord
 10
0.0
 20
0.0
 30
0.0
 70
   128
 71
    -9
 72
   -12
 73
    -6
 74
     8
  0
VERTEX
  5
2BF
330
29D
100
AcDbEntity
  8
3D-S-BEAM
370
     9
100
AcDbFaceRecord
 10
0.0
 20
0.0
 30
0.0
 70
   128
 71
     3
 72
     4
 73
     5
 74
    -6
  0
VERTEX
  5
2C0
330
29D
100
AcDbEntity
  8
3D-S-BEAM
370
     9
100
AcDbFaceRecord
 10
0.0
 20
0.0
 30
0.0
 70
   128
 71
   -24
 72
    -3
 73
    -6
  0
VERTEX
  5
2C1
330
29D
100
AcDbEntity
  8
3D-S-BEAM
370
     9
100
AcDbFaceRecord
 10
0.0
 20
0.0
 30
0.0
 70
   128
 71
     6
 72
     7
 73
    -8
  0
VERTEX
  5
2C2
330
29D
100
AcDbEntity
  8
3D-S-BEAM
370
     9
100
AcDbFaceRecord
 10
0.0
 20
0.0
 30
0.0
 70
   128
 71
    13
 72
   -14
 73
    12
  0
SEQEND
  5
2C3
330
29D
100
AcDbEntity
  8
3D-S-BEAM
370
     9
  0
POLYLINE
  5
2C4
330
29C
100
AcDbEntity
  8
3D-S-BEAM
370
     9
100
AcDbPolyFaceMesh
 66
     1
 10
0.0
 20
0.0
 30
0.0
 70
    64
 71
    24
 72
    13
1001
REVIT
1002
{
1070
     3
1000
148189
1002
}
  0
VERTEX
  5
2C5
330
2C4
100
AcDbEntity
  8
3D-S-BEAM
370
     9
100
AcDbVertex
100
AcDbPolyFaceMeshVertex
 10
-18.0
 20
-0.0000000000003771
 30
4.992187499999999
 70
   192
  0
VERTEX
  5
2C6
330
2C4
100
AcDbEntity
  8
3D-S-BEAM
370
     9
100
AcDbVertex
100
AcDbPolyFaceMeshVertex
 10
-18.0
 20
0.647047609090805
 30
4.907001972198485
 70
   192
  0
VERTEX
  5
2C7
330
2C4
100
AcDbEntity
  8
3D-S-BEAM
370
     9
100
AcDbVertex
100
AcDbPolyFaceMeshVertex
 10
-18.0
 20
1.250000059604644
 30
4.657251119613646
 70
   192
  0
VERTEX
  5
2C8
330
2C4
100
AcDbEntity
  8
3D-S-BEAM
370
     9
100
AcDbVertex
100
AcDbPolyFaceMeshVertex
 10
-18.0
 20
1.767766892910003
 30
4.259954452514647
 70
   192
  0
VERTEX
  5
2C9
330
2C4
100
AcDbEntity
  8
3D-S-BEAM
370
     9
100
AcDbVertex
100
AcDbPolyFaceMeshVertex
 10
-18.0
 20
2.165063560009002
 30
3.742187619209289
 70
   192
  0
VERTEX
  5
2CA
330
2C4
100
AcDbEntity
  8
3D-S-BEAM
370
     9
100
AcDbVertex
100
AcDbPolyFaceMeshVertex
 10
-18.0
 20
2.414814591407775
 30
3.139235258102416
 70
   192
  0
VERTEX
  5
2CB
330
2C4
100
AcDbEntity
  8
3D-S-BEAM
370
     9
100
AcDbVertex
100
AcDbPolyFaceMeshVertex
 10
-18.0
 20
2.500000119209289
 30
2.492187559604644
 70
   192
  0
VERTEX
  5
2CC
330
2C4
100
AcDbEntity
  8
3D-S-BEAM
370
     9
100
AcDbVertex
100
AcDbPolyFaceMeshVertex
 10
-18.0
 20
2.414814591407775
 30
1.845139861106872
 70
   192
  0
VERTEX
  5
2CD
330
2C4
100
AcDbEntity
  8
3D-S-BEAM
370
     9
100
AcDbVertex
100
AcDbPolyFaceMeshVertex
 10
-18.0
 20
2.165063560009002
 30
1.242187499999999
 70
   192
  0
VERTEX
  5
2CE
330
2C4
100
AcDbEntity
  8
3D-S-BEAM
370
     9
100
AcDbVertex
100
AcDbPolyFaceMeshVertex
 10
-18.0
 20
1.767766892910003
 30
0.7244205325841903
 70
   192
  0
VERTEX
  5
2CF
330
2C4
100
AcDbEntity
  8
3D-S-BEAM
370
     9
100
AcDbVertex
100
AcDbPolyFaceMeshVertex
 10
-18.0
 20
1.250000059604644
 30
0.3271239548921585
 70
   192
  0
VERTEX
  5
2D0
330
2C4
100
AcDbEntity
  8
3D-S-BEAM
370
     9
100
AcDbVertex
100
AcDbPolyFaceMeshVertex
 10
-18.0
 20
0.647047609090805
 30
0.0773729011416435
 70
   192
  0
VERTEX
  5
2D1
330
2C4
100
AcDbEntity
  8
3D-S-BEAM
370
     9
100
AcDbVertex
100
AcDbPolyFaceMeshVertex
 10
-18.0
 20
-0.0000000000003606
 30
-0.0078125323634595
 70
   192
  0
VERTEX
  5
2D2
330
2C4
100
AcDbEntity
  8
3D-S-BEAM
370
     9
100
AcDbVertex
100
AcDbPolyFaceMeshVertex
 10
-18.0
 20
-0.647047609090805
 30
0.0773729011416435
 70
   192
  0
VERTEX
  5
2D3
330
2C4
100
AcDbEntity
  8
3D-S-BEAM
370
     9
100
AcDbVertex
100
AcDbPolyFaceMeshVertex
 10
-18.0
 20
-1.250000059604644
 30
0.3271239548921585
 70
   192
  0
VERTEX
  5
2D4
330
2C4
100
AcDbEntity
  8
3D-S-BEAM
370
     9
100
AcDbVertex
100
AcDbPolyFaceMeshVertex
 10
-18.0
 20
-1.767766892910003
 30
0.7244205325841903
 70
   192
  0
VERTEX
  5
2D5
330
2C4
100
AcDbEntity
  8
3D-S-BEAM
370
     9
100
AcDbVertex
100
AcDbPolyFaceMeshVertex
 10
-18.0
 20
-2.165063560009002
 30
1.242187499999999
 70
   192
  0
VERTEX
  5
2D6
330
2C4
100
AcDbEntity
  8
3D-S-BEAM
370
     9
100
AcDbVertex
100
AcDbPolyFaceMeshVertex
 10
-18.0
 20
-2.414814591407775
 30
1.845139861106872
 70
   192
  0
VERTEX
  5
2D7
330
2C4
100
AcDbEntity
  8
3D-S-BEAM
370
     9
100
AcDbVertex
100
AcDbPolyFaceMeshVertex
 10
-18.0
 20
-2.500000119209289
 30
2.492187559604644
 70
   192
  0
VERTEX
  5
2D8
330
2C4
100
AcDbEntity
  8
3D-S-BEAM
370
     9
100
AcDbVertex
100
AcDbPolyFaceMeshVertex
 10
-18.0
 20
-2.414814591407775
 30
3.139235258102416
 70
   192
  0
VERTEX
  5
2D9
330
2C4
100
AcDbEntity
  8
3D-S-BEAM
370
     9
100
AcDbVertex
100
AcDbPolyFaceMeshVertex
 10
-18.0
 20
-2.165063560009002
 30
3.742187619209289
 70
   192
  0
VERTEX
  5
2DA
330
2C4
100
AcDbEntity
  8
3D-S-BEAM
370
     9
100
AcDbVertex
100
AcDbPolyFaceMeshVertex
 10
-18.0
 20
-1.767766892910003
 30
4.259954452514647
 70
   192
  0
VERTEX
  5
2DB
330
2C4
100
AcDbEntity
  8
3D-S-BEAM
370
     9
100
AcDbVertex
100
AcDbPolyFaceMeshVertex
 10
-18.0
 20
-1.250000059604644
 30
4.657251119613646
 70
   192
  0
VERTEX
  5
2DC
330
2C4
100
AcDbEntity
  8
3D-S-BEAM
370
     9
100
AcDbVertex
100
AcDbPolyFaceMeshVertex
 10
-18.0
 20
-0.647047609090805
 30
4.907001972198485
 70
   192
  0
VERTEX
  5
2DD
330
2C4
100
AcDbEntity
  8
3D-S-BEAM
370
     9
100
AcDbFaceRecord
 10
0.0
 20
0.0
 30
0.0
 70
   128
 71
    -3
 72
     7
 73
    -8
 74
   -14
  0
VERTEX
  5
2DE
330
2C4
100
AcDbEntity
  8
3D-S-BEAM
370
     9
100
AcDbFaceRecord
 10
0.0
 20
0.0
 30
0.0
 70
   128
 71
   -14
 72
     8
 73
     9
 74
   -10
  0
VERTEX
  5
2DF
330
2C4
100
AcDbEntity
  8
3D-S-BEAM
370
     9
100
AcDbFaceRecord
 10
0.0
 20
0.0
 30
0.0
 70
   128
 71
    10
 72
    11
 73
   -12
 74
   -14
  0
VERTEX
  5
2E0
330
2C4
100
AcDbEntity
  8
3D-S-BEAM
370
     9
100
AcDbFaceRecord
 10
0.0
 20
0.0
 30
0.0
 70
   128
 71
     3
 72
     4
 73
    -5
 74
    -7
  0
VERTEX
  5
2E1
330
2C4
100
AcDbEntity
  8
3D-S-BEAM
370
     9
100
AcDbFaceRecord
 10
0.0
 20
0.0
 30
0.0
 70
   128
 71
     5
 72
     6
 73
    -7
  0
VERTEX
  5
2E2
330
2C4
100
AcDbEntity
  8
3D-S-BEAM
370
     9
100
AcDbFaceRecord
 10
0.0
 20
0.0
 30
0.0
 70
   128
 71
   -20
 72
     2
 73
    -3
 74
   -14
  0
VERTEX
  5
2E3
330
2C4
100
AcDbEntity
  8
3D-S-BEAM
370
     9
100
AcDbFaceRecord
 10
0.0
 20
0.0
 30
0.0
 70
   128
 71
    24
 72
     1
 73
    -2
 74
    23
  0
VERTEX
  5
2E4
330
2C4
100
AcDbEntity
  8
3D-S-BEAM
370
     9
100
AcDbFaceRecord
 10
0.0
 20
0.0
 30
0.0
 70
   128
 71
   -16
 72
    14
 73
    15
  0
VERTEX
  5
2E5
330
2C4
100
AcDbEntity
  8
3D-S-BEAM
370
     9
100
AcDbFaceRecord
 10
0.0
 20
0.0
 30
0.0
 70
   128
 71
   -17
 72
   -20
 73
   -14
 74
    16
  0
VERTEX
  5
2E6
330
2C4
100
AcDbEntity
  8
3D-S-BEAM
370
     9
100
AcDbFaceRecord
 10
0.0
 20
0.0
 30
0.0
 70
   128
 71
   -20
 72
    17
 73
    18
 74
    19
  0
VERTEX
  5
2E7
330
2C4
100
AcDbEntity
  8
3D-S-BEAM
370
     9
100
AcDbFaceRecord
 10
0.0
 20
0.0
 30
0.0
 70
   128
 71
    21
 72
    22
 73
   -23
 74
    20
  0
VERTEX
  5
2E8
330
2C4
100
AcDbEntity
  8
3D-S-BEAM
370
     9
100
AcDbFaceRecord
 10
0.0
 20
0.0
 30
0.0
 70
   128
 71
   -20
 72
   -23
 73
    -2
  0
VERTEX
  5
2E9
330
2C4
100
AcDbEntity
  8
3D-S-BEAM
370
     9
100
AcDbFaceRecord
 10
0.0
 20
0.0
 30
0.0
 70
   128
 71
   -14
 72
    12
 73
    13
  0
SEQEND
  5
2EA
330
2C4
100
AcDbEntity
  8
3D-S-BEAM
370
     9
  0
POLYLINE
  5
2EB
330
29C
100
AcDbEntity
  8
3D-S-BEAM
370
     9
100
AcDbPolyFaceMesh
 66
     1
 10
0.0
 20
0.0
 30
0.0
 70
    64
 71
    26
 72
    12
1001
REVIT
1002
{
1070
     3
1000
148189
1002
}
  0
VERTEX
  5
2EC
330
2EB
100
AcDbEntity
  8
3D-S-BEAM
370
     9
100
AcDbVertex
100
AcDbPolyFaceMeshVertex
 10
18.0
 20
-0.0000000000003606
 30
-0.0078125323634595
 70
   192
  0
VERTEX
  5
2ED
330
2EB
100
AcDbEntity
  8
3D-S-BEAM
370
     9
100
AcDbVertex
100
AcDbPolyFaceMeshVertex
 10
18.0
 20
-0.647047609090805
 30
0.0773729011416435
 70
   192
  0
VERTEX
  5
2EE
330
2EB
100
AcDbEntity
  8
3D-S-BEAM
370
     9
100
AcDbVertex
100
AcDbPolyFaceMeshVertex
 10
18.0
 20
-1.250000059604644
 30
0.3271239548921585
 70
   192
  0
VERTEX
  5
2EF
330
2EB
100
AcDbEntity
  8
3D-S-BEAM
370
     9
100
AcDbVertex
100
AcDbPolyFaceMeshVertex
 10
18.0
 20
-1.767766892910003
 30
0.7244205325841903
 70
   192
  0
VERTEX
  5
2F0
330
2EB
100
AcDbEntity
  8
3D-S-BEAM
370
     9
100
AcDbVertex
100
AcDbPolyFaceMeshVertex
 10
18.0
 20
-2.165063560009002
 30
1.242187499999999
 70
   192
  0
VERTEX
  5
2F1
330
2EB
100
AcDbEntity
  8
3D-S-BEAM
370
     9
100
AcDbVertex
100
AcDbPolyFaceMeshVertex
 10
18.0
 20
-2.414814591407775
 30
1.845139861106872
 70
   192
  0
VERTEX
  5
2F2
330
2EB
100
AcDbEntity
  8
3D-S-BEAM
370
     9
100
AcDbVertex
100
AcDbPolyFaceMeshVertex
 10
18.0
 20
-2.500000119209289
 30
2.492187559604644
 70
   192
  0
VERTEX
  5
2F3
330
2EB
100
AcDbEntity
  8
3D-S-BEAM
370
     9
100
AcDbVertex
100
AcDbPolyFaceMeshVertex
 10
18.0
 20
-2.414814591407775
 30
3.139235258102416
 70
   192
  0
VERTEX
  5
2F4
330
2EB
100
AcDbEntity
  8
3D-S-BEAM
370
     9
100
AcDbVertex
100
AcDbPolyFaceMeshVertex
 10
18.0
 20
-2.165063560009002
 30
3.742187619209289
 70
   192
  0
VERTEX
  5
2F5
330
2EB
100
AcDbEntity
  8
3D-S-BEAM
370
     9
100
AcDbVertex
100
AcDbPolyFaceMeshVertex
 10
18.0
 20
-1.767766892910003
 30
4.259954452514647
 70
   192
  0
VERTEX
  5
2F6
330
2EB
100
AcDbEntity
  8
3D-S-BEAM
370
     9
100
AcDbVertex
100
AcDbPolyFaceMeshVertex
 10
18.0
 20
-1.250000059604644
 30
4.657251119613646
 70
   192
  0
VERTEX
  5
2F7
330
2EB
100
AcDbEntity
  8
3D-S-BEAM
370
     9
100
AcDbVertex
100
AcDbPolyFaceMeshVertex
 10
18.0
 20
-0.647047609090805
 30
4.907001972198485
 70
   192
  0
VERTEX
  5
2F8
330
2EB
100
AcDbEntity
  8
3D-S-BEAM
370
     9
100
AcDbVertex
100
AcDbPolyFaceMeshVertex
 10
18.0
 20
-0.0000000000003933
 30
4.992187499999999
 70
   192
  0
VERTEX
  5
2F9
330
2EB
100
AcDbEntity
  8
3D-S-BEAM
370
     9
100
AcDbVertex
100
AcDbPolyFaceMeshVertex
 10
-18.0
 20
-0.0000000000003922
 30
4.992187499999999
 70
   192
  0
VERTEX
  5
2FA
330
2EB
100
AcDbEntity
  8
3D-S-BEAM
370
     9
100
AcDbVertex
100
AcDbPolyFaceMeshVertex
 10
-18.0
 20
-0.647047609090805
 30
4.907001972198485
 70
   192
  0
VERTEX
  5
2FB
330
2EB
100
AcDbEntity
  8
3D-S-BEAM
370
     9
100
AcDbVertex
100
AcDbPolyFaceMeshVertex
 10
-18.0
 20
-1.250000059604644
 30
4.657251119613646
 70
   192
  0
VERTEX
  5
2FC
330
2EB
100
AcDbEntity
  8
3D-S-BEAM
370
     9
100
AcDbVertex
100
AcDbPolyFaceMeshVertex
 10
-18.0
 20
-1.767766892910003
 30
4.259954452514647
 70
   192
  0
VERTEX
  5
2FD
330
2EB
100
AcDbEntity
  8
3D-S-BEAM
370
     9
100
AcDbVertex
100
AcDbPolyFaceMeshVertex
 10
-18.0
 20
-2.165063560009002
 30
3.742187619209289
 70
   192
  0
VERTEX
  5
2FE
330
2EB
100
AcDbEntity
  8
3D-S-BEAM
370
     9
100
AcDbVertex
100
AcDbPolyFaceMeshVertex
 10
-18.0
 20
-2.414814591407775
 30
3.139235258102416
 70
   192
  0
VERTEX
  5
2FF
330
2EB
100
AcDbEntity
  8
3D-S-BEAM
370
     9
100
AcDbVertex
100
AcDbPolyFaceMeshVertex
 10
-18.0
 20
-2.500000119209289
 30
2.492187559604644
 70
   192
  0
VERTEX
  5
300
330
2EB
100
AcDbEntity
  8
3D-S-BEAM
370
     9
100
AcDbVertex
100
AcDbPolyFaceMeshVertex
 10
-18.0
 20
-2.414814591407775
 30
1.845139861106872
 70
   192
  0
VERTEX
  5
301
330
2EB
100
AcDbEntity
  8
3D-S-BEAM
370
     9
100
AcDbVertex
100
AcDbPolyFaceMeshVertex
 10
-18.0
 20
-2.165063560009002
 30
1.242187499999999
 70
   192
  0
VERTEX
  5
302
330
2EB
100
AcDbEntity
  8
3D-S-BEAM
370
     9
100
AcDbVertex
100
AcDbPolyFaceMeshVertex
 10
-18.0
 20
-1.767766892910003
 30
0.7244205325841903
 70
   192
  0
VERTEX
  5
303
330
2EB
100
AcDbEntity
  8
3D-S-BEAM
370
     9
100
AcDbVertex
100
AcDbPolyFaceMeshVertex
 10
-18.0
 20
-1.250000059604644
 30
0.3271239548921585
 70
   192
  0
VERTEX
  5
304
330
2EB
100
AcDbEntity
  8
3D-S-BEAM
370
     9
100
AcDbVertex
100
AcDbPolyFaceMeshVertex
 10
-18.0
 20
-0.647047609090805
 30
0.0773729011416435
 70
   192
  0
VERTEX
  5
305
330
2EB
100
AcDbEntity
  8
3D-S-BEAM
370
     9
100
AcDbVertex
100
AcDbPolyFaceMeshVertex
 10
-18.0
 20
-0.0000000000003628
 30
-0.0078125323634595
 70
   192
  0
VERTEX
  5
306
330
2EB
100
AcDbEntity
  8
3D-S-BEAM
370
     9
100
AcDbFaceRecord
 10
0.0
 20
0.0
 30
0.0
 70
   128
 71
    14
 72
   -15
 73
    12
 74
    13
  0
VERTEX
  5
307
330
2EB
100
AcDbEntity
  8
3D-S-BEAM
370
     9
100
AcDbFaceRecord
 10
0.0
 20
0.0
 30
0.0
 70
   128
 71
    15
 72
   -16
 73
    11
 74
   -12
  0
VERTEX
  5
308
330
2EB
100
AcDbEntity
  8
3D-S-BEAM
370
     9
100
AcDbFaceRecord
 10
0.0
 20
0.0
 30
0.0
 70
   128
 71
    17
 72
   -18
 73
     9
 74
   -10
  0
VERTEX
  5
309
330
2EB
100
AcDbEntity
  8
3D-S-BEAM
370
     9
100
AcDbFaceRecord
 10
0.0
 20
0.0
 30
0.0
 70
   128
 71
    16
 72
   -17
 73
    10
 74
   -11
  0
VERTEX
  5
30A
330
2EB
100
AcDbEntity
  8
3D-S-BEAM
370
     9
100
AcDbFaceRecord
 10
0.0
 20
0.0
 30
0.0
 70
   128
 71
    18
 72
   -19
 73
     8
 74
    -9
  0
VERTEX
  5
30B
330
2EB
100
AcDbEntity
  8
3D-S-BEAM
370
     9
100
AcDbFaceRecord
 10
0.0
 20
0.0
 30
0.0
 70
   128
 71
     7
 72
    -8
 73
    19
 74
   -20
  0
VERTEX
  5
30C
330
2EB
100
AcDbEntity
  8
3D-S-BEAM
370
     9
100
AcDbFaceRecord
 10
0.0
 20
0.0
 30
0.0
 70
   128
 71
    21
 72
   -22
 73
     5
 74
    -6
  0
VERTEX
  5
30D
330
2EB
100
AcDbEntity
  8
3D-S-BEAM
370
     9
100
AcDbFaceRecord
 10
0.0
 20
0.0
 30
0.0
 70
   128
 71
    22
 72
   -23
 73
     4
 74
    -5
  0
VERTEX
  5
30E
330
2EB
100
AcDbEntity
  8
3D-S-BEAM
370
     9
100
AcDbFaceRecord
 10
0.0
 20
0.0
 30
0.0
 70
   128
 71
    24
 72
   -25
 73
     2
 74
    -3
  0
VERTEX
  5
30F
330
2EB
100
AcDbEntity
  8
3D-S-BEAM
370
     9
100
AcDbFaceRecord
 10
0.0
 20
0.0
 30
0.0
 70
   128
 71
    23
 72
   -24
 73
     3
 74
    -4
  0
VERTEX
  5
310
330
2EB
100
AcDbEntity
  8
3D-S-BEAM
370
     9
100
AcDbFaceRecord
 10
0.0
 20
0.0
 30
0.0
 70
   128
 71
    25
 72
    26
 73
     1
 74
    -2
  0
VERTEX
  5
311
330
2EB
100
AcDbEntity
  8
3D-S-BEAM
370
     9
100
AcDbFaceRecord
 10
0.0
 20
0.0
 30
0.0
 70
   128
 71
    20
 72
   -21
 73
     6
 74
    -7
  0
SEQEND
  5
312
330
2EB
100
AcDbEntity
  8
3D-S-BEAM
370
     9
  0
POLYLINE
  5
313
330
29C
100
AcDbEntity
  8
3D-S-BEAM
370
     9
100
AcDbPolyFaceMesh
 66
     1
 10
0.0
 20
0.0
 30
0.0
 70
    64
 71
    26
 72
    12
1001
REVIT
1002
{
1070
     3
1000
148189
1002
}
  0
VERTEX
  5
314
330
313
100
AcDbEntity
  8
3D-S-BEAM
370
     9
100
AcDbVertex
100
AcDbPolyFaceMeshVertex
 10
18.0
 20
-0.0000000000003771
 30
4.992187499999999
 70
   192
  0
VERTEX
  5
315
330
313
100
AcDbEntity
  8
3D-S-BEAM
370
     9
100
AcDbVertex
100
AcDbPolyFaceMeshVertex
 10
18.0
 20
0.647047609090805
 30
4.907001972198485
 70
   192
  0
VERTEX
  5
316
330
313
100
AcDbEntity
  8
3D-S-BEAM
370
     9
100
AcDbVertex
100
AcDbPolyFaceMeshVertex
 10
18.0
 20
1.250000059604644
 30
4.657251119613646
 70
   192
  0
VERTEX
  5
317
330
313
100
AcDbEntity
  8
3D-S-BEAM
370
     9
100
AcDbVertex
100
AcDbPolyFaceMeshVertex
 10
18.0
 20
1.767766892910003
 30
4.259954452514647
 70
   192
  0
VERTEX
  5
318
330
313
100
AcDbEntity
  8
3D-S-BEAM
370
     9
100
AcDbVertex
100
AcDbPolyFaceMeshVertex
 10
18.0
 20
2.165063560009002
 30
3.742187619209289
 70
   192
  0
VERTEX
  5
319
330
313
100
AcDbEntity
  8
3D-S-BEAM
370
     9
100
AcDbVertex
100
AcDbPolyFaceMeshVertex
 10
18.0
 20
2.414814591407775
 30
3.139235258102416
 70
   192
  0
VERTEX
  5
31A
330
313
100
AcDbEntity
  8
3D-S-BEAM
370
     9
100
AcDbVertex
100
AcDbPolyFaceMeshVertex
 10
18.0
 20
2.500000119209289
 30
2.492187559604644
 70
   192
  0
VERTEX
  5
31B
330
313
100
AcDbEntity
  8
3D-S-BEAM
370
     9
100
AcDbVertex
100
AcDbPolyFaceMeshVertex
 10
18.0
 20
2.414814591407775
 30
1.845139861106872
 70
   192
  0
VERTEX
  5
31C
330
313
100
AcDbEntity
  8
3D-S-BEAM
370
     9
100
AcDbVertex
100
AcDbPolyFaceMeshVertex
 10
18.0
 20
2.165063560009002
 30
1.242187499999999
 70
   192
  0
VERTEX
  5
31D
330
313
100
AcDbEntity
  8
3D-S-BEAM
370
     9
100
AcDbVertex
100
AcDbPolyFaceMeshVertex
 10
18.0
 20
1.767766892910003
 30
0.7244205325841903
 70
   192
  0
VERTEX
  5
31E
330
313
100
AcDbEntity
  8
3D-S-BEAM
370
     9
100
AcDbVertex
100
AcDbPolyFaceMeshVertex
 10
18.0
 20
1.250000059604644
 30
0.3271239548921585
 70
   192
  0
VERTEX
  5
31F
330
313
100
AcDbEntity
  8
3D-S-BEAM
370
     9
100
AcDbVertex
100
AcDbPolyFaceMeshVertex
 10
18.0
 20
0.647047609090805
 30
0.0773729011416435
 70
   192
  0
VERTEX
  5
320
330
313
100
AcDbEntity
  8
3D-S-BEAM
370
     9
100
AcDbVertex
100
AcDbPolyFaceMeshVertex
 10
18.0
 20
-0.0000000000003473
 30
-0.0078125323634595
 70
   192
  0
VERTEX
  5
321
330
313
100
AcDbEntity
  8
3D-S-BEAM
370
     9
100
AcDbVertex
100
AcDbPolyFaceMeshVertex
 10
-18.0
 20
-0.0000000000003473
 30
-0.0078125323634595
 70
   192
  0
VERTEX
  5
322
330
313
100
AcDbEntity
  8
3D-S-BEAM
370
     9
100
AcDbVertex
100
AcDbPolyFaceMeshVertex
 10
-18.0
 20
0.647047609090805
 30
0.0773729011416435
 70
   192
  0
VERTEX
  5
323
330
313
100
AcDbEntity
  8
3D-S-BEAM
370
     9
100
AcDbVertex
100
AcDbPolyFaceMeshVertex
 10
-18.0
 20
1.250000059604644
 30
0.3271239548921585
 70
   192
  0
VERTEX
  5
324
330
313
100
AcDbEntity
  8
3D-S-BEAM
370
     9
100
AcDbVertex
100
AcDbPolyFaceMeshVertex
 10
-18.0
 20
1.767766892910003
 30
0.7244205325841903
 70
   192
  0
VERTEX
  5
325
330
313
100
AcDbEntity
  8
3D-S-BEAM
370
     9
100
AcDbVertex
100
AcDbPolyFaceMeshVertex
 10
-18.0
 20
2.165063560009002
 30
1.242187499999999
 70
   192
  0
VERTEX
  5
326
330
313
100
AcDbEntity
  8
3D-S-BEAM
370
     9
100
AcDbVertex
100
AcDbPolyFaceMeshVertex
 10
-18.0
 20
2.414814591407775
 30
1.845139861106872
 70
   192
  0
VERTEX
  5
327
330
313
100
AcDbEntity
  8
3D-S-BEAM
370
     9
100
AcDbVertex
100
AcDbPolyFaceMeshVertex
 10
-18.0
 20
2.500000119209289
 30
2.492187559604644
 70
   192
  0
VERTEX
  5
328
330
313
100
AcDbEntity
  8
3D-S-BEAM
370
     9
100
AcDbVertex
100
AcDbPolyFaceMeshVertex
 10
-18.0
 20
2.414814591407775
 30
3.139235258102416
 70
   192
  0
VERTEX
  5
329
330
313
100
AcDbEntity
  8
3D-S-BEAM
370
     9
100
AcDbVertex
100
AcDbPolyFaceMeshVertex
 10
-18.0
 20
2.165063560009002
 30
3.742187619209289
 70
   192
  0
VERTEX
  5
32A
330
313
100
AcDbEntity
  8
3D-S-BEAM
370
     9
100
AcDbVertex
100
AcDbPolyFaceMeshVertex
 10
-18.0
 20
1.767766892910003
 30
4.259954452514647
 70
   192
  0
VERTEX
  5
32B
330
313
100
AcDbEntity
  8
3D-S-BEAM
370
     9
100
AcDbVertex
100
AcDbPolyFaceMeshVertex
 10
-18.0
 20
1.250000059604644
 30
4.657251119613646
 70
   192
  0
VERTEX
  5
32C
330
313
100
AcDbEntity
  8
3D-S-BEAM
370
     9
100
AcDbVertex
100
AcDbPolyFaceMeshVertex
 10
-18.0
 20
0.647047609090805
 30
4.907001972198485
 70
   192
  0
VERTEX
  5
32D
330
313
100
AcDbEntity
  8
3D-S-BEAM
370
     9
100
AcDbVertex
100
AcDbPolyFaceMeshVertex
 10
-18.0
 20
-0.0000000000003771
 30
4.992187499999999
 70
   192
  0
VERTEX
  5
32E
330
313
100
AcDbEntity
  8
3D-S-BEAM
370
     9
100
AcDbFaceRecord
 10
0.0
 20
0.0
 30
0.0
 70
   128
 71
    14
 72
   -15
 73
    12
 74
    13
  0
VERTEX
  5
32F
330
313
100
AcDbEntity
  8
3D-S-BEAM
370
     9
100
AcDbFaceRecord
 10
0.0
 20
0.0
 30
0.0
 70
   128
 71
    15
 72
   -16
 73
    11
 74
   -12
  0
VERTEX
  5
330
330
313
100
AcDbEntity
  8
3D-S-BEAM
370
     9
100
AcDbFaceRecord
 10
0.0
 20
0.0
 30
0.0
 70
   128
 71
    17
 72
   -18
 73
     9
 74
   -10
  0
VERTEX
  5
331
330
313
100
AcDbEntity
  8
3D-S-BEAM
370
     9
100
AcDbFaceRecord
 10
0.0
 20
0.0
 30
0.0
 70
   128
 71
    16
 72
   -17
 73
    10
 74
   -11
  0
VERTEX
  5
332
330
313
100
AcDbEntity
  8
3D-S-BEAM
370
     9
100
AcDbFaceRecord
 10
0.0
 20
0.0
 30
0.0
 70
   128
 71
    18
 72
   -19
 73
     8
 74
    -9
  0
VERTEX
  5
333
330
313
100
AcDbEntity
  8
3D-S-BEAM
370
     9
100
AcDbFaceRecord
 10
0.0
 20
0.0
 30
0.0
 70
   128
 71
     7
 72
    -8
 73
    19
 74
   -20
  0
VERTEX
  5
334
330
313
100
AcDbEntity
  8
3D-S-BEAM
370
     9
100
AcDbFaceRecord
 10
0.0
 20
0.0
 30
0.0
 70
   128
 71
    21
 72
   -22
 73
     5
 74
    -6
  0
VERTEX
  5
335
330
313
100
AcDbEntity
  8
3D-S-BEAM
370
     9
100
AcDbFaceRecord
 10
0.0
 20
0.0
 30
0.0
 70
   128
 71
    22
 72
   -23
 73
     4
 74
    -5
  0
VERTEX
  5
336
330
313
100
AcDbEntity
  8
3D-S-BEAM
370
     9
100
AcDbFaceRecord
 10
0.0
 20
0.0
 30
0.0
 70
   128
 71
    24
 72
   -25
 73
     2
 74
    -3
  0
VERTEX
  5
337
330
313
100
AcDbEntity
  8
3D-S-BEAM
370
     9
100
AcDbFaceRecord
 10
0.0
 20
0.0
 30
0.0
 70
   128
 71
    23
 72
   -24
 73
     3
 74
    -4
  0
VERTEX
  5
338
330
313
100
AcDbEntity
  8
3D-S-BEAM
370
     9
100
AcDbFaceRecord
 10
0.0
 20
0.0
 30
0.0
 70
   128
 71
    25
 72
    26
 73
     1
 74
    -2
  0
VERTEX
  5
339
330
313
100
AcDbEntity
  8
3D-S-BEAM
370
     9
100
AcDbFaceRecord
 10
0.0
 20
0.0
 30
0.0
 70
   128
 71
    20
 72
   -21
 73
     6
 74
    -7
  0
SEQEND
  5
33A
330
313
100
AcDbEntity
  8
3D-S-BEAM
370
     9
  0
ENDBLK
  5
33C
330
29C
100
AcDbEntity
  8
0
100
AcDbBlockEnd
  0
ENDSEC
  0
SECTION
  2
ENTITIES
  0
INSERT
  5
1E3
330
6C
100
AcDbEntity
  8
3D-S-COLS-ANLY
370
     9
100
AcDbBlockReference
  2
Outrigger-Kawneer-Curved - 5_-160363-Preview
 10
-15.16103165118416
 20
0.0
 30
-0.7812500000005188
1001
REVIT
1002
{
1070
     1
1000
9383
1002
}
1002
{
1070
     5
1000
160363
1002
}
1002
{
1070
     4
1000
97641
1002
}
1002
{
1070
     2
1000
-2009030
1002
}
  0
INSERT
  5
1E4
330
6C
100
AcDbEntity
  8
3D-S-COLS-ANLY
370
     9
100
AcDbBlockReference
  2
Outrigger-Kawneer-Curved - 5_-160363-Preview
 10
21.77646834880457
 20
0.0
 30
-0.7812500000005188
1001
REVIT
1002
{
1070
     1
1000
17865
1002
}
1002
{
1070
     5
1000
160363
1002
}
1002
{
1070
     4
1000
97641
1002
}
1002
{
1070
     2
1000
-2009030
1002
}
  0
INSERT
  5
1E5
330
6C
100
AcDbEntity
  8
3D-S-COLS-ANLY
370
     9
100
AcDbBlockReference
  2
Outrigger-Kawneer-Curved - 5_-160363-Preview
 10
2.83896834881594
 20
0.0
 30
-0.7812500000005188
1001
REVIT
1002
{
1070
     1
1000
20682
1002
}
1002
{
1070
     5
1000
160363
1002
}
1002
{
1070
     4
1000
97641
1002
}
1002
{
1070
     2
1000
-2009030
1002
}
  0
INSERT
  5
1E6
330
6C
100
AcDbEntity
  8
3D-S-COLS-ANLY
370
     9
100
AcDbBlockReference
  2
Outrigger-Kawneer-Curved - 5_-160363-Preview
 10
2.83896834881609
 20
0.0
 30
-0.7812500000005188
1001
REVIT
1002
{
1070
     1
1000
20692
1002
}
1002
{
1070
     5
1000
160363
1002
}
1002
{
1070
     4
1000
97641
1002
}
1002
{
1070
     2
1000
-2009030
1002
}
  0
INSERT
  5
1E7
330
6C
100
AcDbEntity
  8
3D-S-COLS-ANLY
370
     9
100
AcDbBlockReference
  2
Outrigger-Kawneer-Curved - 5_-160363-Preview
 10
2.83896834881609
 20
0.0
 30
-0.7812500000005188
1001
REVIT
1002
{
1070
     1
1000
20702
1002
}
1002
{
1070
     5
1000
160363
1002
}
1002
{
1070
     4
1000
97641
1002
}
1002
{
1070
     2
1000
-2009030
1002
}
  0
INSERT
  5
1E8
330
6C
100
AcDbEntity
  8
3D-S-COLS-ANLY
370
     9
100
AcDbBlockReference
  2
Outrigger-Kawneer-Curved - 5_-160363-Preview
 10
2.838968348816122
 20
0.0
 30
-0.7812500000005188
1001
REVIT
1002
{
1070
     1
1000
20712
1002
}
1002
{
1070
     5
1000
160363
1002
}
1002
{
1070
     4
1000
97641
1002
}
1002
{
1070
     2
1000
-2009030
1002
}
  0
INSERT
  5
1E9
330
6C
100
AcDbEntity
  8
3D-S-COLS-ANLY
370
     9
100
AcDbBlockReference
  2
Outrigger-Kawneer-Curved - 5_-160363-Preview
 10
2.838968348816202
 20
0.0
 30
-0.7812500000005188
1001
REVIT
1002
{
1070
     1
1000
20722
1002
}
1002
{
1070
     5
1000
160363
1002
}
1002
{
1070
     4
1000
97641
1002
}
1002
{
1070
     2
1000
-2009030
1002
}
  0
INSERT
  5
1EA
330
6C
100
AcDbEntity
  8
3D-S-COLS-ANLY
370
     9
100
AcDbBlockReference
  2
Outrigger-Kawneer-Curved - 5_-160363-Preview
 10
2.838968348816282
 20
0.0
 30
-0.7812500000005188
1001
REVIT
1002
{
1070
     1
1000
20734
1002
}
1002
{
1070
     5
1000
160363
1002
}
1002
{
1070
     4
1000
97641
1002
}
1002
{
1070
     2
1000
-2009030
1002
}
  0
INSERT
  5
1EB
330
6C
100
AcDbEntity
  8
3D-S-COLS-ANLY
370
     9
100
AcDbBlockReference
  2
Outrigger-Kawneer-Curved - 5_-160363-Preview
 10
2.838968348816329
 20
0.0
 30
-0.7812500000005188
1001
REVIT
1002
{
1070
     1
1000
20744
1002
}
1002
{
1070
     5
1000
160363
1002
}
1002
{
1070
     4
1000
97641
1002
}
1002
{
1070
     2
1000
-2009030
1002
}
  0
INSERT
  5
1EC
330
6C
100
AcDbEntity
  8
3D-S-COLS-ANLY
370
     9
100
AcDbBlockReference
  2
Outrigger-Kawneer-Curved - 5_-160363-Preview
 10
2.838968348816345
 20
0.0
 30
-0.7812500000005188
1001
REVIT
1002
{
1070
     1
1000
20752
1002
}
1002
{
1070
     5
1000
160363
1002
}
1002
{
1070
     4
1000
97641
1002
}
1002
{
1070
     2
1000
-2009030
1002
}
  0
INSERT
  5
1ED
330
6C
100
AcDbEntity
  8
3D-S-COLS-ANLY
370
     9
100
AcDbBlockReference
  2
Outrigger-Kawneer-Curved - 5_-160363-Preview
 10
2.838968348816409
 20
0.0
 30
-0.7812500000005188
1001
REVIT
1002
{
1070
     1
1000
20762
1002
}
1002
{
1070
     5
1000
160363
1002
}
1002
{
1070
     4
1000
97641
1002
}
1002
{
1070
     2
1000
-2009030
1002
}
  0
INSERT
  5
1EE
330
6C
100
AcDbEntity
  8
3D-S-COLS-ANLY
370
     9
100
AcDbBlockReference
  2
Outrigger-Kawneer-Curved - 5_-160363-Preview
 10
2.838968348816463
 20
0.0
 30
-0.7812500000005188
1001
REVIT
1002
{
1070
     1
1000
20772
1002
}
1002
{
1070
     5
1000
160363
1002
}
1002
{
1070
     4
1000
97641
1002
}
1002
{
1070
     2
1000
-2009030
1002
}
  0
INSERT
  5
1EF
330
6C
100
AcDbEntity
  8
3D-S-COLS-ANLY
370
     9
100
AcDbBlockReference
  2
Outrigger-Kawneer-Curved - 5_-160363-Preview
 10
2.838968348816468
 20
0.0
 30
-0.7812500000005188
1001
REVIT
1002
{
1070
     1
1000
20782
1002
}
1002
{
1070
     5
1000
160363
1002
}
1002
{
1070
     4
1000
97641
1002
}
1002
{
1070
     2
1000
-2009030
1002
}
  0
INSERT
  5
1F0
330
6C
100
AcDbEntity
  8
3D-S-COLS-ANLY
370
     9
100
AcDbBlockReference
  2
Outrigger-Kawneer-Curved - 5_-160363-Preview
 10
2.8389683488165
 20
0.0
 30
-0.7812500000005188
1001
REVIT
1002
{
1070
     1
1000
20792
1002
}
1002
{
1070
     5
1000
160363
1002
}
1002
{
1070
     4
1000
97641
1002
}
1002
{
1070
     2
1000
-2009030
1002
}
  0
INSERT
  5
1F1
330
6C
100
AcDbEntity
  8
3D-S-COLS-ANLY
370
     9
100
AcDbBlockReference
  2
Outrigger-Kawneer-Curved - 5_-160363-Preview
 10
2.838968348816519
 20
0.0
 30
-0.7812500000005188
1001
REVIT
1002
{
1070
     1
1000
20804
1002
}
1002
{
1070
     5
1000
160363
1002
}
1002
{
1070
     4
1000
97641
1002
}
1002
{
1070
     2
1000
-2009030
1002
}
  0
INSERT
  5
1F2
330
6C
100
AcDbEntity
  8
3D-S-COLS-ANLY
370
     9
100
AcDbBlockReference
  2
Outrigger-Kawneer-Curved - 5_-160363-Preview
 10
2.83896834881654
 20
0.0
 30
-0.7812500000005188
1001
REVIT
1002
{
1070
     1
1000
20814
1002
}
1002
{
1070
     5
1000
160363
1002
}
1002
{
1070
     4
1000
97641
1002
}
1002
{
1070
     2
1000
-2009030
1002
}
  0
INSERT
  5
1F3
330
6C
100
AcDbEntity
  8
3D-S-COLS-ANLY
370
     9
100
AcDbBlockReference
  2
Outrigger-Kawneer-Curved - 5_-160363-Preview
 10
2.838968348816556
 20
0.0
 30
-0.7812500000005188
1001
REVIT
1002
{
1070
     1
1000
20824
1002
}
1002
{
1070
     5
1000
160363
1002
}
1002
{
1070
     4
1000
97641
1002
}
1002
{
1070
     2
1000
-2009030
1002
}
  0
INSERT
  5
1F4
330
6C
100
AcDbEntity
  8
3D-S-COLS-ANLY
370
     9
100
AcDbBlockReference
  2
Outrigger-Kawneer-Curved - 5_-160363-Preview
 10
2.838968348816561
 20
0.0
 30
-0.7812500000005188
1001
REVIT
1002
{
1070
     1
1000
20834
1002
}
1002
{
1070
     5
1000
160363
1002
}
1002
{
1070
     4
1000
97641
1002
}
1002
{
1070
     2
1000
-2009030
1002
}
  0
INSERT
  5
1F5
330
6C
100
AcDbEntity
  8
3D-S-COLS-ANLY
370
     9
100
AcDbBlockReference
  2
Outrigger-Kawneer-Curved - 5_-160363-Preview
 10
2.83896834881658
 20
0.0
 30
-0.7812500000005188
1001
REVIT
1002
{
1070
     1
1000
20844
1002
}
1002
{
1070
     5
1000
160363
1002
}
1002
{
1070
     4
1000
97641
1002
}
1002
{
1070
     2
1000
-2009030
1002
}
  0
INSERT
  5
1F6
330
6C
100
AcDbEntity
  8
3D-S-COLS-ANLY
370
     9
100
AcDbBlockReference
  2
Outrigger-Kawneer-Curved - 5_-160363-Preview
 10
2.83896834881666
 20
0.0
 30
-0.7812500000005188
1001
REVIT
1002
{
1070
     1
1000
20854
1002
}
1002
{
1070
     5
1000
160363
1002
}
1002
{
1070
     4
1000
97641
1002
}
1002
{
1070
     2
1000
-2009030
1002
}
  0
INSERT
  5
1F7
330
6C
100
AcDbEntity
  8
3D-S-COLS-ANLY
370
     9
100
AcDbBlockReference
  2
Outrigger-Kawneer-Curved - 5_-160363-Preview
 10
2.838968348816671
 20
0.0
 30
-0.7812500000005188
1001
REVIT
1002
{
1070
     1
1000
20864
1002
}
1002
{
1070
     5
1000
160363
1002
}
1002
{
1070
     4
1000
97641
1002
}
1002
{
1070
     2
1000
-2009030
1002
}
  0
INSERT
  5
1F8
330
6C
100
AcDbEntity
  8
3D-S-COLS-ANLY
370
     9
100
AcDbBlockReference
  2
Outrigger-Kawneer-Curved - 5_-160363-Preview
 10
2.838968348816673
 20
0.0
 30
-0.7812500000005188
1001
REVIT
1002
{
1070
     1
1000
20874
1002
}
1002
{
1070
     5
1000
160363
1002
}
1002
{
1070
     4
1000
97641
1002
}
1002
{
1070
     2
1000
-2009030
1002
}
  0
INSERT
  5
1F9
330
6C
100
AcDbEntity
  8
3D-S-COLS-ANLY
370
     9
100
AcDbBlockReference
  2
Outrigger-Kawneer-Curved - 5_-160363-Preview
 10
2.838968348816679
 20
0.0
 30
-0.7812500000005188
1001
REVIT
1002
{
1070
     1
1000
28566
1002
}
1002
{
1070
     5
1000
160363
1002
}
1002
{
1070
     4
1000
97641
1002
}
1002
{
1070
     2
1000
-2009030
1002
}
  0
INSERT
  5
29A
330
6C
100
AcDbEntity
  8
3D-GENM
370
     9
100
AcDbBlockReference
  2
Blade-Kawneer-Circular - Versoleil-170207-Preview
 10
3.307718348803556
 20
0.0
 30
2.945312499844606
1001
REVIT
1002
{
1070
     1
1000
104998
1002
}
1002
{
1070
     5
1000
145781
1002
}
1002
{
1070
     4
1000
97641
1002
}
1002
{
1070
     2
1000
-2000151
1002
}
  0
INSERT
  5
33D
330
6C
100
AcDbEntity
  8
3D-S-BEAM
370
     9
100
AcDbBlockReference
  2
Fascia-Kawneer-Circular - Versoleil-171120-Preview
 10
3.307718348802378
 20
-4.37499999991124
 30
24.23437499968844
1001
REVIT
1002
{
1070
     1
1000
107080
1002
}
1002
{
1070
     5
1000
148195
1002
}
1002
{
1070
     4
1000
97641
1002
}
1002
{
1070
     2
1000
-2001354
1002
}
  0
INSERT
  5
33E
330
6C
100
AcDbEntity
  8
3D-GENM
370
     9
100
AcDbBlockReference
  2
Blade-Kawneer-Circular - Versoleil-170207-Preview
 10
3.307718348803556
 20
-0.1249999999986205
 30
7.445312499845172
1001
REVIT
1002
{
1070
     1
1000
161898
1002
}
1002
{
1070
     5
1000
145781
1002
}
1002
{
1070
     4
1000
97641
1002
}
1002
{
1070
     2
1000
-2000151
1002
}
  0
INSERT
  5
33F
330
6C
100
AcDbEntity
  8
3D-GENM
370
     9
100
AcDbBlockReference
  2
Blade-Kawneer-Circular - Versoleil-170207-Preview
 10
3.307718348803556
 20
-0.5624999999986137
 30
11.94531249984516
1001
REVIT
1002
{
1070
     1
1000
161906
1002
}
1002
{
1070
     5
1000
145781
1002
}
1002
{
1070
     4
1000
97641
1002
}
1002
{
1070
     2
1000
-2000151
1002
}
  0
INSERT
  5
340
330
6C
100
AcDbEntity
  8
3D-GENM
370
     9
100
AcDbBlockReference
  2
Blade-Kawneer-Circular - Versoleil-170207-Preview
 10
3.307718348803556
 20
-1.249999999998607
 30
16.44531249984516
1001
REVIT
1002
{
1070
     1
1000
161916
1002
}
1002
{
1070
     5
1000
145781
1002
}
1002
{
1070
     4
1000
97641
1002
}
1002
{
1070
     2
1000
-2000151
1002
}
  0
INSERT
  5
341
330
6C
100
AcDbEntity
  8
3D-GENM
370
     9
100
AcDbBlockReference
  2
Blade-Kawneer-Circular - Versoleil-170207-Preview
 10
3.307718348803556
 20
-2.187499999998598
 30
20.94531249984517
1001
REVIT
1002
{
1070
     1
1000
161932
1002
}
1002
{
1070
     5
1000
145781
1002
}
1002
{
1070
     4
1000
97641
1002
}
1002
{
1070
     2
1000
-2000151
1002
}
  0
INSERT
  5
342
330
6C
100
AcDbEntity
  8
3D-GENM
370
     9
100
AcDbBlockReference
  2
Blade-Kawneer-Circular - Versoleil-170207-Preview
 10
3.307718348803556
 20
-3.062499999998583
 30
25.44531249984518
1001
REVIT
1002
{
1070
     1
1000
161942
1002
}
1002
{
1070
     5
1000
145781
1002
}
1002
{
1070
     4
1000
97641
1002
}
1002
{
1070
     2
1000
-2000151
1002
}
  0
ENDSEC
  0
SECTION
  2
OBJECTS
  0
DICTIONARY
  5
C
330
0
100
AcDbDictionary
281
     1
  3
ACAD_BACKGROUND
350
356
  3
ACAD_CIP_PREVIOUS_PRODUCT_INFO
350
35A
  3
ACAD_COLOR
350
63
  3
ACAD_GROUP
350
D
  3
ACAD_IMAGE_VARS
350
75
  3
ACAD_LAYOUT
350
62
  3
ACAD_MATERIAL
350
10
  3
ACAD_MLEADERSTYLE
350
66
  3
ACAD_MLINESTYLE
350
5F
  3
ACAD_PLOTSETTINGS
350
61
  3
ACAD_PLOTSTYLENAME
350
E
  3
ACAD_SCALELIST
350
42
  3
ACAD_TABLESTYLE
350
64
  3
ACAD_VISUALSTYLE
350
29
  3
ACDB_RECOMPOSE_DATA
350
3BD
  3
AcDbVariableDictionary
350
34E
  3
DWGPROPS
350
3BE
  3
REVIT_DICTIONARY
350
348
  0
DICTIONARY
  5
356
102
{ACAD_REACTORS
330
C
102
}
330
C
100
AcDbDictionary
281
     1
  0
XRECORD
  5
35A
102
{ACAD_REACTORS
330
C
102
}
330
C
100
AcDbXrecord
280
     1
300
ACD
300
2012
300
BDSADV_F_S
  0
DICTIONARY
  5
63
102
{ACAD_REACTORS
330
C
102
}
330
C
100
AcDbDictionary
281
     1
  0
DICTIONARY
  5
D
102
{ACAD_REACTORS
330
C
102
}
330
C
100
AcDbDictionary
281
     1
  0
RASTERVARIABLES
  5
75
102
{ACAD_REACTORS
330
C
102
}
330
C
100
AcDbRasterVariables
 90
        0
 70
     0
 71
     1
 72
     5
  0
DICTIONARY
  5
62
102
{ACAD_REACTORS
330
C
102
}
330
C
100
AcDbDictionary
281
     1
  3
Layout1
350
6B
  3
Layout2
350
73
  3
Model
350
6F
  0
DICTIONARY
  5
10
102
{ACAD_REACTORS
330
C
102
}
330
C
100
AcDbDictionary
281
     1
  3
ByBlock
350
19
  3
ByLayer
350
11
  3
Global
350
21
  3
RevitMaterialDefinition97641
350
345
  0
DICTIONARY
  5
66
102
{ACAD_REACTORS
330
C
102
}
330
C
100
AcDbDictionary
281
     1
  3
Standard
350
67
  0
DICTIONARY
  5
5F
102
{ACAD_REACTORS
330
C
102
}
330
C
100
AcDbDictionary
281
     1
  3
Standard
350
60
  0
DICTIONARY
  5
61
102
{ACAD_REACTORS
330
C
102
}
330
C
100
AcDbDictionary
281
     1
  0
ACDBDICTIONARYWDFLT
  5
E
102
{ACAD_REACTORS
330
C
102
}
330
C
100
AcDbDictionary
281
     1
  3
Normal
350
F
100
AcDbDictionaryWithDefault
340
F
  0
DICTIONARY
  5
42
102
{ACAD_REACTORS
330
C
102
}
330
C
100
AcDbDictionary
281
     1
  3
A0
350
43
  3
A1
350
44
  3
A2
350
45
  3
A3
350
46
  3
A4
350
47
  3
A5
350
48
  3
A6
350
49
  3
A7
350
4A
  3
A8
350
4B
  3
A9
350
4C
  3
B0
350
4D
  3
B1
350
4E
  3
B2
350
4F
  3
B3
350
50
  3
B4
350
51
  3
B5
350
52
  3
B6
350
53
  0
DICTIONARY
  5
64
102
{ACAD_REACTORS
330
C
102
}
330
C
100
AcDbDictionary
281
     1
  3
Standard
350
65
  0
DICTIONARY
  5
29
102
{ACAD_REACTORS
330
C
102
}
330
C
100
AcDbDictionary
281
     1
  3
2dWireframe
350
2F
  3
Basic
350
2E
  3
Brighten
350
35
  3
ColorChange
350
39
  3
Conceptual
350
32
  3
Dim
350
34
  3
EdgeColorOff
350
41
  3
Facepattern
350
38
  3
Flat
350
2A
  3
FlatWithEdges
350
2B
  3
Gouraud
350
2C
  3
GouraudWithEdges
350
2D
  3
Hidden
350
31
  3
JitterOff
350
3F
  3
Linepattern
350
37
  3
OverhangOff
350
40
  3
Realistic
350
33
  3
Shaded
350
3E
  3
Shaded with edges
350
3D
  3
Shades of Gray
350
3A
  3
Sketchy
350
3B
  3
Thicken
350
36
  3
Wireframe
350
30
  3
X-Ray
350
3C
  0
XRECORD
  5
3BD
102
{ACAD_REACTORS
330
C
102
}
330
C
100
AcDbXrecord
280
     1
 90
        1
330
65
  0
DICTIONARY
  5
34E
102
{ACAD_REACTORS
330
C
102
}
330
C
100
AcDbDictionary
281
     1
  3
CANNOSCALE
350
351
  3
CMLEADERSTYLE
350
350
  3
CTABLESTYLE
350
34F
  3
DIMASSOC
350
3B5
  3
HIDETEXT
350
3B4
  3
INDEXCTL
350
3B3
  3
LATITUDE
350
3B7
  3
LAYEREVAL
350
3B0
  3
LAYERNOTIFY
350
3B1
  3
LIGHTINGUNITS
350
3AF
  3
LONGITUDE
350
3B8
  3
MSLTSCALE
350
3AE
  3
SOLIDHIST
350
3B6
  3
SORTENTS
350
3B2
  3
TIMEZONE
350
3B9
  3
XCLIPFRAME
350
3BA
  0
XRECORD
  5
3BE
102
{ACAD_REACTORS
330
C
102
}
330
C
100
AcDbXrecord
280
     1
  1
DWGPROPS COOKIE
  2

  3

  4

  6

  7

  8
omarr
  9

300
=
301
=
302
=
303
=
304
=
305
=
306
=
307
=
308
=
309
=
 40
0.000416875
 41
2456030.384901979
 42
2456030.385663531
  1

 90
        0
  0
DICTIONARY
  5
348
102
{ACAD_REACTORS
330
C
102
}
330
C
100
AcDbDictionary
281
     1
  3
DRAWING_TOOL
350
34C
  3
REVIT_CATEGORY_MAPPING
350
34A
  3
REVIT_SUB_CATEGORY_MAPPING
350
34B
  3
REVIT_TYPE_MAPPING
350
349
  0
LAYOUT
  5
6B
102
{ACAD_XDICTIONARY
360
3F4
102
}
102
{ACAD_REACTORS
330
62
102
}
330
62
100
AcDbPlotSettings
  1

  2

  4

  6

 40
0.0
 41
0.0
 42
0.0
 43
0.0
 44
0.0
 45
0.0
 46
0.0
 47
0.0
 48
0.0
 49
0.0
140
0.0
141
0.0
142
1.0
143
1.0
 70
   688
 72
     0
 73
     0
 74
     5
  7

 75
    16
147
1.0
148
0.0
149
0.0
100
AcDbLayout
  1
Layout1
 70
     1
 71
     1
 10
0.0
 20
0.0
 11
12.0
 21
9.0
 12
0.0
 22
0.0
 32
0.0
 14
1.000000000000000E+20
 24
1.000000000000000E+20
 34
1.000000000000000E+20
 15
-1.000000000000000E+20
 25
-1.000000000000000E+20
 35
-1.000000000000000E+20
146
0.0
 13
0.0
 23
0.0
 33
0.0
 16
1.0
 26
0.0
 36
0.0
 17
0.0
 27
1.0
 37
0.0
 76
     0
330
68
  0
LAYOUT
  5
73
102
{ACAD_XDICTIONARY
360
3F8
102
}
102
{ACAD_REACTORS
330
62
102
}
330
62
100
AcDbPlotSettings
  1

  2

  4

  6

 40
0.0
 41
0.0
 42
0.0
 43
0.0
 44
0.0
 45
0.0
 46
0.0
 47
0.0
 48
0.0
 49
0.0
140
0.0
141
0.0
142
1.0
143
1.0
 70
   688
 72
     0
 73
     0
 74
     5
  7

 75
    16
147
1.0
148
0.0
149
0.0
100
AcDbLayout
  1
Layout2
 70
     1
 71
     2
 10
0.0
 20
0.0
 11
12.0
 21
9.0
 12
0.0
 22
0.0
 32
0.0
 14
0.0
 24
0.0
 34
0.0
 15
0.0
 25
0.0
 35
0.0
146
0.0
 13
0.0
 23
0.0
 33
0.0
 16
1.0
 26
0.0
 36
0.0
 17
0.0
 27
1.0
 37
0.0
 76
     0
330
70
  0
LAYOUT
  5
6F
102
{ACAD_XDICTIONARY
360
3F6
102
}
102
{ACAD_REACTORS
330
62
102
}
330
62
100
AcDbPlotSettings
  1

  2

  4

  6

 40
0.0
 41
0.0
 42
0.0
 43
0.0
 44
0.0
 45
0.0
 46
0.0
 47
0.0
 48
0.0
 49
0.0
140
0.0
141
0.0
142
1.0
143
1.0
 70
  1712
 72
     0
 73
     0
 74
     0
  7

 75
     0
147
1.0
148
0.0
149
0.0
100
AcDbLayout
  1
Model
 70
     1
 71
     0
 10
0.0
 20
0.0
 11
12.0
 21
9.0
 12
0.0
 22
0.0
 32
0.0
 14
0.0
 24
0.0
 34
0.0
 15
0.0
 25
0.0
 35
0.0
146
0.0
 13
0.0
 23
0.0
 33
0.0
 16
1.0
 26
0.0
 36
0.0
 17
0.0
 27
1.0
 37
0.0
 76
     0
330
6C
331
57
  0
MATERIAL
  5
19
102
{ACAD_XDICTIONARY
360
1A
102
}
102
{ACAD_REACTORS
330
10
102
}
330
10
100
AcDbMaterial
  1
ByBlock
 72
     0
 43
0.0208333333333333
 43
0.0
 43
0.0
 43
0.0
 43
0.0
 43
0.0208333333333333
 43
0.0
 43
0.0
 43
0.0
 43
0.0
 43
1.0
 43
0.0
 43
0.0
 43
0.0
 43
0.0
 43
1.0
 77
     0
 47
0.0208333333333333
 47
0.0
 47
0.0
 47
0.0
 47
0.0
 47
0.0208333333333333
 47
0.0
 47
0.0
 47
0.0
 47
0.0
 47
1.0
 47
0.0
 47
0.0
 47
0.0
 47
0.0
 47
1.0
171
     0
 49
0.0208333333333333
 49
0.0
 49
0.0
 49
0.0
 49
0.0
 49
0.0208333333333333
 49
0.0
 49
0.0
 49
0.0
 49
0.0
 49
1.0
 49
0.0
 49
0.0
 49
0.0
 49
0.0
 49
1.0
175
     0
142
0.0208333333333333
142
0.0
142
0.0
142
0.0
142
0.0
142
0.0208333333333333
142
0.0
142
0.0
142
0.0
142
0.0
142
1.0
142
0.0
142
0.0
142
0.0
142
0.0
142
1.0
179
     0
144
0.0208333333333333
144
0.0
144
0.0
144
0.0
144
0.0
144
0.0208333333333333
144
0.0
144
0.0
144
0.0
144
0.0
144
1.0
144
0.0
144
0.0
144
0.0
144
0.0
144
1.0
147
0.0208333333333333
147
0.0
147
0.0
147
0.0
147
0.0
147
0.0208333333333333
147
0.0
147
0.0
147
0.0
147
0.0
147
1.0
147
0.0
147
0.0
147
0.0
147
0.0
147
1.0
  0
MATERIAL
  5
11
102
{ACAD_XDICTIONARY
360
12
102
}
102
{ACAD_REACTORS
330
10
102
}
330
10
100
AcDbMaterial
  1
ByLayer
 72
     0
 43
0.0208333333333333
 43
0.0
 43
0.0
 43
0.0
 43
0.0
 43
0.0208333333333333
 43
0.0
 43
0.0
 43
0.0
 43
0.0
 43
1.0
 43
0.0
 43
0.0
 43
0.0
 43
0.0
 43
1.0
 77
     0
 47
0.0208333333333333
 47
0.0
 47
0.0
 47
0.0
 47
0.0
 47
0.0208333333333333
 47
0.0
 47
0.0
 47
0.0
 47
0.0
 47
1.0
 47
0.0
 47
0.0
 47
0.0
 47
0.0
 47
1.0
171
     0
 49
0.0208333333333333
 49
0.0
 49
0.0
 49
0.0
 49
0.0
 49
0.0208333333333333
 49
0.0
 49
0.0
 49
0.0
 49
0.0
 49
1.0
 49
0.0
 49
0.0
 49
0.0
 49
0.0
 49
1.0
175
     0
142
0.0208333333333333
142
0.0
142
0.0
142
0.0
142
0.0
142
0.0208333333333333
142
0.0
142
0.0
142
0.0
142
0.0
142
1.0
142
0.0
142
0.0
142
0.0
142
0.0
142
1.0
179
     0
144
0.0208333333333333
144
0.0
144
0.0
144
0.0
144
0.0
144
0.0208333333333333
144
0.0
144
0.0
144
0.0
144
0.0
144
1.0
144
0.0
144
0.0
144
0.0
144
0.0
144
1.0
147
0.0208333333333333
147
0.0
147
0.0
147
0.0
147
0.0
147
0.0208333333333333
147
0.0
147
0.0
147
0.0
147
0.0
147
1.0
147
0.0
147
0.0
147
0.0
147
0.0
147
1.0
  0
MATERIAL
  5
21
102
{ACAD_XDICTIONARY
360
22
102
}
102
{ACAD_REACTORS
330
10
102
}
330
10
100
AcDbMaterial
  1
Global
 72
     0
 43
0.0208333333333333
 43
0.0
 43
0.0
 43
0.0
 43
0.0
 43
0.0208333333333333
 43
0.0
 43
0.0
 43
0.0
 43
0.0
 43
1.0
 43
0.0
 43
0.0
 43
0.0
 43
0.0
 43
1.0
 77
     0
 47
0.0208333333333333
 47
0.0
 47
0.0
 47
0.0
 47
0.0
 47
0.0208333333333333
 47
0.0
 47
0.0
 47
0.0
 47
0.0
 47
1.0
 47
0.0
 47
0.0
 47
0.0
 47
0.0
 47
1.0
171
     0
 49
0.0208333333333333
 49
0.0
 49
0.0
 49
0.0
 49
0.0
 49
0.0208333333333333
 49
0.0
 49
0.0
 49
0.0
 49
0.0
 49
1.0
 49
0.0
 49
0.0
 49
0.0
 49
0.0
 49
1.0
175
     0
142
0.0208333333333333
142
0.0
142
0.0
142
0.0
142
0.0
142
0.0208333333333333
142
0.0
142
0.0
142
0.0
142
0.0
142
1.0
142
0.0
142
0.0
142
0.0
142
0.0
142
1.0
179
     0
144
0.0208333333333333
144
0.0
144
0.0
144
0.0
144
0.0
144
0.0208333333333333
144
0.0
144
0.0
144
0.0
144
0.0
144
1.0
144
0.0
144
0.0
144
0.0
144
0.0
144
1.0
147
0.0208333333333333
147
0.0
147
0.0
147
0.0
147
0.0
147
0.0208333333333333
147
0.0
147
0.0
147
0.0
147
0.0
147
1.0
147
0.0
147
0.0
147
0.0
147
0.0
147
1.0
  0
MATERIAL
  5
345
102
{ACAD_XDICTIONARY
360
346
102
}
102
{ACAD_REACTORS
330
10
102
}
330
10
100
AcDbMaterial
  1
RevitMaterialDefinition97641
 70
     1
 90
-1025120795
 71
     1
 91
-1025120795
 73
     1
 76
     1
 45
0.5
 77
     0
175
     0
145
0.0
  0
MLEADERSTYLE
  5
67
102
{ACAD_REACTORS
330
66
102
}
330
66
100
AcDbMLeaderStyle
170
     2
171
     1
172
     0
 90
        2
 40
0.0
 41
0.0
173
     1
 91
-1056964608
340
5B
 92
       -2
290
     1
 42
0.09
291
     1
 43
0.36
  3
Standard
 44
0.18
300

342
55
174
     1
178
     6
175
     1
176
     0
 93
-1056964608
 45
0.18
292
     0
297
     0
 46
0.18
 94
-1056964608
 47
1.0
 49
1.0
140
1.0
293
     1
141
0.0
294
     1
177
     0
142
1.0
295
     0
296
     0
143
0.125
1001
ACAD_MLEADERVER
1070
     2
  0
MLINESTYLE
  5
60
102
{ACAD_REACTORS
330
5F
102
}
330
5F
100
AcDbMlineStyle
  2
STANDARD
 70
     0
  3

 62
   256
 51
90.0
 52
90.0
 71
     2
 49
0.5
 62
   256
  6
BYLAYER
 49
-0.5
 62
   256
  6
BYLAYER
  0
ACDBPLACEHOLDER
  5
F
102
{ACAD_REACTORS
330
E
102
}
330
E
  0
SCALE
  5
43
102
{ACAD_REACTORS
330
42
102
}
330
42
100
AcDbScale
 70
     0
300
1:1
140
1.0
141
1.0
290
     1
  0
SCALE
  5
44
102
{ACAD_REACTORS
330
42
102
}
330
42
100
AcDbScale
 70
     0
300
1/128" = 1'-0"
140
0.0078125
141
12.0
290
     0
  0
SCALE
  5
45
102
{ACAD_REACTORS
330
42
102
}
330
42
100
AcDbScale
 70
     0
300
1/64" = 1'-0"
140
0.015625
141
12.0
290
     0
  0
SCALE
  5
46
102
{ACAD_REACTORS
330
42
102
}
330
42
100
AcDbScale
 70
     0
300
1/32" = 1'-0"
140
0.03125
141
12.0
290
     0
  0
SCALE
  5
47
102
{ACAD_REACTORS
330
42
102
}
330
42
100
AcDbScale
 70
     0
300
1/16" = 1'-0"
140
0.0625
141
12.0
290
     0
  0
SCALE
  5
48
102
{ACAD_REACTORS
330
42
102
}
330
42
100
AcDbScale
 70
     0
300
3/32" = 1'-0"
140
0.09375
141
12.0
290
     0
  0
SCALE
  5
49
102
{ACAD_REACTORS
330
42
102
}
330
42
100
AcDbScale
 70
     0
300
1/8" = 1'-0"
140
0.125
141
12.0
290
     0
  0
SCALE
  5
4A
102
{ACAD_REACTORS
330
42
102
}
330
42
100
AcDbScale
 70
     0
300
3/16" = 1'-0"
140
0.1875
141
12.0
290
     0
  0
SCALE
  5
4B
102
{ACAD_REACTORS
330
42
102
}
330
42
100
AcDbScale
 70
     0
300
1/4" = 1'-0"
140
0.25
141
12.0
290
     0
  0
SCALE
  5
4C
102
{ACAD_REACTORS
330
42
102
}
330
42
100
AcDbScale
 70
     0
300
3/8" = 1'-0"
140
0.375
141
12.0
290
     0
  0
SCALE
  5
4D
102
{ACAD_REACTORS
330
42
102
}
330
42
100
AcDbScale
 70
     0
300
1/2" = 1'-0"
140
0.5
141
12.0
290
     0
  0
SCALE
  5
4E
102
{ACAD_REACTORS
330
42
102
}
330
42
100
AcDbScale
 70
     0
300
3/4" = 1'-0"
140
0.75
141
12.0
290
     0
  0
SCALE
  5
4F
102
{ACAD_REACTORS
330
42
102
}
330
42
100
AcDbScale
 70
     0
300
1" = 1'-0"
140
1.0
141
12.0
290
     0
  0
SCALE
  5
50
102
{ACAD_REACTORS
330
42
102
}
330
42
100
AcDbScale
 70
     0
300
1-1/2" = 1'-0"
140
1.5
141
12.0
290
     0
  0
SCALE
  5
51
102
{ACAD_REACTORS
330
42
102
}
330
42
100
AcDbScale
 70
     0
300
3" = 1'-0"
140
3.0
141
12.0
290
     0
  0
SCALE
  5
52
102
{ACAD_REACTORS
330
42
102
}
330
42
100
AcDbScale
 70
     0
300
6" = 1'-0"
140
6.0
141
12.0
290
     0
  0
SCALE
  5
53
102
{ACAD_REACTORS
330
42
102
}
330
42
100
AcDbScale
 70
     0
300
1'-0" = 1'-0"
140
12.0
141
12.0
290
     0
  0
TABLESTYLE
  5
65
102
{ACAD_XDICTIONARY
360
3BB
102
}
102
{ACAD_REACTORS
330
64
102
}
330
64
100
AcDbTableStyle
  3
Standard
 70
     0
 71
     0
 40
0.06
 41
0.06
280
     0
281
     0
  7
Standard
140
0.18
170
     2
 62
     0
 63
     7
283
     0
274
    -2
284
     1
 64
     0
275
    -2
285
     1
 65
     0
276
    -2
286
     1
 66
     0
277
    -2
287
     1
 67
     0
278
    -2
288
     1
 68
     0
279
    -2
289
     1
 69
     0
  7
Standard
140
0.25
170
     5
 62
     0
 63
     7
283
     0
274
    -2
284
     1
 64
     0
275
    -2
285
     1
 65
     0
276
    -2
286
     1
 66
     0
277
    -2
287
     1
 67
     0
278
    -2
288
     1
 68
     0
279
    -2
289
     1
 69
     0
  7
Standard
140
0.18
170
     5
 62
     0
 63
     7
283
     0
274
    -2
284
     1
 64
     0
275
    -2
285
     1
 65
     0
276
    -2
286
     1
 66
     0
277
    -2
287
     1
 67
     0
278
    -2
288
     1
 68
     0
279
    -2
289
     1
 69
     0
  0
VISUALSTYLE
  5
2F
102
{ACAD_XDICTIONARY
360
3CC
102
}
102
{ACAD_REACTORS
330
29
102
}
330
29
100
AcDbVisualStyle
  2
2dWireframe
 70
     4
 71
     0
 72
     2
 73
     0
 90
        0
 40
-0.6
 41
-30.0
 62
     5
 63
     7
 74
     1
 91
        4
 64
     7
 65
   257
 75
     1
175
     1
 42
1.0
 92
        0
 66
   257
 43
1.0
 76
     1
 77
     6
 78
     2
 67
     7
 79
     5
170
     0
171
     0
290
     0
174
     0
 93
        1
 44
0.0
173
     0
291
     0
 45
0.0
1001
ACAD
1000
AcDbSavedByObjectVersion
1070
     0
  0
VISUALSTYLE
  5
2E
102
{ACAD_XDICTIONARY
360
3CA
102
}
102
{ACAD_REACTORS
330
29
102
}
330
29
100
AcDbVisualStyle
  2
Basic
 70
     7
 71
     1
 72
     0
 73
     1
 90
        0
 40
-0.6
 41
-30.0
 62
     5
 63
     7
 74
     0
 91
        4
 64
     7
 65
   257
 75
     1
175
     1
 42
1.0
 92
        8
 66
     7
 43
1.0
 76
     1
 77
     6
 78
     2
 67
     7
 79
     5
170
     0
171
     0
290
     0
174
     0
 93
        1
 44
0.0
173
     0
291
     1
 45
0.0
1001
ACAD
1000
AcDbSavedByObjectVersion
1070
     0
  0
VISUALSTYLE
  5
35
102
{ACAD_XDICTIONARY
360
3D8
102
}
102
{ACAD_REACTORS
330
29
102
}
330
29
100
AcDbVisualStyle
  2
Brighten
 70
    12
 71
     2
 72
     2
 73
     0
 90
        0
 40
-0.6
 41
-30.0
 62
     5
 63
     7
 74
     1
 91
        4
 64
     7
 65
   257
 75
     1
175
     1
 42
1.0
 92
        8
 66
     7
 43
1.0
 76
     1
 77
     6
 78
     2
 67
     7
 79
     5
170
     0
171
     0
290
     0
174
     0
 93
        1
 44
50.0
173
     0
291
     1
 45
0.0
1001
ACAD
1000
AcDbSavedByObjectVersion
1070
     0
  0
VISUALSTYLE
  5
39
102
{ACAD_XDICTIONARY
360
3E0
102
}
102
{ACAD_REACTORS
330
29
102
}
330
29
100
AcDbVisualStyle
  2
ColorChange
 70
    16
 71
     2
 72
     2
 73
     3
 90
        0
 40
-0.6
 41
-30.0
 62
     5
 63
     8
 74
     1
 91
        4
 64
     7
 65
   257
 75
     1
175
     1
 42
1.0
 92
        8
 66
     8
 43
1.0
 76
     1
 77
     6
 78
     2
 67
     7
 79
     5
170
     0
171
     0
290
     0
174
     0
 93
        1
 44
0.0
173
     0
291
     1
 45
0.0
1001
ACAD
1000
AcDbSavedByObjectVersion
1070
     0
  0
VISUALSTYLE
  5
32
102
{ACAD_XDICTIONARY
360
3D2
102
}
102
{ACAD_REACTORS
330
29
102
}
330
29
100
AcDbVisualStyle
  2
Conceptual
 70
     9
 71
     3
 72
     2
 73
     0
 90
        0
 40
-0.6
 41
-30.0
 62
     5
 63
     7
 74
     2
 91
        2
 64
     7
 65
   257
 75
     1
175
     1
 42
179.0
 92
        8
 66
     7
 43
1.0
 76
     1
 77
     6
 78
     2
 67
     7
 79
     3
170
     0
171
     0
290
     0
174
     0
 93
        1
 44
0.0
173
     0
291
     0
 45
0.0
1001
ACAD
1000
AcDbSavedByObjectVersion
1070
     0
  0
VISUALSTYLE
  5
34
102
{ACAD_XDICTIONARY
360
3D6
102
}
102
{ACAD_REACTORS
330
29
102
}
330
29
100
AcDbVisualStyle
  2
Dim
 70
    11
 71
     2
 72
     2
 73
     0
 90
        0
 40
-0.6
 41
-30.0
 62
     5
 63
     7
 74
     1
 91
        4
 64
     7
 65
   257
 75
     1
175
     1
 42
1.0
 92
        8
 66
     7
 43
1.0
 76
     1
 77
     6
 78
     2
 67
     7
 79
     5
170
     0
171
     0
290
     0
174
     0
 93
        1
 44
-50.0
173
     0
291
     1
 45
0.0
1001
ACAD
1000
AcDbSavedByObjectVersion
1070
     0
  0
VISUALSTYLE
  5
41
102
{ACAD_XDICTIONARY
360
3F0
102
}
102
{ACAD_REACTORS
330
29
102
}
330
29
100
AcDbVisualStyle
  2
EdgeColorOff
 70
    22
 71
     2
 72
     2
 73
     0
 90
        0
 40
-0.6
 41
-30.0
 62
     5
 63
     7
 74
     1
 91
        4
 64
     7
 65
   257
 75
     1
175
     1
 42
1.0
 92
        8
 66
     7
 43
1.0
 76
     1
 77
     6
 78
     2
 67
     7
 79
     5
170
     0
171
     0
290
     0
174
     0
 93
        1
 44
0.0
173
     0
291
     1
 45
0.0
1001
ACAD
1000
AcDbSavedByObjectVersion
1070
     0
  0
VISUALSTYLE
  5
38
102
{ACAD_XDICTIONARY
360
3DE
102
}
102
{ACAD_REACTORS
330
29
102
}
330
29
100
AcDbVisualStyle
  2
Facepattern
 70
    15
 71
     2
 72
     2
 73
     0
 90
        0
 40
-0.6
 41
-30.0
 62
     5
 63
     7
 74
     1
 91
        4
 64
     7
 65
   257
 75
     1
175
     1
 42
1.0
 92
        8
 66
     7
 43
1.0
 76
     1
 77
     6
 78
     2
 67
     7
 79
     5
170
     0
171
     0
290
     0
174
     0
 93
        1
 44
0.0
173
     0
291
     1
 45
0.0
1001
ACAD
1000
AcDbSavedByObjectVersion
1070
     0
  0
VISUALSTYLE
  5
2A
102
{ACAD_XDICTIONARY
360
3C2
102
}
102
{ACAD_REACTORS
330
29
102
}
330
29
100
AcDbVisualStyle
  2
Flat
 70
     0
 71
     2
 72
     1
 73
     1
 90
        2
 40
-0.6
 41
30.0
 62
     5
 63
     7
 74
     0
 91
        0
 64
     7
 65
   257
 75
     1
175
     1
 42
1.0
 92
        8
 66
     7
 43
1.0
 76
     1
 77
     6
 78
     2
 67
     7
 79
     5
170
     0
171
     0
290
     0
174
     0
 93
       13
 44
0.0
173
     0
291
     1
 45
0.0
1001
ACAD
1000
AcDbSavedByObjectVersion
1070
     0
  0
VISUALSTYLE
  5
2B
102
{ACAD_XDICTIONARY
360
3C4
102
}
102
{ACAD_REACTORS
330
29
102
}
330
29
100
AcDbVisualStyle
  2
FlatWithEdges
 70
     1
 71
     2
 72
     1
 73
     1
 90
        2
 40
-0.6
 41
30.0
 62
     5
 63
     7
 74
     1
 91
        0
 64
     7
 65
   257
 75
     1
175
     1
 42
1.0
 92
        0
 66
   257
 43
1.0
 76
     1
 77
     6
 78
     2
 67
     7
 79
     5
170
     0
171
     0
290
     0
174
     0
 93
       13
 44
0.0
173
     0
291
     1
 45
0.0
1001
ACAD
1000
AcDbSavedByObjectVersion
1070
     0
  0
VISUALSTYLE
  5
2C
102
{ACAD_XDICTIONARY
360
3C6
102
}
102
{ACAD_REACTORS
330
29
102
}
330
29
100
AcDbVisualStyle
  2
Gouraud
 70
     2
 71
     2
 72
     2
 73
     1
 90
        2
 40
-0.6
 41
30.0
 62
     5
 63
     7
 74
     0
 91
        0
 64
     7
 65
   257
 75
     1
175
     1
 42
1.0
 92
        0
 66
     7
 43
1.0
 76
     1
 77
     6
 78
     2
 67
     7
 79
     5
170
     0
171
     0
290
     0
174
     0
 93
       13
 44
0.0
173
     0
291
     1
 45
0.0
1001
ACAD
1000
AcDbSavedByObjectVersion
1070
     0
  0
VISUALSTYLE
  5
2D
102
{ACAD_XDICTIONARY
360
3C8
102
}
102
{ACAD_REACTORS
330
29
102
}
330
29
100
AcDbVisualStyle
  2
GouraudWithEdges
 70
     3
 71
     2
 72
     2
 73
     1
 90
        2
 40
-0.6
 41
30.0
 62
     5
 63
     7
 74
     1
 91
        0
 64
     7
 65
   257
 75
     1
175
     1
 42
1.0
 92
        0
 66
   257
 43
1.0
 76
     1
 77
     6
 78
     2
 67
     7
 79
     5
170
     0
171
     0
290
     0
174
     0
 93
       13
 44
0.0
173
     0
291
     1
 45
0.0
1001
ACAD
1000
AcDbSavedByObjectVersion
1070
     0
  0
VISUALSTYLE
  5
31
102
{ACAD_XDICTIONARY
360
3D0
102
}
102
{ACAD_REACTORS
330
29
102
}
330
29
100
AcDbVisualStyle
  2
Hidden
 70
     6
 71
     1
 72
     2
 73
     2
 90
        0
 40
-0.6
 41
-30.0
 62
     5
 63
     7
 74
     2
 91
        2
 64
     7
 65
   257
 75
     2
175
     1
 42
40.0
 92
        0
 66
   257
 43
1.0
 76
     1
 77
     6
 78
     2
 67
     7
 79
     3
170
     0
171
     0
290
     0
174
     0
 93
        1
 44
0.0
173
     0
291
     0
 45
0.0
1001
ACAD
1000
AcDbSavedByObjectVersion
1070
     0
  0
VISUALSTYLE
  5
3F
102
{ACAD_XDICTIONARY
360
3EC
102
}
102
{ACAD_REACTORS
330
29
102
}
330
29
100
AcDbVisualStyle
  2
JitterOff
 70
    20
 71
     2
 72
     2
 73
     0
 90
        0
 40
-0.6
 41
-30.0
 62
     5
 63
     7
 74
     1
 91
        4
 64
     7
 65
   257
 75
     1
175
     1
 42
1.0
 92
       10
 66
     7
 43
1.0
 76
     1
 77
     6
 78
     2
 67
     7
 79
     5
170
     0
171
     0
290
     0
174
     0
 93
        1
 44
0.0
173
     0
291
     1
 45
0.0
1001
ACAD
1000
AcDbSavedByObjectVersion
1070
     0
  0
VISUALSTYLE
  5
37
102
{ACAD_XDICTIONARY
360
3DC
102
}
102
{ACAD_REACTORS
330
29
102
}
330
29
100
AcDbVisualStyle
  2
Linepattern
 70
    14
 71
     2
 72
     2
 73
     0
 90
        0
 40
-0.6
 41
-30.0
 62
     5
 63
     7
 74
     1
 91
        4
 64
     7
 65
   257
 75
     7
175
     7
 42
1.0
 92
        8
 66
     7
 43
1.0
 76
     1
 77
     6
 78
     2
 67
     7
 79
     5
170
     0
171
     0
290
     0
174
     0
 93
        1
 44
0.0
173
     0
291
     1
 45
0.0
1001
ACAD
1000
AcDbSavedByObjectVersion
1070
     0
  0
VISUALSTYLE
  5
40
102
{ACAD_XDICTIONARY
360
3EE
102
}
102
{ACAD_REACTORS
330
29
102
}
330
29
100
AcDbVisualStyle
  2
OverhangOff
 70
    21
 71
     2
 72
     2
 73
     0
 90
        0
 40
-0.6
 41
-30.0
 62
     5
 63
     7
 74
     1
 91
        4
 64
     7
 65
   257
 75
     1
175
     1
 42
1.0
 92
        9
 66
     7
 43
1.0
 76
     1
 77
     6
 78
     2
 67
     7
 79
     5
170
     0
171
     0
290
     0
174
     0
 93
        1
 44
0.0
173
     0
291
     1
 45
0.0
1001
ACAD
1000
AcDbSavedByObjectVersion
1070
     0
  0
VISUALSTYLE
  5
33
102
{ACAD_XDICTIONARY
360
3D4
102
}
102
{ACAD_REACTORS
330
29
102
}
330
29
100
AcDbVisualStyle
  2
Realistic
 70
     8
 71
     2
 72
     3
 73
     0
 90
        2
 40
-0.6
 41
30.0
 62
     5
 63
     7
 74
     0
 91
        0
 64
     7
 65
   257
 75
     1
175
     1
 42
1.0
 92
        8
 66
   257
 43
1.0
 76
     1
 77
     6
 78
     2
 67
     7
 79
     3
170
     0
171
     0
290
     0
174
     0
 93
       13
 44
0.0
173
     0
291
     0
 45
0.0
1001
ACAD
1000
AcDbSavedByObjectVersion
1070
     0
  0
VISUALSTYLE
  5
3E
102
{ACAD_XDICTIONARY
360
3EA
102
}
102
{ACAD_REACTORS
330
29
102
}
330
29
100
AcDbVisualStyle
  2
Shaded
 70
    27
 71
     2
 72
     2
 73
     1
 90
        2
 40
-0.6
 41
30.0
 62
     5
 63
     7
 74
     0
 91
        4
 64
     7
 65
   257
 75
     1
175
     1
 42
1.0
 92
        8
 66
   257
 43
1.0
 76
     1
 77
     6
 78
     2
 67
     8
 79
     3
170
     0
171
     0
290
     0
174
     0
 93
        5
 44
0.0
173
     0
291
     0
 45
0.0
1001
ACAD
1000
AcDbSavedByObjectVersion
1070
     0
  0
VISUALSTYLE
  5
3D
102
{ACAD_XDICTIONARY
360
3E8
102
}
102
{ACAD_REACTORS
330
29
102
}
330
29
100
AcDbVisualStyle
  2
Shaded with edges
 70
    26
 71
     2
 72
     2
 73
     1
 90
        2
 40
-0.6
 41
30.0
 62
     5
 63
     7
 74
     1
 91
       10
 64
     7
 65
   257
 75
     2
175
     1
 42
1.0
 92
        8
 66
   257
 43
1.0
 76
     1
 77
     6
 78
     2
 67
     7
 79
     3
170
     0
171
     0
290
     0
174
     0
 93
        5
 44
0.0
173
     0
291
     0
 45
0.0
1001
ACAD
1000
AcDbSavedByObjectVersion
1070
     0
  0
VISUALSTYLE
  5
3A
102
{ACAD_XDICTIONARY
360
3E2
102
}
102
{ACAD_REACTORS
330
29
102
}
330
29
100
AcDbVisualStyle
  2
Shades of Gray
 70
    23
 71
     2
 72
     2
 73
     3
 90
        0
 40
-0.6
 41
-30.0
 62
     5
 63
     7
 74
     2
 91
        2
 64
     7
 65
     7
 75
     1
175
     1
 42
40.0
 92
        8
 66
     7
 43
1.0
 76
     1
 77
     6
 78
     2
 67
     7
 79
     3
170
     0
171
     0
290
     0
174
     0
 93
        1
 44
0.0
173
     0
291
     0
 45
0.0
1001
ACAD
1000
AcDbSavedByObjectVersion
1070
     0
  0
VISUALSTYLE
  5
3B
102
{ACAD_XDICTIONARY
360
3E4
102
}
102
{ACAD_REACTORS
330
29
102
}
330
29
100
AcDbVisualStyle
  2
Sketchy
 70
    24
 71
     1
 72
     2
 73
     2
 90
        0
 40
-0.6
 41
-30.0
 62
     5
 63
     7
 74
     2
 91
        2
 64
     7
 65
     7
 75
     1
175
     1
 42
40.0
 92
       11
 66
     7
 43
1.0
 76
     1
 77
     6
 78
     2
 67
     7
 79
     6
170
     0
171
     0
290
     0
174
     0
 93
        1
 44
0.0
173
     0
291
     0
 45
0.0
1001
ACAD
1000
AcDbSavedByObjectVersion
1070
     0
  0
VISUALSTYLE
  5
36
102
{ACAD_XDICTIONARY
360
3DA
102
}
102
{ACAD_REACTORS
330
29
102
}
330
29
100
AcDbVisualStyle
  2
Thicken
 70
    13
 71
     2
 72
     2
 73
     0
 90
        0
 40
-0.6
 41
-30.0
 62
     5
 63
     7
 74
     1
 91
        4
 64
     7
 65
   257
 75
     1
175
     1
 42
1.0
 92
       12
 66
     7
 43
1.0
 76
     1
 77
     6
 78
     2
 67
     7
 79
     5
170
     0
171
     0
290
     0
174
     0
 93
        1
 44
0.0
173
     0
291
     1
 45
0.0
1001
ACAD
1000
AcDbSavedByObjectVersion
1070
     0
  0
VISUALSTYLE
  5
30
102
{ACAD_XDICTIONARY
360
3CE
102
}
102
{ACAD_REACTORS
330
29
102
}
330
29
100
AcDbVisualStyle
  2
Wireframe
 70
     5
 71
     0
 72
     2
 73
     0
 90
        0
 40
-0.6
 41
-30.0
 62
     5
 63
     7
 74
     1
 91
        4
 64
     7
 65
   257
 75
     1
175
     1
 42
1.0
 92
        0
 66
   257
 43
1.0
 76
     1
 77
     6
 78
     2
 67
     7
 79
     3
170
     0
171
     0
290
     0
174
     0
 93
        1
 44
0.0
173
     0
291
     0
 45
0.0
1001
ACAD
1000
AcDbSavedByObjectVersion
1070
     0
  0
VISUALSTYLE
  5
3C
102
{ACAD_XDICTIONARY
360
3E6
102
}
102
{ACAD_REACTORS
330
29
102
}
330
29
100
AcDbVisualStyle
  2
X-Ray
 70
    25
 71
     2
 72
     2
 73
     1
 90
        1
 40
0.5
 41
-30.0
 62
     5
 63
     7
 74
     1
 91
        0
 64
     7
 65
   257
 75
     1
175
     1
 42
1.0
 92
        8
 66
     7
 43
1.0
 76
     1
 77
     6
 78
     2
 67
     7
 79
     3
170
     0
171
     0
290
     0
174
     0
 93
       13
 44
0.0
173
     0
291
     0
 45
0.0
1001
ACAD
1000
AcDbSavedByObjectVersion
1070
     0
  0
DICTIONARYVAR
  5
351
102
{ACAD_REACTORS
330
34E
102
}
330
34E
100
DictionaryVariables
280
     0
  1
1:1
  0
DICTIONARYVAR
  5
350
102
{ACAD_REACTORS
330
34E
102
}
330
34E
100
DictionaryVariables
280
     0
  1
STANDARD
  0
DICTIONARYVAR
  5
34F
102
{ACAD_REACTORS
330
34E
102
}
330
34E
100
DictionaryVariables
280
     0
  1
STANDARD
  0
DICTIONARYVAR
  5
3B5
102
{ACAD_REACTORS
330
34E
102
}
330
34E
100
DictionaryVariables
280
     0
  1
2
  0
DICTIONARYVAR
  5
3B4
102
{ACAD_REACTORS
330
34E
102
}
330
34E
100
DictionaryVariables
280
     0
  1
1
  0
DICTIONARYVAR
  5
3B3
102
{ACAD_REACTORS
330
34E
102
}
330
34E
100
DictionaryVariables
280
     0
  1
0
  0
DICTIONARYVAR
  5
3B7
102
{ACAD_REACTORS
330
34E
102
}
330
34E
100
DictionaryVariables
280
     0
  1
0.000000
  0
DICTIONARYVAR
  5
3B0
102
{ACAD_REACTORS
330
34E
102
}
330
34E
100
DictionaryVariables
280
     0
  1
0
  0
DICTIONARYVAR
  5
3B1
102
{ACAD_REACTORS
330
34E
102
}
330
34E
100
DictionaryVariables
280
     0
  1
0
  0
DICTIONARYVAR
  5
3AF
102
{ACAD_REACTORS
330
34E
102
}
330
34E
100
DictionaryVariables
280
     0
  1
2
  0
DICTIONARYVAR
  5
3B8
102
{ACAD_REACTORS
330
34E
102
}
330
34E
100
DictionaryVariables
280
     0
  1
0.000000
  0
DICTIONARYVAR
  5
3AE
102
{ACAD_REACTORS
330
34E
102
}
330
34E
100
DictionaryVariables
280
     0
  1
1
  0
DICTIONARYVAR
  5
3B6
102
{ACAD_REACTORS
330
34E
102
}
330
34E
100
DictionaryVariables
280
     0
  1
1
  0
DICTIONARYVAR
  5
3B2
102
{ACAD_REACTORS
330
34E
102
}
330
34E
100
DictionaryVariables
280
     0
  1
127
  0
DICTIONARYVAR
  5
3B9
102
{ACAD_REACTORS
330
34E
102
}
330
34E
100
DictionaryVariables
280
     0
  1
0
  0
DICTIONARYVAR
  5
3BA
102
{ACAD_REACTORS
330
34E
102
}
330
34E
100
DictionaryVariables
280
     0
  1
2
  0
XRECORD
  5
34C
102
{ACAD_REACTORS
330
348
102
}
330
348
100
AcDbXrecord
280
     1
  1
BUILDING_ID
  1
Sunshade-Linear-Kawneer-Curtain_Wall-Curved
  1
FLOOR_ID
  1
19153
  0
XRECORD
  5
34A
102
{ACAD_REACTORS
330
348
102
}
330
348
100
AcDbXrecord
280
     1
  1
-2000151
  1
Generic Models
  1
-2001354
  1
Structural Stiffeners
  1
-2009030
  1
Structural Connections
  0
XRECORD
  5
34B
102
{ACAD_REACTORS
330
348
102
}
330
348
100
AcDbXrecord
280
     1
  1
103689
  1
Blade
  1
148189
  1
Fascias
  1
160355
  1
Outrigger
  1
167494
  1
Bracket
  0
XRECORD
  5
349
102
{ACAD_REACTORS
330
348
102
}
330
348
100
AcDbXrecord
280
     1
  1
145781
  1
Blade-Kawneer-Circular : Versoleil
  1
148195
  1
Fascia-Kawneer-Circular : Versoleil
  1
160363
  1
Outrigger-Kawneer-Curved : 5"
  0
DICTIONARY
  5
3F4
330
6B
100
AcDbDictionary
280
     1
281
     1
  3
ACAD_XREC_ROUNDTRIP
360
3F5
  0
DICTIONARY
  5
3F8
330
73
100
AcDbDictionary
280
     1
281
     1
  3
ACAD_XREC_ROUNDTRIP
360
3F9
  0
DICTIONARY
  5
3F6
330
6F
100
AcDbDictionary
280
     1
281
     1
  3
ACAD_XREC_ROUNDTRIP
360
3F7
  0
DICTIONARY
  5
1A
330
19
100
AcDbDictionary
280
     1
281
     1
  3
ACAD_XREC_ROUNDTRIP
360
3C0
  3
BUMPTILE
360
1C
  3
DIFFUSETILE
360
1B
  3
OPACITYTILE
360
1F
  3
REFLECTIONTILE
360
1E
  3
REFRACTIONTILE
360
20
  3
SPECULARTILE
360
1D
  0
DICTIONARY
  5
12
330
11
100
AcDbDictionary
280
     1
281
     1
  3
ACAD_XREC_ROUNDTRIP
360
3BF
  3
BUMPTILE
360
14
  3
DIFFUSETILE
360
13
  3
OPACITYTILE
360
17
  3
REFLECTIONTILE
360
16
  3
REFRACTIONTILE
360
18
  3
SPECULARTILE
360
15
  0
DICTIONARY
  5
22
330
21
100
AcDbDictionary
280
     1
281
     1
  3
ACAD_XREC_ROUNDTRIP
360
3C1
  3
BUMPTILE
360
24
  3
DIFFUSETILE
360
23
  3
FBXASSET
360
359
  3
OPACITYTILE
360
27
  3
REFLECTIONTILE
360
26
  3
REFRACTIONTILE
360
28
  3
SPECULARTILE
360
25
  0
DICTIONARY
  5
346
330
345
100
AcDbDictionary
280
     1
281
     1
  3
ACAD_XREC_ROUNDTRIP
360
3FA
  3
VIZ XML Material Definition
360
347
  0
DICTIONARY
  5
3BB
330
65
100
AcDbDictionary
280
     1
281
     1
  3
ACAD_ROUNDTRIP_2008_TABLESTYLE_CELLSTYLEMAP
360
3BC
  3
ACAD_XREC_ROUNDTRIP
360
3F2
  0
DICTIONARY
  5
3CC
330
2F
100
AcDbDictionary
280
     1
281
     1
  3
ACAD_XREC_ROUNDTRIP
360
3CD
  0
DICTIONARY
  5
3CA
330
2E
100
AcDbDictionary
280
     1
281
     1
  3
ACAD_XREC_ROUNDTRIP
360
3CB
  0
DICTIONARY
  5
3D8
330
35
100
AcDbDictionary
280
     1
281
     1
  3
ACAD_XREC_ROUNDTRIP
360
3D9
  0
DICTIONARY
  5
3E0
330
39
100
AcDbDictionary
280
     1
281
     1
  3
ACAD_XREC_ROUNDTRIP
360
3E1
  0
DICTIONARY
  5
3D2
330
32
100
AcDbDictionary
280
     1
281
     1
  3
ACAD_XREC_ROUNDTRIP
360
3D3
  0
DICTIONARY
  5
3D6
330
34
100
AcDbDictionary
280
     1
281
     1
  3
ACAD_XREC_ROUNDTRIP
360
3D7
  0
DICTIONARY
  5
3F0
330
41
100
AcDbDictionary
280
     1
281
     1
  3
ACAD_XREC_ROUNDTRIP
360
3F1
  0
DICTIONARY
  5
3DE
330
38
100
AcDbDictionary
280
     1
281
     1
  3
ACAD_XREC_ROUNDTRIP
360
3DF
  0
DICTIONARY
  5
3C2
330
2A
100
AcDbDictionary
280
     1
281
     1
  3
ACAD_XREC_ROUNDTRIP
360
3C3
  0
DICTIONARY
  5
3C4
330
2B
100
AcDbDictionary
280
     1
281
     1
  3
ACAD_XREC_ROUNDTRIP
360
3C5
  0
DICTIONARY
  5
3C6
330
2C
100
AcDbDictionary
280
     1
281
     1
  3
ACAD_XREC_ROUNDTRIP
360
3C7
  0
DICTIONARY
  5
3C8
330
2D
100
AcDbDictionary
280
     1
281
     1
  3
ACAD_XREC_ROUNDTRIP
360
3C9
  0
DICTIONARY
  5
3D0
330
31
100
AcDbDictionary
280
     1
281
     1
  3
ACAD_XREC_ROUNDTRIP
360
3D1
  0
DICTIONARY
  5
3EC
330
3F
100
AcDbDictionary
280
     1
281
     1
  3
ACAD_XREC_ROUNDTRIP
360
3ED
  0
DICTIONARY
  5
3DC
330
37
100
AcDbDictionary
280
     1
281
     1
  3
ACAD_XREC_ROUNDTRIP
360
3DD
  0
DICTIONARY
  5
3EE
330
40
100
AcDbDictionary
280
     1
281
     1
  3
ACAD_XREC_ROUNDTRIP
360
3EF
  0
DICTIONARY
  5
3D4
330
33
100
AcDbDictionary
280
     1
281
     1
  3
ACAD_XREC_ROUNDTRIP
360
3D5
  0
DICTIONARY
  5
3EA
330
3E
100
AcDbDictionary
280
     1
281
     1
  3
ACAD_XREC_ROUNDTRIP
360
3EB
  0
DICTIONARY
  5
3E8
330
3D
100
AcDbDictionary
280
     1
281
     1
  3
ACAD_XREC_ROUNDTRIP
360
3E9
  0
DICTIONARY
  5
3E2
330
3A
100
AcDbDictionary
280
     1
281
     1
  3
ACAD_XREC_ROUNDTRIP
360
3E3
  0
DICTIONARY
  5
3E4
330
3B
100
AcDbDictionary
280
     1
281
     1
  3
ACAD_XREC_ROUNDTRIP
360
3E5
  0
DICTIONARY
  5
3DA
330
36
100
AcDbDictionary
280
     1
281
     1
  3
ACAD_XREC_ROUNDTRIP
360
3DB
  0
DICTIONARY
  5
3CE
330
30
100
AcDbDictionary
280
     1
281
     1
  3
ACAD_XREC_ROUNDTRIP
360
3CF
  0
DICTIONARY
  5
3E6
330
3C
100
AcDbDictionary
280
     1
281
     1
  3
ACAD_XREC_ROUNDTRIP
360
3E7
  0
XRECORD
  5
3F5
102
{ACAD_REACTORS
330
3F4
102
}
330
3F4
100
AcDbXrecord
280
     1
102
SHADEPLOT
 70
     0
102
SHADEPLOTRESLEVEL
 70
     2
102
SHADEPLOTCUSTOMDPI
 70
   300
  0
XRECORD
  5
3F9
102
{ACAD_REACTORS
330
3F8
102
}
330
3F8
100
AcDbXrecord
280
     1
102
SHADEPLOT
 70
     0
102
SHADEPLOTRESLEVEL
 70
     2
102
SHADEPLOTCUSTOMDPI
 70
   300
  0
XRECORD
  5
3F7
102
{ACAD_REACTORS
330
3F6
102
}
330
3F6
100
AcDbXrecord
280
     1
102
SHADEPLOT
 70
     0
102
SHADEPLOTRESLEVEL
 70
     2
102
SHADEPLOTCUSTOMDPI
 70
   300
  0
XRECORD
  5
3C0
102
{ACAD_REACTORS
330
1A
102
}
330
1A
100
AcDbXrecord
280
     1
102
MATERIAL
148
0.0
149
0.0
149
0.0
 93
        0
 94
      127
282
     0
 72
     0
 77
     0
171
     0
175
     0
179
     0
273
     0
  0
XRECORD
  5
1C
102
{ACAD_REACTORS
330
1A
102
}
330
1A
100
AcDbXrecord
280
     1
270
     1
271
     1
  0
XRECORD
  5
1B
102
{ACAD_REACTORS
330
1A
102
}
330
1A
100
AcDbXrecord
280
     1
270
     1
271
     1
  0
XRECORD
  5
1F
102
{ACAD_REACTORS
330
1A
102
}
330
1A
100
AcDbXrecord
280
     1
270
     1
271
     1
  0
XRECORD
  5
1E
102
{ACAD_REACTORS
330
1A
102
}
330
1A
100
AcDbXrecord
280
     1
270
     1
271
     1
  0
XRECORD
  5
20
102
{ACAD_REACTORS
330
1A
102
}
330
1A
100
AcDbXrecord
280
     1
270
     1
271
     1
  0
XRECORD
  5
1D
102
{ACAD_REACTORS
330
1A
102
}
330
1A
100
AcDbXrecord
280
     1
270
     1
271
     1
  0
XRECORD
  5
3BF
102
{ACAD_REACTORS
330
12
102
}
330
12
100
AcDbXrecord
280
     1
102
MATERIAL
148
0.0
149
0.0
149
0.0
 93
        0
 94
      127
282
     0
 72
     0
 77
     0
171
     0
175
     0
179
     0
273
     0
  0
XRECORD
  5
14
102
{ACAD_REACTORS
330
12
102
}
330
12
100
AcDbXrecord
280
     1
270
     1
271
     1
  0
XRECORD
  5
13
102
{ACAD_REACTORS
330
12
102
}
330
12
100
AcDbXrecord
280
     1
270
     1
271
     1
  0
XRECORD
  5
17
102
{ACAD_REACTORS
330
12
102
}
330
12
100
AcDbXrecord
280
     1
270
     1
271
     1
  0
XRECORD
  5
16
102
{ACAD_REACTORS
330
12
102
}
330
12
100
AcDbXrecord
280
     1
270
     1
271
     1
  0
XRECORD
  5
18
102
{ACAD_REACTORS
330
12
102
}
330
12
100
AcDbXrecord
280
     1
270
     1
271
     1
  0
XRECORD
  5
15
102
{ACAD_REACTORS
330
12
102
}
330
12
100
AcDbXrecord
280
     1
270
     1
271
     1
  0
XRECORD
  5
3C1
102
{ACAD_REACTORS
330
22
102
}
330
22
100
AcDbXrecord
280
     1
102
MATERIAL
148
0.0
149
0.0
149
0.0
 93
        0
 94
      127
282
     0
 72
     0
 77
     0
171
     0
175
     0
179
     0
273
     0
  0
XRECORD
  5
24
102
{ACAD_REACTORS
330
22
102
}
330
22
100
AcDbXrecord
280
     1
270
     1
271
     1
  0
XRECORD
  5
23
102
{ACAD_REACTORS
330
22
102
}
330
22
100
AcDbXrecord
280
     1
270
     1
271
     1
  0
XRECORD
  5
359
102
{ACAD_REACTORS
330
22
102
}
330
22
100
AcDbXrecord
280
     1
 70
     1
 90
1959938040
 71
     1
  1
C4DAB2EC-AB72-4539-8D28-47F02633A8A4
311
504B03040A0000080000D7498C403DEE336E79000000790000001B0000006175746F6465736B2D64657369676E2D7061636B6167652E786D6C3C3F786D6C2076657273696F6E3D22312E302220656E636F64696E673D227574662D3822203F3E3C666F726D6174733E3C666F726D61743E687474703A2F2F736368656D612E
311
6175746F6465736B2E636F6D2F64657369676E2D7061636B6167652F323030393C2F666F726D61743E3C2F666F726D6174733E504B0304140006080800D7498C40D486FD9CA0000000F4000000130000005B436F6E74656E745F54797065735D2E786D6C7D8EC10E82300C865F65E91D8A1E8C310C0EEA1BF002731658846E
311
D98AC1B77784ABF1D8FE5FBFBF75BBCE937A534CCEB38643598122B6FEE978D0B0485F9C41B54DDD7D022595594E1A469170414C76A4D9A4D207E29CF43ECE46F218070CC6BECC4078ACAA135ACF422C856C0E68EA1BF5669944DDD7BCDE7B1F8E415D77AECB980613C2E4AC91FC167A2B244592486606FC29C8FD7F045B9A
311
EF7053A7E60B504B0304140006080800D7498C40ED857770E90000007C01000008000000636F72652E786D6C8D90D16E842010457F85CC3B8A4AD11A6463CCF60BFA03045897EC0A46A0E9E71777DDA47DEBD34CEEDC3333B9FCF4BDDCD197D982F56E80AA20808C535E5B370F90E20577804E826FDEC75F36404E2E66805D
311
06C1E7CDA7F5909477D1B89855E7B5394419828980D43D37030475358B2C648AD9116EC52AD54DCEA6A85E5D8653B21A3D8F589DF7D98B351B08D252F636B116D7D3F481E9D4103C9EC70E77948EAC61CD99B52D2F7758F06897D77DB519198D065193AAC684E2AAFE24EF7D457BCA30613D21BCDCED7FA0B4EA7F42C9BAD8
311
D4C7BB4F2C80A8F2238F81E0E59E452E8FA072DD73133F504B0304140006080800D7498C4055019EA25F0000007C00000007000000636E782E786D6C4DCB3B0E80201045D1AD90E915ED2CF8AC45050C11660C8261F98AB1B07AC9C97D42D718D865D3E909258CFD00CCE24AC6E326A164D74DC0B4128928FF326038472BA1
311
3128B1252AC747C6BAB984FC68F0B87FE8960A5C09FE86CFB69FBA01504B0304140006080800D7498C40628FC18866010000020300000C0000006662782F636F72652E786D6C8D52ED8E8320107C15C27F043F4E7B0DD234A6F704F70254A967AA60104C1FFFD68FC6EBA5691A1324333BBBB3A3FC70EB5A342A3B3446E738
311
0C18464A97A66A749D63EF2E6487D141706B8CFB538691969DCAF10463C16B6B7CBF42A5D14E6907A836955A41390CCA6154B670C9F150FEA84E06D23BA818AE412FCBABAC55100640439DE083B360002D43A6138BCBF9C6E9820BEE7D53AD6C53C1B4E6D2288B05CB92F4A348331215C517498A9891E3E9B823BB2439A671
311
1A9FD22CE374120BEE9AEEEEAEB44A3A556111B130222C2161F4CD3EF761B24F52C2D23D639C4EE50F22DF576F8A7CA35D1CAD7617D98045084666E2DFB6109143831CC10F159C4E21C26B4EF8316808044276F2DCDEF7B80234AAD2199B005319BF51A36CBD82A90CCD0FA70B0B9DE706B0D9D33ED18B3EAF7BC00794BA06
311
6BD2C1F5ECDD349D2F53D7287A65C9E86E481BDBC97633B758DCCE6DD05379695A63DF51D37555BA8649A7BF57FC02504B0304140006080800D7498C4009DCDEB47E0000009D0000000B0000006662782F636E782E786D6C4DCCD10A83201886E15B91FFDCA52BD9023534D67DC4B29099FF703A76F9ABD1C18E3E78F87865
311
F7590379BBF4F21815F01303E2E21D271F170525CFF40AA4D33221E6BF1B9038AE4EC1CEA0E592B03C0F9ADC3C9690370D3E3E0EBC3126B8A9056597B3A04D3F186A6CCB686B0DAF1BD11BCB07A8B4AC7EA56DF7B0FE02504B0304140006080800D7498C402720CB812C01000015020000310000006662782F453030353141
311
33352D303732352D344346412D414239302D3942413133343543414231462F636F72652E786D6C8D51CB6EC32010FC15C4293D608383ED3AC2444ED47C417F801892A2C460F1A8F2F985DA91DA5B2E2C9A9D991DEDB2FD63BA836FE5BCB6A687A4C01028335AA9CDB587315CD03B047BCE9CB5E10F0D022326D5C30C43CEAE
311
CEC67985466B823221A1C64AB582C27B152018EFE9D3433F7EA949142286C4F0B76216E34D5C55418AD44E3CCE7C7029005886E417F20F8C6B326C6B84DBAA46F4781AD070E830EA0E03D9D2FA381CC889958B90B318B55CE55AA638FAA2957BD5248B390B7A7AC61F9D124149C82B4C2A842922D527EE7684EE688370B3C3
311
989599FE4F1467F9A2286A13B6D51A779179C8092B970667D2C6F3FD19463D66EB02C8F3365E8D6F90E302E3B625554B6A562EDCB48164DAD0D5D407EBD28637B773A26756766E2867653E522ABF174C351F94FF00504B0304140006080800D7498C40DBAB828E4C01000033030000300000006662782F4530303531413335
311
2D303732352D344346412D414239302D3942413133343543414231462F636E782E786D6CD593CD6EC32010845F0571F76F2DAB8D30917AE813F4D02B864D4283C1E2A76ADEBE4B42D25C72E8B11764CD0E33AB4F986DBF1743BEC007EDEC44BBBAA504AC744ADBFD4453DC55CF946C39F3CEC53B1B25562C30D12C53CEF6DE
311
A5B5480A76229988AAD1F658440FC1252F21A09C6F12E3A4301800B64A28C2328352A0C8CD885F3BF0B80A8AF389C40390B7D70FE2E64F9031B026A770D6E40ECEF2599AEE4C944823429868900758442D52740AC2B156228ABAABAF5D0F76FA4D22F9C2B532794D72F944F34979D9A8468EACC12167217AA4574CF1B402E5
311
625D8D962222E4E66CBC78384BDAC671285E8DE03DBABBF1691830EC3CE32CEA058A437A101114E57DDBF5553B545DFFDEBE6CBA61338C553B6EDA9635D9CED9EC9C29973006BC5B897436828D9477ACC9E347F88A8F28ED91B5F3A73F804400A5F542E796F19FF934E7F78DB83CFE05FC07504B0304140006080800D7498C
311
403B45D1A4A205000080100000340000006662782F45303035314133352D303732352D344346412D414239302D3942413133343543414231462F6F626A656374732E786D6CAD57DB6EDB3810FD1541FBB2FBE0BB933A0B458563378551A42D6AB4D807030625510A37D40524953AFBF57B285237D74EBD8BBE5816351CCE9C
311
3973A1F7F69072E7990AC9F2ECD69D0CC7AE43B3308F5896DCBAA58A070BD779EB7B22CF5547CC753292D25B572FBBBE9788BC2CEC524463527275B47A7FF79723439A51D7093991F2D695E1234DC990942A8FA87C1A46449161121F8693A111ECAB4D04291E8F941644D04CC152AC67D0E218A326FDD7B13BF2BD91FEEE7B
311
FAD74ACDCE4B8D2A7FFAE7B34C2A92853F1C76A4663699AFDF4DAF6E0657F3F96C30BF9E4E0677F777EBC1E4CD6CBCBA5EAD6E96EF6E70B054029AAC2582C6AEFF1ED808167A23F3C9F74A96A9D9D48AD8008D047D663A52AE3F7526DEC8C834DE59274F991FE65946C30A2BA051F9675547B4A0598498332A615907A171FF
311
75A271EC7C9EE9777B6477F93204BA3B3A8A6ADBEB67D7D23CF81B2EC84B182424D50C34585A470D57C72DC2419E73FB8D4927258A0A46B8C359208878717D886A11DFEBA9D14C163A1BB407AE8F2898CF7DBA208D7ECEF35356C625E79AC6AE5F65C11EB94295AC2C63FF50D15ADF45063621569A0D0BEB907A29A8EBDF18
311
8A2C8ED8648074624E12841C6EEA9DB3E991A32B9DA79BB5EB7FB80F0E5B9DBBA70F2F445E50A1347D40AD3A70F553A3646D9A5C1439BDC13D32A505E50B90FF88546F4D41DC043BCC0F737B8A122493712E52C4C6193B83317EC6CEA4FAD5FF3BFFBC51B3B91FBD737822D81AAA5F8067DF876E2C3B70FADE33089F8B9975
311
6D1B128EB2F1C03200A449E2F01C4BA8C3717070FD0DAA1CAA327611EE4FE032CC7DC65F6F64D5A0505427759E19B03C2A8B171468C05631126618F25B03DB38FD50CEAA83ADD83978AF7E095D97EBED876D296212D2079BD36B1AB38C29B4B896375D837A98F73C7AA22FDF7311C1D11FF1DE76F14EED5112686BCC35F049
311
5DD3F54B7B72EF8010FB925C971BEF2727C009DD583BFA1F980C29E724A379599FFB6AFF40DB3010EB64D74C6E1A4CDB58401AF3E52807D1A443C10A0D62D3AD9AA2393CE3DDD7CD473012F23C0F086F8582B6F48639CFC53E78D99BAA7412E96F7D6A5B08465A0BD85EE5489DFE16F37DC4E2B894A8812760FDB6597543A7
311
AB022A44ADD524CB1CEE23B788B09CADF5A2590B82469A677B86B689B43B7940573F10B504A8149EB358521EEF19E765BA8F194733DAA7A43803C7FFB73F28D3624FD2BCCCD419DD3DD3D11CFAB6F7C82BBF13153EBAFEB67A0EEE507A231AB561EE09EB567202AB5E6857F3F5F26EFA6E3558DEBD990EE657B39BC1623D5D
311
0CE66FEEC7D3EBD96CB958CEEB3819E5BE57779A6E42234AE86C5E29980DDFD70DD2C7D600D77F204AEEDE9BECAC9F5F37438CC2DE087BD02E9B8DCBE819631F8D7EAEA0953CA96893169CA6345344A7D083FEC3BF108C193D63CCFA262509BD40CBA7F7DB2367B072C1BECF3ADDE9F7A3BD7675A513F2A412F558A6414618
311
3FDA98182487459658FCEA98344FD367EA57FD660383C154E69C4528839193D03CA50AC5F0821E24522A41BDEE481FD9ABC705BB9FCD80A848C0696DC923C18CCC25D202D42A43D55F777EC34CA7C7AA5B17DD76F8841F5B295C079CB97531A32B1652390CD09FF52454290797BA833CE67E92251CA3B6D9D4BC37BB3436BD
311
8EDC885C323E59BF4C05B70EA08C14181B300F213A9531BE57D966BF87FFC9F1DA1C8728FC0D4AD5F8D22E34CE54C720458D53F6B28019E6C91E7D40A2BEEED66458C9F410B9E892F52A098CD6812222A92E0ADA3E6BD272FD798401C5D97C720A5E2688E5E59A068282CCA54E70B008ACB03A0BA240D5D59FBBCF22C74536
311
75EE1928E0FC7E585CFFB15BE5699A676669B7B4D76167FB88CB6DB44371A0FA562277D3F164BAAB6E03F682B20F88A44312C9272C20B2823540F7C20F5E9A2B23FA90F9D0C88D74288E18BA593BB6B1A1D2D6F2DDDAAAC1C1DC91510739A46F943A63BA02C5AB178251250A13044679FF5F504B0304140006080000D7498C
311
40000000000000000000000000350000006662782F45303035314133352D303732352D344346412D414239302D3942413133343543414231462F76657274696365732E62696E504B0304140006080800D7498C40F270F1330600000004000000360000006662782F45303035314133352D303732352D344346412D41423930
311
2D3942413133343543414231462F747269616E676C65732E62696E636660600000504B0304140006080000D7498C40000000000000000000000000370000006662782F45303035314133352D303732352D344346412D414239302D3942413133343543414231462F617474726962757465732E62696E504B03041400060808
311
00D7498C40D5987DFC8F00000041010000360000006662782F45303035314133352D303732352D344346412D414239302D3942413133343543414231462F6469726563746F72792E786D6C858F410EC2201045AF4266AF15DDB800BA74E7C21B903225242D6328188F2FA5C4183471359997F9FF81E89FF3C41E1816475E02
311
DF1F80A11FC8386F25A438EECEC07A250251FC3803E6F58C12560C4AD840E95E91C151A72936F496F35732D860FE635F62C8F2DA16B505C545B74125BAA2FA9E05D7CC053D063734D5C7665FD55B6B8D15D5E9BFEAFD8490FFA45E504B0304140006080800D7498C40FE2E59E8FC000000A00100003B0000006662782F4530
311
3035314133352D303732352D344346412D414239302D3942413133343543414231462F7265736F75726365732F636F72652E786D6C8D504B6E833010BD0A9ABDC180EB50641C45283D412F609909B512ECC89FAAC7AF9D50A9DD7533337A1FCDD313C7AFED567DA20FC6D909DA9A428556BBC5D87582142F6480EA2885772E
311
FE924165D586131418A458BD4BF71DD2CE46B431A3D62DB8832A048C50E95B3E2608FA033755AB14B3225CEBBBD257B562DDD699CE3A2942F43940F57C5226488FC125AF3188E6C94A919259768D59F24F7331E841D203E32F33E7A49BE737C2E69E92D3F9349081B113EF797FE68783688A598A68B69F8CDAA38AB880EC68
311
DB11CA48DBBDD3D7B16523E384F29152D114F91F53BA2FFF34256363DFED719FB600B2CD411E84144DE92BAF479979976EE537504B010214000A0000080000D7498C403DEE336E79000000790000001B00000000000000000000000000000000006175746F6465736B2D64657369676E2D7061636B6167652E786D6C504B01
311
021400140006080800D7498C40D486FD9CA0000000F40000001300000000000000000000000000B20000005B436F6E74656E745F54797065735D2E786D6C504B01021400140006080800D7498C40ED857770E90000007C010000080000000000000000000000000083010000636F72652E786D6C504B010214001400060808
311
00D7498C4055019EA25F0000007C000000070000000000000000000000000092020000636E782E786D6C504B01021400140006080800D7498C40628FC18866010000020300000C00000000000000000000000000160300006662782F636F72652E786D6C504B01021400140006080800D7498C4009DCDEB47E0000009D0000
311
000B00000000000000000000000000A60400006662782F636E782E786D6C504B01021400140006080800D7498C402720CB812C0100001502000031000000000000000000000000004D0500006662782F45303035314133352D303732352D344346412D414239302D3942413133343543414231462F636F72652E786D6C504B
311
01021400140006080800D7498C40DBAB828E4C010000330300003000000000000000000000000000C80600006662782F45303035314133352D303732352D344346412D414239302D3942413133343543414231462F636E782E786D6C504B01021400140006080800D7498C403B45D1A4A20500008010000034000000000000
311
00000000000000620800006662782F45303035314133352D303732352D344346412D414239302D3942413133343543414231462F6F626A656374732E786D6C504B01021400140006080000D7498C400000000000000000000000003500000000000000000000000000560E00006662782F45303035314133352D303732352D
311
344346412D414239302D3942413133343543414231462F76657274696365732E62696E504B01021400140006080800D7498C40F270F13306000000040000003600000000000000000000000000A90E00006662782F45303035314133352D303732352D344346412D414239302D3942413133343543414231462F747269616E
311
676C65732E62696E504B01021400140006080000D7498C400000000000000000000000003700000000000000000000000000030F00006662782F45303035314133352D303732352D344346412D414239302D3942413133343543414231462F617474726962757465732E62696E504B01021400140006080800D7498C40D598
311
7DFC8F000000410100003600000000000000000000000000580F00006662782F45303035314133352D303732352D344346412D414239302D3942413133343543414231462F6469726563746F72792E786D6C504B01021400140006080800D7498C40FE2E59E8FC000000A00100003B000000000000000000000000003B1000
311
006662782F45303035314133352D303732352D344346412D414239302D3942413133343543414231462F7265736F75726365732F636F72652E786D6C504B0506000000000E000E0080040000901100000000
310
504B03040A0000080000D7498C403DEE336E79000000790000001B0000006175746F6465736B2D64657369676E2D7061636B6167652E786D6C3C3F786D6C2076657273696F6E3D22312E302220656E636F64696E673D227574662D3822203F3E3C666F726D6174733E3C666F726D61743E687474703A2F2F736368656D612E
310
6175746F6465736B2E636F6D2F64657369676E2D7061636B6167652F323030393C2F666F726D61743E3C2F666F726D6174733E504B0304140006080800D7498C40D486FD9CA0000000F4000000130000005B436F6E74656E745F54797065735D2E786D6C7D8EC10E82300C865F65E91D8A1E8C310C0EEA1BF002731658846E
310
D98AC1B77784ABF1D8FE5FBFBF75BBCE937A534CCEB38643598122B6FEE978D0B0485F9C41B54DDD7D022595594E1A469170414C76A4D9A4D207E29CF43ECE46F218070CC6BECC4078ACAA135ACF422C856C0E68EA1BF5669944DDD7BCDE7B1F8E415D77AECB980613C2E4AC91FC167A2B244592486606FC29C8FD7F045B9A
310
EF7053A7E60B504B0304140006080800D7498C4069EA8ADFED0000007C01000008000000636F72652E786D6C7590D18E832010457F85CC3B0AD4B56A904637F60BF60708524B5AC1086CF6F3175B9B6C1FF6692677EE99995C7EFA99EFE85BAFDE38DB02CD08206D951B8D9D5A88E1822B4027C157E7C21F1B202B67DDC226
310
83E0D3EAE2B24BCAD9A06D48AA75A3DE45E9BD0E80D43D352D7875D5B3CC640CC9E16FD922D54D4E3AA3AF2EC1319A113D8F9831ED3317A35710FDB1645D557CE04339D4B838D31E5775DFE12361433D0C5DC53ECF3CDF60C183995FF7D5AA65D023084628C3A4C0947D91BAA145935691B22184E79BFD0D8ACBF81F54E237
310
281A1B0E6C7FF7897910343DF218089E6F59A4F2082AD52D37F10B504B0304140006080800D7498C4055019EA25F0000007C00000007000000636E782E786D6C4DCB3B0E80201045D1AD90E915ED2CF8AC45050C11660C8261F98AB1B07AC9C97D42D718D865D3E909258CFD00CCE24AC6E326A164D74DC0B4128928FF3260
310
38472BA13128B1252AC747C6BAB984FC68F0B87FE8960A5C09FE86CFB69FBA01504B0304140006080800D7498C401C62AE266A010000020300000C0000006662782F636F72652E786D6C8D525B6E833010BC8AE57F63432881C8384AAAE404BD80030E45011B191BE5F85D1E114D95561592B17676766607F8FEDE366850B6
310
AF8DCE7118308C942E4C59EB2AC7DE5D498AD15E706B8CFBD6869196ADCAF158C68257D6F86E2915463BA51D54B529D552947DAF1C464503971CF7C5A76A6520BD838EFE1674B2B8C94A05610030F409DE3B0B06D02C329E585C2F774EE7BAE0DED7E582D625A8D5D75A592C8EDB243AA4F11BD924A78CC4E7F048D2EC7820
310
5B169DB2D3E99046EF674E47B2E0AE6E1FEE0AABA4532516110B23C26212461F2CDB85F10E46B164C718A763FB13C977E56FA4843C917CADDD265AECCEB41E8B108C4CC08F6D2122877A39801F2A381D4384D794F073D0100884ECE4A579EC7183D2A00A676C0C4869FC0A0DB2F10A54199A1E4E6714264F0360B39773A23F
310
E6FC3D033EA0D41558930EAE17EF46753EAB2E5174CA92C1DD9136B695CD6A6EB6B89EABD04B7A611A63FFC3A6CBAA7409938E7FAFF802504B0304140006080800D7498C4013F843717D0000009D0000000B0000006662782F636E782E786D6C4DCCD10A83201886E15B91FFDCF5AF5653506313BA8F581632D3703A76F9AB
310
E8A0A30F1E3E5ED1FE6647BE267E6CF012AE170462FC2B0CD64F12721A2903D22A114348A71B10DFCF46C2C6A0C414435E0E1ACCD867975675D6BF0FC4AAAA4BCD34D5AC417A6325D247C735E5ECD9D588F74673844289622FADBB85D51F504B0304140006080800D7498C40D02677952F0100001502000031000000666278
310
2F30333335324338432D433836302D343832302D414639432D3938424635303037364339302F636F72652E786D6C8D51CB6EC32010FC158B537AC0C18F501C61A2D652BEA03FE000495162B07854F9FC2EB52335874ABDB06876667660F9E13EDD8A2FED8371B647554950A1AD74CAD84B8F523C63868A83E0DEB9F88B860A
310
3B4EBA471946825FBC4BF30A4967A3B61150EB945EC131041D51216F70E951909F7A1ACB314560846B398FF23A5E745995D0069EE0217A08502C43F28904699A5D3DB0010F8C12DCB29AE0B76337E08EBD1F7784BCD2A1237CBB08054FC9A8556E14C43167A3FD7F4DB258F068A6477CE9F518B542A226558D498BABFA8374
310
FBAADDB73B4CE89EC0E44C7F12A559FD25A2CFA2646C6CEA35EE220B48547CBB3404572E9D6E8F30FA3E3B1F8B3C6F13B47C8157958430FADA32069A850B3F00A6B45D4D43741E7E78733D01BD015676A6ADE0DBBC24283F1B849A172ABE01504B0304140006080800D7498C40BE33C10B5401000033030000300000006662
310
782F30333335324338432D433836302D343832302D414639432D3938424635303037364339302F636E782E786D6CBD93CD6EC32010845F0571F76F5C2B8D30917AE813F4D02B864D426383C54FD5BC7D9784A4B9E450A9EA0559B3C3CCEA1366DBAF79229FE0BCB666A04D595302465AA5CD7EA031EC8A35255BCE9CB5E1CE
310
468911330C34C994B3BDB371C992829D88534075D2E6984507DE4627C1A39C6E92C94A3161009822A208F3084A812237237EEDC0E12A288E27120E405E5FDE891D3F4006CFAA94C259953A384B676EBA33512227E1FD40BD3CC02C4A118355E08FA51241944D79ED7AB0D34F124917AE95D16992CA079A4ECAF34625726415
310
0E39F3C121BD6C0AA7052817CB3269290242AECEC68B87B3A84DE8BBECD508DEA17BD5F6EB35869D679C053D437648072280A2BCAD9BB6A8BBA269DFEAE74DD36DBAA7A2EE3775CDAA64E76CB476CA9730069C5D88B42680099437AC4AE347F8B28F28ED90B575A75F804400B9F542E796F1977C9A7ED575FFC8A73ABF6FC4
310
E5F02FE0DF504B0304140006080800D7498C401C88D70B62070000991B0000340000006662782F30333335324338432D433836302D343832302D414639432D3938424635303037364339302F6F626A656374732E786D6CED595B73A33614FE2B0C7D691F8C8DED64930EA1E3D89B1DCF4E7677EA6EA70F9E616490891A2118
310
49E4D25FDFA30B188849709BBEF5C106847474CE77AE3A04BF3C65D479C05C909C5DB9BE37711DCCE23C212CBD724BB91F5DB8CE2F61C0F35C36A6B90E4319BE72D5B01B0629CFCBC20E25788F4A2A3BA337D77F3822C60CBB4E4C911057AE88EF70863C54CA3CC1E2DE4B90445EBA7FF27CCF4C6C934D392AEE3A440BC431
310
93C0298C33A0E218A6FCF6E3C41D87C158BD0F03F56F67CD06CD9AF7CF1A6BA9DB5C12262462F10B963A646683589AF9F3D5C7E9D9E5E86C3E9F8DE6E7537F747D73BD1AF91F6693E5F97279B9F87809ECEDF29C5A99125C609680FE9EDDD00FC6EA4D2DBA45E018D771CE188E3590009516AB4B9060015B35E09BB41F7D25
310
51E3B596B0F13C57EF2D0B8DE1599B4ADFAC6140B4E8822076BB4AE2EADA942FDFFD09828B2146C90596C0AD901CB46BE1E1E0156E3809C666340C76075D10E16448624E107528D971C4412930554D0903B3C09251CEC18194A324D09A33AFDBB6059EF9B6EB1CE3725F52AA3CC30DB56345E07E580ACD19F90BF303F74D64
310
802790B6244C5E582EE57381DDF03218EBC1305097D9D4BE34403A7B8A52A111316F3B822E95EBAF576EF8F966F7B451E1E0F8E605CF0BCCA5323AA547CD1718B2BD2A94ECB6FE20CDA905208C01D5AE3C80F22B20FF05A2C78115D01B274FF3A7B99D2B3962629FF30C74E34C9CD104FE268EAFFFD57DE32E18D78BDBDAEB
310
C313DC544175F1EFF16CCBA0B1B2FC37E00C830730F89CCFECAB4D8C28D8F32D610090321287E63004A17DBF7B72C335044E08F4B00AD1D0079181DD07B80DC696CC412B957B59AF6380A8DD63364449009BB64860A3474F9F207B70121FD4D414B10FDEB37731D7C56AF37953F23D8AF1ADF5E915DE13462464CDE30CB530
310
6F49748F9F1F739E80A02FF1DE34F1CEEC5602D056982BE0D30A04F570D8B9B5410CEBD25C859BE08D1D400895AB1BF46F898831A588E1BCACF6ADA39B32D4DAE36DCDE0865303F16CDA31618E1F88AA2AC0690E335A8C42DE8F392914886EF8C94856074DAF47BAEFEB2F6091F5FC9E596B06A19721FA9B0E5A4770685976
310
85B405A216787708E7714E731EED9E2313E95CA825808DB6B7FCDE220AB1DE284951010FD27E578594D4481B2564BF2F05C4D5232CFEBE5E36CD61E2CDFC33A7F9DF71C639445BF05DC4ADDF75F6884886521CED51D2B75D73B79AB6D0247B4873BCA720177920F23942329A24383D059A93885FBE2BF594E642108605E4AB
310
A3E037D1987810488C362B9695563B4013116558227A0A028A4C0FB83AEDE81A3786D2E16D1E6BEB7D4D634DA2FF91457004B564CE2202A528E4903719F7BD3388216D740DCA1D7CC1DA2ADA5A0C5A4209113F478F98A477F214D40DF91EDC6338929432CA0B1483590F20FBC25794523BBCEF507CAFF2471497F4BD0C4460
310
BA8F08A56516C18F3038790C71ED3A30BD8A4283B8897D126750942159F2219B9C9F4D5EEC636A866E086C6CB42714C27694A1A207F55640D4F58853836FA9F7287557664584B2BC64830CC59B75BDC992EFAA55911DC8AF2A15A16CAC085B82614098ACB36A15B3C1D475600537D281EA3912282BA83985BD9178FCDA9B34
310
E5DE0DB8F5D3F7DD2083C2AF477BCD883AAF60B03CB60A03F188647CE7861B7D1D5D43FD9DE0E490EAAB5AB3590102622A92979C58157D5F4379636B3437BC45526C3F99AC5B5DBFAF3DE87E04635803B54BBD70AD80CE3093485526B7EA86FE8A2004B76898F1B5CAA9A750592489AE1A11BD217DEA6C9511AD4D33E21577
310
98E519FCD896B0989609DEA244DC47B792461BA258B7527A19A9307E55C0AF9F361D7860648048DF5481871F3B6BEDE852954B4789C8BB32DB31442008B6444B8D6EBC82A556239596EBAB3A5340DD050666553CFFFF64D16C47FC7FB248AD61FCBB9305CD77881EA24D239BC7CAAC4F3A05D4E94951798F5380EE3AD454EB
310
246272B915DFFA520431B10AF2838BB12A6618827D1CFFE3A4DD9704CD761DFE4F4BDAFE8B82E3A4A4D29AAC9A54470AD77533852DE7ABC5F5F4E372B4B8FE301DCDCF6697A38BD5F46234FF7033999ECF668B8BC5BC4653FB6918D4B14CA72E783631AD1A564F160368CA8A9C92040EF389936208F9128EF403BAE73CC302
310
7267B3D79DD89EFC80D50FA6CD29D18EE28A933B04FD612A20AB0346652CDBE3CE0FD0999470CEBE72A167E4DDC39FB54AD781C473E542A74092180B6F075D26D5CFD3C421E3EAD46F89013E88A52A239A45F573BD4A61D38AFEF5942159C0CAD56A6140DD5640F3ABD5A0D0BC599EE29304AFD8719084DB5D29A15833B21C
310
066A61F43607F51BD92861F776EB2770DDD7C5F23D3DA785C8A02F06AF1A81A13A9288A7BADDAD18B32C2D56DFC6D06673D65F9D829629E87238A511C760CCA5AAA7C08AC02A2CCD024930D5E5CFDB6F3C872F3C99A38B22E7C7A78BF39FB6CB3CCB726686B60B389425F09DC8D9DCC1579F640BB50356BD75B19D4EFCE956
310
F7B46D9B3DDA21813D5514C140554B28413A260776F9A23F65BB9763A58ACEF4F5CAB141147A01C68E5EB478CD372E077C487D4D511EA3FDBC92F6D5B6F6584F059BE0D0900EFF06504B0304140006080000D7498C40000000000000000000000000350000006662782F30333335324338432D433836302D343832302D4146
310
39432D3938424635303037364339302F76657274696365732E62696E504B0304140006080800D7498C40F270F1330600000004000000360000006662782F30333335324338432D433836302D343832302D414639432D3938424635303037364339302F747269616E676C65732E62696E636660600000504B03041400060800
310
00D7498C40000000000000000000000000370000006662782F30333335324338432D433836302D343832302D414639432D3938424635303037364339302F617474726962757465732E62696E504B0304140006080800D7498C40D5987DFC8F00000041010000360000006662782F30333335324338432D433836302D343832
310
302D414639432D3938424635303037364339302F6469726563746F72792E786D6C858F410EC2201045AF4266AF15DDB800BA74E7C21B903225242D6328188F2FA5C4183471359997F9FF81E89FF3C41E1816475E02DF1F80A11FC8386F25A438EECEC07A250251FC3803E6F58C12560C4AD840E95E91C151A72936F496F357
310
32D860FE635F62C8F2DA16B505C545B74125BAA2FA9E05D7CC053D063734D5C7665FD55B6B8D15D5E9BFEAFD8490FFA45E504B0304140006080800D7498C40BFC3DAE3FD000000A00100003B0000006662782F30333335324338432D433836302D343832302D414639432D3938424635303037364339302F7265736F757263
310
65732F636F72652E786D6C8D504B6E833010BD0A9ABDC17668029171041539412F609909B112ECC89FAAC7AF49A8D4EEBA9919BD8FE6E989D3D7722F3ED107E36C07ACA450A0D56E3276EE20C50B69A03849E19D8BBF645058B560072B0C52CCDEA5C706696723DA9851EB26DC4015024628F43D1F1D047DC545952AC5AC08
310
B7F2A1F44DCD58B232D3592745883E07285E4FD609D26370C96B0CA27AB152A464A64D63A6FCD35C0C7A90C361CFFBA6AEC96E3FB6A43EB38134EDD09303E5633B8E7DC3DFCFA25ACD5244B3FC64D41E55C40924A78C135A13C63F687B64F5B17E23747FA45454ABFC8F293DA67F9A92B171C7B7B82F5B00C97290272145B5
310
F695D7B3CCBCD76EE537504B010214000A0000080000D7498C403DEE336E79000000790000001B00000000000000000000000000000000006175746F6465736B2D64657369676E2D7061636B6167652E786D6C504B01021400140006080800D7498C40D486FD9CA0000000F40000001300000000000000000000000000B200
310
00005B436F6E74656E745F54797065735D2E786D6C504B01021400140006080800D7498C4069EA8ADFED0000007C010000080000000000000000000000000083010000636F72652E786D6C504B01021400140006080800D7498C4055019EA25F0000007C000000070000000000000000000000000096020000636E782E786D
310
6C504B01021400140006080800D7498C401C62AE266A010000020300000C000000000000000000000000001A0300006662782F636F72652E786D6C504B01021400140006080800D7498C4013F843717D0000009D0000000B00000000000000000000000000AE0400006662782F636E782E786D6C504B010214001400060808
310
00D7498C40D02677952F010000150200003100000000000000000000000000540500006662782F30333335324338432D433836302D343832302D414639432D3938424635303037364339302F636F72652E786D6C504B01021400140006080800D7498C40BE33C10B54010000330300003000000000000000000000000000D2
310
0600006662782F30333335324338432D433836302D343832302D414639432D3938424635303037364339302F636E782E786D6C504B01021400140006080800D7498C401C88D70B62070000991B00003400000000000000000000000000740800006662782F30333335324338432D433836302D343832302D414639432D3938
310
424635303037364339302F6F626A656374732E786D6C504B01021400140006080000D7498C400000000000000000000000003500000000000000000000000000281000006662782F30333335324338432D433836302D343832302D414639432D3938424635303037364339302F76657274696365732E62696E504B01021400
310
140006080800D7498C40F270F133060000000400000036000000000000000000000000007B1000006662782F30333335324338432D433836302D343832302D414639432D3938424635303037364339302F747269616E676C65732E62696E504B01021400140006080000D7498C400000000000000000000000003700000000
310
000000000000000000D51000006662782F30333335324338432D433836302D343832302D414639432D3938424635303037364339302F617474726962757465732E62696E504B01021400140006080800D7498C40D5987DFC8F0000004101000036000000000000000000000000002A1100006662782F30333335324338432D
310
433836302D343832302D414639432D3938424635303037364339302F6469726563746F72792E786D6C504B01021400140006080800D7498C40BFC3DAE3FD000000A00100003B000000000000000000000000000D1200006662782F30333335324338432D433836302D343832302D414639432D393842463530303736433930
310
2F7265736F75726365732F636F72652E786D6C504B0506000000000E000E0080040000631300000000
  0
XRECORD
  5
27
102
{ACAD_REACTORS
330
22
102
}
330
22
100
AcDbXrecord
280
     1
270
     1
271
     1
  0
XRECORD
  5
26
102
{ACAD_REACTORS
330
22
102
}
330
22
100
AcDbXrecord
280
     1
270
     1
271
     1
  0
XRECORD
  5
28
102
{ACAD_REACTORS
330
22
102
}
330
22
100
AcDbXrecord
280
     1
270
     1
271
     1
  0
XRECORD
  5
25
102
{ACAD_REACTORS
330
22
102
}
330
22
100
AcDbXrecord
280
     1
270
     1
271
     1
  0
XRECORD
  5
3FA
102
{ACAD_REACTORS
330
346
102
}
330
346
100
AcDbXrecord
280
     1
102
MATERIAL
148
0.0
149
0.0
149
0.0
 93
        0
 94
      127
282
     0
 72
     1
 77
     0
171
     1
175
     0
179
     1
273
     0
  0
XRECORD
  5
347
102
{ACAD_REACTORS
330
346
102
}
330
346
100
AcDbXrecord
280
     1
300
<Material id="RevitMaterialDefinition97641" app="REVIT" Background="0" Backlight="1" Sample="0" Tiling="0">^J<LinearUnits unitType="foot" unitScale="1.0"/>^J<ArchitecturalMaterial name="Aluminum - Kawneer - Clear">^J<ArchTemplateParameters name="Aluminum - K
300
awneer - Clear" classid_A="2008828122" classid_B="14503598">^J</ArchTemplateParameters>^J<ArchMatParameters>^J<ArchDiffuseColor>^J<RGBf r="0.8980" g="0.8980" b="0.8980"/>^J</ArchDiffuseColor>^J<ArchIndexOfRefraction>1.5000</ArchIndexOfRefraction>^J<ArchTranspare
300
ncy>0.0000</ArchTransparency>^J<ArchLuminance>0.0000</ArchLuminance>^J</ArchMatParameters>^J</ArchitecturalMaterial>^J</Material>^J
  0
CELLSTYLEMAP
  5
3BC
102
{ACAD_REACTORS
330
3BB
102
}
330
3BB
100
AcDbCellStyleMap
 90
        3
300
CELLSTYLE
  1
TABLEFORMAT_BEGIN
 90
        5
170
     1
 91
        0
 92
    32768
 62
   257
 93
        1
300
CONTENTFORMAT
  1
CONTENTFORMAT_BEGIN
 90
        0
 91
        0
 92
      512
 93
        0
300

 40
0.0
140
1.0
 94
        5
 62
     0
340
55
144
0.25
309
CONTENTFORMAT_END
171
     0
 94
        0
309
TABLEFORMAT_END
  1
CELLSTYLE_BEGIN
 90
        1
 91
        1
300
_TITLE
309
CELLSTYLE_END
300
CELLSTYLE
  1
TABLEFORMAT_BEGIN
 90
        5
170
     1
 91
        0
 92
        0
 62
   257
 93
        1
300
CONTENTFORMAT
  1
CONTENTFORMAT_BEGIN
 90
        0
 91
        0
 92
      512
 93
        0
300

 40
0.0
140
1.0
 94
        5
 62
     0
340
55
144
0.18
309
CONTENTFORMAT_END
171
     0
 94
        0
309
TABLEFORMAT_END
  1
CELLSTYLE_BEGIN
 90
        2
 91
        1
300
_HEADER
309
CELLSTYLE_END
300
CELLSTYLE
  1
TABLEFORMAT_BEGIN
 90
        5
170
     1
 91
        0
 92
        0
 62
   257
 93
        1
300
CONTENTFORMAT
  1
CONTENTFORMAT_BEGIN
 90
        0
 91
        0
 92
      512
 93
        0
300

 40
0.0
140
1.0
 94
        2
 62
     0
340
55
144
0.18
309
CONTENTFORMAT_END
171
     0
 94
        0
309
TABLEFORMAT_END
  1
CELLSTYLE_BEGIN
 90
        3
 91
        2
300
_DATA
309
CELLSTYLE_END
  0
XRECORD
  5
3F2
102
{ACAD_REACTORS
330
3BB
102
}
330
3BB
100
AcDbXrecord
280
     1
102
ACAD_ROUNDTRIP_PRE2007_TABLESTYLE
 90
      512
 91
        0
  1

 92
      512
 93
        0
  2

 94
      512
 95
        0
  3

  0
XRECORD
  5
3CD
102
{ACAD_REACTORS
330
3CC
102
}
330
3CC
100
AcDbXrecord
280
     1
102
RTVSPropertyOp0
 70
     1
102
RTVSPropertyOp1
 70
     1
102
RTVSPropertyOp2
 70
     1
102
RTVSPropertyOp3
 70
     1
102
RTVSPropertyOp4
 70
     1
102
RTVSPropertyOp5
 70
     1
102
RTVSPropertyOp6
 70
     1
102
RTVSPropertyOp7
 70
     1
102
RTVSPropertyOp8
 70
     1
102
RTVSPropertyOp9
 70
     1
102
RTVSPropertyOp10
 70
     1
102
RTVSPropertyOp11
 70
     1
102
RTVSPropertyOp12
 70
     1
102
RTVSPropertyOp13
 70
     1
102
RTVSPropertyOp14
 70
     1
102
RTVSPropertyOp15
 70
     1
102
RTVSPropertyOp16
 70
     1
102
RTVSPropertyOp17
 70
     1
102
RTVSPropertyOp18
 70
     1
102
RTVSPropertyOp19
 70
     1
102
RTVSPropertyOp20
 70
     1
102
RTVSPropertyOp21
 70
     1
102
RTVSPropertyOp22
 70
     1
102
RTVSPropertyOp23
 70
     1
102
RTVSPropertyOp24
 70
     1
102
RTVSPropertyOp25
 70
     1
102
RTVSPropertyOp26
 70
     1
102
RTVSPropertyOp27
 70
     1
102
RTVSPropertyOp28
 70
     1
102
RTVSPropertyOp29
 70
     1
102
RTVSPropertyOp30
 70
     1
102
RTVSPropertyOp31
 70
     1
102
RTVSPropertyOp32
 70
     1
  0
XRECORD
  5
3CB
102
{ACAD_REACTORS
330
3CA
102
}
330
3CA
100
AcDbXrecord
280
     1
102
RTVSPropertyOp0
 70
     1
102
RTVSPropertyOp1
 70
     1
102
RTVSPropertyOp2
 70
     1
102
RTVSPropertyOp3
 70
     1
102
RTVSPropertyOp4
 70
     1
102
RTVSPropertyOp5
 70
     1
102
RTVSPropertyOp6
 70
     1
102
RTVSPropertyOp7
 70
     1
102
RTVSPropertyOp8
 70
     1
102
RTVSPropertyOp9
 70
     1
102
RTVSPropertyOp10
 70
     1
102
RTVSPropertyOp11
 70
     1
102
RTVSPropertyOp12
 70
     1
102
RTVSPropertyOp13
 70
     1
102
RTVSPropertyOp14
 70
     1
102
RTVSPropertyOp15
 70
     1
102
RTVSPropertyOp16
 70
     1
102
RTVSPropertyOp17
 70
     1
102
RTVSPropertyOp18
 70
     1
102
RTVSPropertyOp19
 70
     1
102
RTVSPropertyOp20
 70
     1
102
RTVSPropertyOp21
 70
     1
102
RTVSPropertyOp22
 70
     1
102
RTVSPropertyOp23
 70
     1
102
RTVSPropertyOp24
 70
     1
102
RTVSPropertyOp25
 70
     1
102
RTVSPropertyOp26
 70
     1
102
RTVSPropertyOp27
 70
     1
102
RTVSPropertyOp28
 70
     1
102
RTVSPropertyOp29
 70
     1
102
RTVSPropertyOp30
 70
     1
102
RTVSPropertyOp31
 70
     1
102
RTVSPropertyOp32
 70
     1
  0
XRECORD
  5
3D9
102
{ACAD_REACTORS
330
3D8
102
}
330
3D8
100
AcDbXrecord
280
     1
102
RTVSPropertyOp0
 70
     1
102
RTVSPropertyOp1
 70
     1
102
RTVSPropertyOp2
 70
     1
102
RTVSPropertyOp3
 70
     1
102
RTVSPropertyOp4
 70
     1
102
RTVSPropertyOp5
 70
     1
102
RTVSPropertyOp6
 70
     1
102
RTVSPropertyOp7
 70
     1
102
RTVSPropertyOp8
 70
     1
102
RTVSPropertyOp9
 70
     1
102
RTVSPropertyOp10
 70
     1
102
RTVSPropertyOp11
 70
     1
102
RTVSPropertyOp12
 70
     1
102
RTVSPropertyOp13
 70
     1
102
RTVSPropertyOp14
 70
     1
102
RTVSPropertyOp15
 70
     1
102
RTVSPropertyOp16
 70
     1
102
RTVSPropertyOp17
 70
     1
102
RTVSPropertyOp18
 70
     1
102
RTVSPropertyOp19
 70
     1
102
RTVSPropertyOp20
 70
     1
102
RTVSPropertyOp21
 70
     1
102
RTVSPropertyOp22
 70
     1
102
RTVSPropertyOp23
 70
     1
102
RTVSPropertyOp24
 70
     1
102
RTVSPropertyOp25
 70
     1
102
RTVSPropertyOp26
 70
     1
102
RTVSPropertyOp27
 70
     1
102
RTVSPropertyOp28
 70
     1
102
RTVSPropertyOp29
 70
     1
102
RTVSPropertyOp30
 70
     1
102
RTVSPropertyOp31
 70
     1
102
RTVSPropertyOp32
 70
     1
  0
XRECORD
  5
3E1
102
{ACAD_REACTORS
330
3E0
102
}
330
3E0
100
AcDbXrecord
280
     1
102
RTVSPropertyOp0
 70
     1
102
RTVSPropertyOp1
 70
     1
102
RTVSPropertyOp2
 70
     1
102
RTVSPropertyOp3
 70
     1
102
RTVSPropertyOp4
 70
     1
102
RTVSPropertyOp5
 70
     1
102
RTVSPropertyOp6
 70
     1
102
RTVSPropertyOp7
 70
     1
102
RTVSPropertyOp8
 70
     1
102
RTVSPropertyOp9
 70
     1
102
RTVSPropertyOp10
 70
     1
102
RTVSPropertyOp11
 70
     1
102
RTVSPropertyOp12
 70
     1
102
RTVSPropertyOp13
 70
     1
102
RTVSPropertyOp14
 70
     1
102
RTVSPropertyOp15
 70
     1
102
RTVSPropertyOp16
 70
     1
102
RTVSPropertyOp17
 70
     1
102
RTVSPropertyOp18
 70
     1
102
RTVSPropertyOp19
 70
     1
102
RTVSPropertyOp20
 70
     1
102
RTVSPropertyOp21
 70
     1
102
RTVSPropertyOp22
 70
     1
102
RTVSPropertyOp23
 70
     1
102
RTVSPropertyOp24
 70
     1
102
RTVSPropertyOp25
 70
     1
102
RTVSPropertyOp26
 70
     1
102
RTVSPropertyOp27
 70
     1
102
RTVSPropertyOp28
 70
     1
102
RTVSPropertyOp29
 70
     1
102
RTVSPropertyOp30
 70
     1
102
RTVSPropertyOp31
 70
     1
102
RTVSPropertyOp32
 70
     1
  0
XRECORD
  5
3D3
102
{ACAD_REACTORS
330
3D2
102
}
330
3D2
100
AcDbXrecord
280
     1
102
RTVSPropertyOp0
 70
     1
102
RTVSPropertyOp1
 70
     1
102
RTVSPropertyOp2
 70
     1
102
RTVSPropertyOp3
 70
     1
102
RTVSPropertyOp4
 70
     1
102
RTVSPropertyOp5
 70
     1
102
RTVSPropertyOp6
 70
     1
102
RTVSPropertyOp7
 70
     1
102
RTVSPropertyOp8
 70
     1
102
RTVSPropertyOp9
 70
     1
102
RTVSPropertyOp10
 70
     1
102
RTVSPropertyOp11
 70
     1
102
RTVSPropertyOp12
 70
     1
102
RTVSPropertyOp13
 70
     1
102
RTVSPropertyOp14
 70
     1
102
RTVSPropertyOp15
 70
     1
102
RTVSPropertyOp16
 70
     1
102
RTVSPropertyOp17
 70
     1
102
RTVSPropertyOp18
 70
     1
102
RTVSPropertyOp19
 70
     1
102
RTVSPropertyOp20
 70
     1
102
RTVSPropertyOp21
 70
     1
102
RTVSPropertyOp22
 70
     1
102
RTVSPropertyOp23
 70
     1
102
RTVSPropertyOp24
 70
     1
102
RTVSPropertyOp25
 70
     1
102
RTVSPropertyOp26
 70
     1
102
RTVSPropertyOp27
 70
     1
102
RTVSPropertyOp28
 70
     1
102
RTVSPropertyOp29
 70
     1
102
RTVSPropertyOp30
 70
     1
102
RTVSPropertyOp31
 70
     1
102
RTVSPropertyOp32
 70
     1
  0
XRECORD
  5
3D7
102
{ACAD_REACTORS
330
3D6
102
}
330
3D6
100
AcDbXrecord
280
     1
102
RTVSPropertyOp0
 70
     1
102
RTVSPropertyOp1
 70
     1
102
RTVSPropertyOp2
 70
     1
102
RTVSPropertyOp3
 70
     1
102
RTVSPropertyOp4
 70
     1
102
RTVSPropertyOp5
 70
     1
102
RTVSPropertyOp6
 70
     1
102
RTVSPropertyOp7
 70
     1
102
RTVSPropertyOp8
 70
     1
102
RTVSPropertyOp9
 70
     1
102
RTVSPropertyOp10
 70
     1
102
RTVSPropertyOp11
 70
     1
102
RTVSPropertyOp12
 70
     1
102
RTVSPropertyOp13
 70
     1
102
RTVSPropertyOp14
 70
     1
102
RTVSPropertyOp15
 70
     1
102
RTVSPropertyOp16
 70
     1
102
RTVSPropertyOp17
 70
     1
102
RTVSPropertyOp18
 70
     1
102
RTVSPropertyOp19
 70
     1
102
RTVSPropertyOp20
 70
     1
102
RTVSPropertyOp21
 70
     1
102
RTVSPropertyOp22
 70
     1
102
RTVSPropertyOp23
 70
     1
102
RTVSPropertyOp24
 70
     1
102
RTVSPropertyOp25
 70
     1
102
RTVSPropertyOp26
 70
     1
102
RTVSPropertyOp27
 70
     1
102
RTVSPropertyOp28
 70
     1
102
RTVSPropertyOp29
 70
     1
102
RTVSPropertyOp30
 70
     1
102
RTVSPropertyOp31
 70
     1
102
RTVSPropertyOp32
 70
     1
  0
XRECORD
  5
3F1
102
{ACAD_REACTORS
330
3F0
102
}
330
3F0
100
AcDbXrecord
280
     1
102
RTVSPropertyOp0
 70
     0
102
RTVSPropertyOp1
 70
     0
102
RTVSPropertyOp2
 70
     0
102
RTVSPropertyOp3
 70
     0
102
RTVSPropertyOp4
 70
     0
102
RTVSPropertyOp5
 70
     0
102
RTVSPropertyOp6
 70
     0
102
RTVSPropertyOp7
 70
     0
102
RTVSPropertyOp8
 70
     0
102
RTVSPropertyOp9
 70
     0
102
RTVSPropertyOp10
 70
     0
102
RTVSPropertyOp11
 70
     0
102
RTVSPropertyOp12
 70
     0
102
RTVSPropertyOp13
 70
     0
102
RTVSPropertyOp14
 70
     2
102
RTVSPropertyOp15
 70
     0
102
RTVSPropertyOp16
 70
     0
102
RTVSPropertyOp17
 70
     0
102
RTVSPropertyOp18
 70
     0
102
RTVSPropertyOp19
 70
     0
102
RTVSPropertyOp20
 70
     0
102
RTVSPropertyOp21
 70
     0
102
RTVSPropertyOp22
 70
     0
102
RTVSPropertyOp23
 70
     0
102
RTVSPropertyOp24
 70
     0
102
RTVSPropertyOp25
 70
     0
102
RTVSPropertyOp26
 70
     0
102
RTVSPropertyOp27
 70
     0
102
RTVSPropertyOp28
 70
     1
102
RTVSPropertyOp29
 70
     1
102
RTVSPropertyOp30
 70
     1
102
RTVSPropertyOp31
 70
     1
102
RTVSPropertyOp32
 70
     1
  0
XRECORD
  5
3DF
102
{ACAD_REACTORS
330
3DE
102
}
330
3DE
100
AcDbXrecord
280
     1
102
RTVSPropertyOp0
 70
     1
102
RTVSPropertyOp1
 70
     1
102
RTVSPropertyOp2
 70
     1
102
RTVSPropertyOp3
 70
     1
102
RTVSPropertyOp4
 70
     1
102
RTVSPropertyOp5
 70
     1
102
RTVSPropertyOp6
 70
     1
102
RTVSPropertyOp7
 70
     1
102
RTVSPropertyOp8
 70
     1
102
RTVSPropertyOp9
 70
     1
102
RTVSPropertyOp10
 70
     1
102
RTVSPropertyOp11
 70
     1
102
RTVSPropertyOp12
 70
     1
102
RTVSPropertyOp13
 70
     1
102
RTVSPropertyOp14
 70
     1
102
RTVSPropertyOp15
 70
     1
102
RTVSPropertyOp16
 70
     1
102
RTVSPropertyOp17
 70
     1
102
RTVSPropertyOp18
 70
     1
102
RTVSPropertyOp19
 70
     1
102
RTVSPropertyOp20
 70
     1
102
RTVSPropertyOp21
 70
     1
102
RTVSPropertyOp22
 70
     1
102
RTVSPropertyOp23
 70
     1
102
RTVSPropertyOp24
 70
     1
102
RTVSPropertyOp25
 70
     1
102
RTVSPropertyOp26
 70
     1
102
RTVSPropertyOp27
 70
     1
102
RTVSPropertyOp28
 70
     1
102
RTVSPropertyOp29
 70
     1
102
RTVSPropertyOp30
 70
     1
102
RTVSPropertyOp31
 70
     1
102
RTVSPropertyOp32
 70
     1
  0
XRECORD
  5
3C3
102
{ACAD_REACTORS
330
3C2
102
}
330
3C2
100
AcDbXrecord
280
     1
102
RTVSPropertyOp0
 70
     1
102
RTVSPropertyOp1
 70
     1
102
RTVSPropertyOp2
 70
     1
102
RTVSPropertyOp3
 70
     1
102
RTVSPropertyOp4
 70
     1
102
RTVSPropertyOp5
 70
     1
102
RTVSPropertyOp6
 70
     1
102
RTVSPropertyOp7
 70
     1
102
RTVSPropertyOp8
 70
     1
102
RTVSPropertyOp9
 70
     1
102
RTVSPropertyOp10
 70
     1
102
RTVSPropertyOp11
 70
     1
102
RTVSPropertyOp12
 70
     1
102
RTVSPropertyOp13
 70
     1
102
RTVSPropertyOp14
 70
     1
102
RTVSPropertyOp15
 70
     1
102
RTVSPropertyOp16
 70
     1
102
RTVSPropertyOp17
 70
     1
102
RTVSPropertyOp18
 70
     1
102
RTVSPropertyOp19
 70
     1
102
RTVSPropertyOp20
 70
     1
102
RTVSPropertyOp21
 70
     1
102
RTVSPropertyOp22
 70
     1
102
RTVSPropertyOp23
 70
     1
102
RTVSPropertyOp24
 70
     1
102
RTVSPropertyOp25
 70
     1
102
RTVSPropertyOp26
 70
     1
102
RTVSPropertyOp27
 70
     1
102
RTVSPropertyOp28
 70
     1
102
RTVSPropertyOp29
 70
     1
102
RTVSPropertyOp30
 70
     1
102
RTVSPropertyOp31
 70
     1
102
RTVSPropertyOp32
 70
     1
  0
XRECORD
  5
3C5
102
{ACAD_REACTORS
330
3C4
102
}
330
3C4
100
AcDbXrecord
280
     1
102
RTVSPropertyOp0
 70
     1
102
RTVSPropertyOp1
 70
     1
102
RTVSPropertyOp2
 70
     1
102
RTVSPropertyOp3
 70
     1
102
RTVSPropertyOp4
 70
     1
102
RTVSPropertyOp5
 70
     1
102
RTVSPropertyOp6
 70
     1
102
RTVSPropertyOp7
 70
     1
102
RTVSPropertyOp8
 70
     1
102
RTVSPropertyOp9
 70
     1
102
RTVSPropertyOp10
 70
     1
102
RTVSPropertyOp11
 70
     1
102
RTVSPropertyOp12
 70
     1
102
RTVSPropertyOp13
 70
     1
102
RTVSPropertyOp14
 70
     1
102
RTVSPropertyOp15
 70
     1
102
RTVSPropertyOp16
 70
     1
102
RTVSPropertyOp17
 70
     1
102
RTVSPropertyOp18
 70
     1
102
RTVSPropertyOp19
 70
     1
102
RTVSPropertyOp20
 70
     1
102
RTVSPropertyOp21
 70
     1
102
RTVSPropertyOp22
 70
     1
102
RTVSPropertyOp23
 70
     1
102
RTVSPropertyOp24
 70
     1
102
RTVSPropertyOp25
 70
     1
102
RTVSPropertyOp26
 70
     1
102
RTVSPropertyOp27
 70
     1
102
RTVSPropertyOp28
 70
     1
102
RTVSPropertyOp29
 70
     1
102
RTVSPropertyOp30
 70
     1
102
RTVSPropertyOp31
 70
     1
102
RTVSPropertyOp32
 70
     1
  0
XRECORD
  5
3C7
102
{ACAD_REACTORS
330
3C6
102
}
330
3C6
100
AcDbXrecord
280
     1
102
RTVSPropertyOp0
 70
     1
102
RTVSPropertyOp1
 70
     1
102
RTVSPropertyOp2
 70
     1
102
RTVSPropertyOp3
 70
     1
102
RTVSPropertyOp4
 70
     1
102
RTVSPropertyOp5
 70
     1
102
RTVSPropertyOp6
 70
     1
102
RTVSPropertyOp7
 70
     1
102
RTVSPropertyOp8
 70
     1
102
RTVSPropertyOp9
 70
     1
102
RTVSPropertyOp10
 70
     1
102
RTVSPropertyOp11
 70
     1
102
RTVSPropertyOp12
 70
     1
102
RTVSPropertyOp13
 70
     1
102
RTVSPropertyOp14
 70
     1
102
RTVSPropertyOp15
 70
     1
102
RTVSPropertyOp16
 70
     1
102
RTVSPropertyOp17
 70
     1
102
RTVSPropertyOp18
 70
     1
102
RTVSPropertyOp19
 70
     1
102
RTVSPropertyOp20
 70
     1
102
RTVSPropertyOp21
 70
     1
102
RTVSPropertyOp22
 70
     1
102
RTVSPropertyOp23
 70
     1
102
RTVSPropertyOp24
 70
     1
102
RTVSPropertyOp25
 70
     1
102
RTVSPropertyOp26
 70
     1
102
RTVSPropertyOp27
 70
     1
102
RTVSPropertyOp28
 70
     1
102
RTVSPropertyOp29
 70
     1
102
RTVSPropertyOp30
 70
     1
102
RTVSPropertyOp31
 70
     1
102
RTVSPropertyOp32
 70
     1
  0
XRECORD
  5
3C9
102
{ACAD_REACTORS
330
3C8
102
}
330
3C8
100
AcDbXrecord
280
     1
102
RTVSPropertyOp0
 70
     1
102
RTVSPropertyOp1
 70
     1
102
RTVSPropertyOp2
 70
     1
102
RTVSPropertyOp3
 70
     1
102
RTVSPropertyOp4
 70
     1
102
RTVSPropertyOp5
 70
     1
102
RTVSPropertyOp6
 70
     1
102
RTVSPropertyOp7
 70
     1
102
RTVSPropertyOp8
 70
     1
102
RTVSPropertyOp9
 70
     1
102
RTVSPropertyOp10
 70
     1
102
RTVSPropertyOp11
 70
     1
102
RTVSPropertyOp12
 70
     1
102
RTVSPropertyOp13
 70
     1
102
RTVSPropertyOp14
 70
     1
102
RTVSPropertyOp15
 70
     1
102
RTVSPropertyOp16
 70
     1
102
RTVSPropertyOp17
 70
     1
102
RTVSPropertyOp18
 70
     1
102
RTVSPropertyOp19
 70
     1
102
RTVSPropertyOp20
 70
     1
102
RTVSPropertyOp21
 70
     1
102
RTVSPropertyOp22
 70
     1
102
RTVSPropertyOp23
 70
     1
102
RTVSPropertyOp24
 70
     1
102
RTVSPropertyOp25
 70
     1
102
RTVSPropertyOp26
 70
     1
102
RTVSPropertyOp27
 70
     1
102
RTVSPropertyOp28
 70
     1
102
RTVSPropertyOp29
 70
     1
102
RTVSPropertyOp30
 70
     1
102
RTVSPropertyOp31
 70
     1
102
RTVSPropertyOp32
 70
     1
  0
XRECORD
  5
3D1
102
{ACAD_REACTORS
330
3D0
102
}
330
3D0
100
AcDbXrecord
280
     1
102
RTVSPropertyOp0
 70
     1
102
RTVSPropertyOp1
 70
     1
102
RTVSPropertyOp2
 70
     1
102
RTVSPropertyOp3
 70
     1
102
RTVSPropertyOp4
 70
     1
102
RTVSPropertyOp5
 70
     1
102
RTVSPropertyOp6
 70
     1
102
RTVSPropertyOp7
 70
     1
102
RTVSPropertyOp8
 70
     1
102
RTVSPropertyOp9
 70
     1
102
RTVSPropertyOp10
 70
     1
102
RTVSPropertyOp11
 70
     1
102
RTVSPropertyOp12
 70
     1
102
RTVSPropertyOp13
 70
     1
102
RTVSPropertyOp14
 70
     1
102
RTVSPropertyOp15
 70
     1
102
RTVSPropertyOp16
 70
     1
102
RTVSPropertyOp17
 70
     1
102
RTVSPropertyOp18
 70
     1
102
RTVSPropertyOp19
 70
     1
102
RTVSPropertyOp20
 70
     1
102
RTVSPropertyOp21
 70
     1
102
RTVSPropertyOp22
 70
     1
102
RTVSPropertyOp23
 70
     1
102
RTVSPropertyOp24
 70
     1
102
RTVSPropertyOp25
 70
     1
102
RTVSPropertyOp26
 70
     1
102
RTVSPropertyOp27
 70
     1
102
RTVSPropertyOp28
 70
     1
102
RTVSPropertyOp29
 70
     1
102
RTVSPropertyOp30
 70
     1
102
RTVSPropertyOp31
 70
     1
102
RTVSPropertyOp32
 70
     1
  0
XRECORD
  5
3ED
102
{ACAD_REACTORS
330
3EC
102
}
330
3EC
100
AcDbXrecord
280
     1
102
RTVSPropertyOp0
 70
     0
102
RTVSPropertyOp1
 70
     0
102
RTVSPropertyOp2
 70
     0
102
RTVSPropertyOp3
 70
     0
102
RTVSPropertyOp4
 70
     0
102
RTVSPropertyOp5
 70
     0
102
RTVSPropertyOp6
 70
     0
102
RTVSPropertyOp7
 70
     0
102
RTVSPropertyOp8
 70
     0
102
RTVSPropertyOp9
 70
     0
102
RTVSPropertyOp10
 70
     0
102
RTVSPropertyOp11
 70
     0
102
RTVSPropertyOp12
 70
     0
102
RTVSPropertyOp13
 70
     0
102
RTVSPropertyOp14
 70
     2
102
RTVSPropertyOp15
 70
     0
102
RTVSPropertyOp16
 70
     0
102
RTVSPropertyOp17
 70
     0
102
RTVSPropertyOp18
 70
     0
102
RTVSPropertyOp19
 70
     0
102
RTVSPropertyOp20
 70
     0
102
RTVSPropertyOp21
 70
     0
102
RTVSPropertyOp22
 70
     0
102
RTVSPropertyOp23
 70
     0
102
RTVSPropertyOp24
 70
     0
102
RTVSPropertyOp25
 70
     0
102
RTVSPropertyOp26
 70
     0
102
RTVSPropertyOp27
 70
     0
102
RTVSPropertyOp28
 70
     1
102
RTVSPropertyOp29
 70
     1
102
RTVSPropertyOp30
 70
     1
102
RTVSPropertyOp31
 70
     1
102
RTVSPropertyOp32
 70
     1
  0
XRECORD
  5
3DD
102
{ACAD_REACTORS
330
3DC
102
}
330
3DC
100
AcDbXrecord
280
     1
102
RTVSPropertyOp0
 70
     1
102
RTVSPropertyOp1
 70
     1
102
RTVSPropertyOp2
 70
     1
102
RTVSPropertyOp3
 70
     1
102
RTVSPropertyOp4
 70
     1
102
RTVSPropertyOp5
 70
     1
102
RTVSPropertyOp6
 70
     1
102
RTVSPropertyOp7
 70
     1
102
RTVSPropertyOp8
 70
     1
102
RTVSPropertyOp9
 70
     1
102
RTVSPropertyOp10
 70
     1
102
RTVSPropertyOp11
 70
     1
102
RTVSPropertyOp12
 70
     1
102
RTVSPropertyOp13
 70
     1
102
RTVSPropertyOp14
 70
     1
102
RTVSPropertyOp15
 70
     1
102
RTVSPropertyOp16
 70
     1
102
RTVSPropertyOp17
 70
     1
102
RTVSPropertyOp18
 70
     1
102
RTVSPropertyOp19
 70
     1
102
RTVSPropertyOp20
 70
     1
102
RTVSPropertyOp21
 70
     1
102
RTVSPropertyOp22
 70
     1
102
RTVSPropertyOp23
 70
     1
102
RTVSPropertyOp24
 70
     1
102
RTVSPropertyOp25
 70
     1
102
RTVSPropertyOp26
 70
     1
102
RTVSPropertyOp27
 70
     1
102
RTVSPropertyOp28
 70
     1
102
RTVSPropertyOp29
 70
     1
102
RTVSPropertyOp30
 70
     1
102
RTVSPropertyOp31
 70
     1
102
RTVSPropertyOp32
 70
     1
  0
XRECORD
  5
3EF
102
{ACAD_REACTORS
330
3EE
102
}
330
3EE
100
AcDbXrecord
280
     1
102
RTVSPropertyOp0
 70
     0
102
RTVSPropertyOp1
 70
     0
102
RTVSPropertyOp2
 70
     0
102
RTVSPropertyOp3
 70
     0
102
RTVSPropertyOp4
 70
     0
102
RTVSPropertyOp5
 70
     0
102
RTVSPropertyOp6
 70
     0
102
RTVSPropertyOp7
 70
     0
102
RTVSPropertyOp8
 70
     0
102
RTVSPropertyOp9
 70
     0
102
RTVSPropertyOp10
 70
     0
102
RTVSPropertyOp11
 70
     0
102
RTVSPropertyOp12
 70
     0
102
RTVSPropertyOp13
 70
     0
102
RTVSPropertyOp14
 70
     2
102
RTVSPropertyOp15
 70
     0
102
RTVSPropertyOp16
 70
     0
102
RTVSPropertyOp17
 70
     0
102
RTVSPropertyOp18
 70
     0
102
RTVSPropertyOp19
 70
     0
102
RTVSPropertyOp20
 70
     0
102
RTVSPropertyOp21
 70
     0
102
RTVSPropertyOp22
 70
     0
102
RTVSPropertyOp23
 70
     0
102
RTVSPropertyOp24
 70
     0
102
RTVSPropertyOp25
 70
     0
102
RTVSPropertyOp26
 70
     0
102
RTVSPropertyOp27
 70
     0
102
RTVSPropertyOp28
 70
     1
102
RTVSPropertyOp29
 70
     1
102
RTVSPropertyOp30
 70
     1
102
RTVSPropertyOp31
 70
     1
102
RTVSPropertyOp32
 70
     1
  0
XRECORD
  5
3D5
102
{ACAD_REACTORS
330
3D4
102
}
330
3D4
100
AcDbXrecord
280
     1
102
RTVSPropertyOp0
 70
     1
102
RTVSPropertyOp1
 70
     1
102
RTVSPropertyOp2
 70
     1
102
RTVSPropertyOp3
 70
     1
102
RTVSPropertyOp4
 70
     1
102
RTVSPropertyOp5
 70
     1
102
RTVSPropertyOp6
 70
     1
102
RTVSPropertyOp7
 70
     1
102
RTVSPropertyOp8
 70
     1
102
RTVSPropertyOp9
 70
     1
102
RTVSPropertyOp10
 70
     1
102
RTVSPropertyOp11
 70
     1
102
RTVSPropertyOp12
 70
     1
102
RTVSPropertyOp13
 70
     1
102
RTVSPropertyOp14
 70
     1
102
RTVSPropertyOp15
 70
     1
102
RTVSPropertyOp16
 70
     1
102
RTVSPropertyOp17
 70
     1
102
RTVSPropertyOp18
 70
     1
102
RTVSPropertyOp19
 70
     1
102
RTVSPropertyOp20
 70
     1
102
RTVSPropertyOp21
 70
     1
102
RTVSPropertyOp22
 70
     1
102
RTVSPropertyOp23
 70
     1
102
RTVSPropertyOp24
 70
     1
102
RTVSPropertyOp25
 70
     1
102
RTVSPropertyOp26
 70
     1
102
RTVSPropertyOp27
 70
     1
102
RTVSPropertyOp28
 70
     1
102
RTVSPropertyOp29
 70
     1
102
RTVSPropertyOp30
 70
     1
102
RTVSPropertyOp31
 70
     1
102
RTVSPropertyOp32
 70
     1
  0
XRECORD
  5
3EB
102
{ACAD_REACTORS
330
3EA
102
}
330
3EA
100
AcDbXrecord
280
     1
102
RTVSPropertyOp0
 70
     1
102
RTVSPropertyOp1
 70
     1
102
RTVSPropertyOp2
 70
     1
102
RTVSPropertyOp3
 70
     1
102
RTVSPropertyOp4
 70
     1
102
RTVSPropertyOp5
 70
     1
102
RTVSPropertyOp6
 70
     1
102
RTVSPropertyOp7
 70
     1
102
RTVSPropertyOp8
 70
     1
102
RTVSPropertyOp9
 70
     1
102
RTVSPropertyOp10
 70
     1
102
RTVSPropertyOp11
 70
     1
102
RTVSPropertyOp12
 70
     1
102
RTVSPropertyOp13
 70
     1
102
RTVSPropertyOp14
 70
     1
102
RTVSPropertyOp15
 70
     1
102
RTVSPropertyOp16
 70
     1
102
RTVSPropertyOp17
 70
     1
102
RTVSPropertyOp18
 70
     1
102
RTVSPropertyOp19
 70
     1
102
RTVSPropertyOp20
 70
     1
102
RTVSPropertyOp21
 70
     1
102
RTVSPropertyOp22
 70
     1
102
RTVSPropertyOp23
 70
     1
102
RTVSPropertyOp24
 70
     1
102
RTVSPropertyOp25
 70
     1
102
RTVSPropertyOp26
 70
     1
102
RTVSPropertyOp27
 70
     1
102
RTVSPropertyOp28
 70
     1
102
RTVSPropertyOp29
 70
     1
102
RTVSPropertyOp30
 70
     1
102
RTVSPropertyOp31
 70
     1
102
RTVSPropertyOp32
 70
     1
  0
XRECORD
  5
3E9
102
{ACAD_REACTORS
330
3E8
102
}
330
3E8
100
AcDbXrecord
280
     1
102
RTVSPropertyOp0
 70
     1
102
RTVSPropertyOp1
 70
     1
102
RTVSPropertyOp2
 70
     1
102
RTVSPropertyOp3
 70
     1
102
RTVSPropertyOp4
 70
     1
102
RTVSPropertyOp5
 70
     1
102
RTVSPropertyOp6
 70
     1
102
RTVSPropertyOp7
 70
     1
102
RTVSPropertyOp8
 70
     1
102
RTVSPropertyOp9
 70
     1
102
RTVSPropertyOp10
 70
     1
102
RTVSPropertyOp11
 70
     1
102
RTVSPropertyOp12
 70
     1
102
RTVSPropertyOp13
 70
     1
102
RTVSPropertyOp14
 70
     1
102
RTVSPropertyOp15
 70
     1
102
RTVSPropertyOp16
 70
     1
102
RTVSPropertyOp17
 70
     1
102
RTVSPropertyOp18
 70
     1
102
RTVSPropertyOp19
 70
     1
102
RTVSPropertyOp20
 70
     1
102
RTVSPropertyOp21
 70
     1
102
RTVSPropertyOp22
 70
     1
102
RTVSPropertyOp23
 70
     1
102
RTVSPropertyOp24
 70
     1
102
RTVSPropertyOp25
 70
     1
102
RTVSPropertyOp26
 70
     1
102
RTVSPropertyOp27
 70
     1
102
RTVSPropertyOp28
 70
     1
102
RTVSPropertyOp29
 70
     1
102
RTVSPropertyOp30
 70
     1
102
RTVSPropertyOp31
 70
     1
102
RTVSPropertyOp32
 70
     1
  0
XRECORD
  5
3E3
102
{ACAD_REACTORS
330
3E2
102
}
330
3E2
100
AcDbXrecord
280
     1
102
RTVSPropertyOp0
 70
     1
102
RTVSPropertyOp1
 70
     1
102
RTVSPropertyOp2
 70
     1
102
RTVSPropertyOp3
 70
     1
102
RTVSPropertyOp4
 70
     1
102
RTVSPropertyOp5
 70
     1
102
RTVSPropertyOp6
 70
     1
102
RTVSPropertyOp7
 70
     1
102
RTVSPropertyOp8
 70
     1
102
RTVSPropertyOp9
 70
     1
102
RTVSPropertyOp10
 70
     1
102
RTVSPropertyOp11
 70
     1
102
RTVSPropertyOp12
 70
     1
102
RTVSPropertyOp13
 70
     1
102
RTVSPropertyOp14
 70
     1
102
RTVSPropertyOp15
 70
     1
102
RTVSPropertyOp16
 70
     1
102
RTVSPropertyOp17
 70
     1
102
RTVSPropertyOp18
 70
     1
102
RTVSPropertyOp19
 70
     1
102
RTVSPropertyOp20
 70
     1
102
RTVSPropertyOp21
 70
     1
102
RTVSPropertyOp22
 70
     1
102
RTVSPropertyOp23
 70
     1
102
RTVSPropertyOp24
 70
     1
102
RTVSPropertyOp25
 70
     1
102
RTVSPropertyOp26
 70
     1
102
RTVSPropertyOp27
 70
     1
102
RTVSPropertyOp28
 70
     1
102
RTVSPropertyOp29
 70
     1
102
RTVSPropertyOp30
 70
     1
102
RTVSPropertyOp31
 70
     1
102
RTVSPropertyOp32
 70
     1
  0
XRECORD
  5
3E5
102
{ACAD_REACTORS
330
3E4
102
}
330
3E4
100
AcDbXrecord
280
     1
102
RTVSPropertyOp0
 70
     1
102
RTVSPropertyOp1
 70
     1
102
RTVSPropertyOp2
 70
     1
102
RTVSPropertyOp3
 70
     1
102
RTVSPropertyOp4
 70
     1
102
RTVSPropertyOp5
 70
     1
102
RTVSPropertyOp6
 70
     1
102
RTVSPropertyOp7
 70
     1
102
RTVSPropertyOp8
 70
     1
102
RTVSPropertyOp9
 70
     1
102
RTVSPropertyOp10
 70
     1
102
RTVSPropertyOp11
 70
     1
102
RTVSPropertyOp12
 70
     1
102
RTVSPropertyOp13
 70
     1
102
RTVSPropertyOp14
 70
     1
102
RTVSPropertyOp15
 70
     1
102
RTVSPropertyOp16
 70
     1
102
RTVSPropertyOp17
 70
     1
102
RTVSPropertyOp18
 70
     1
102
RTVSPropertyOp19
 70
     1
102
RTVSPropertyOp20
 70
     1
102
RTVSPropertyOp21
 70
     1
102
RTVSPropertyOp22
 70
     1
102
RTVSPropertyOp23
 70
     1
102
RTVSPropertyOp24
 70
     1
102
RTVSPropertyOp25
 70
     1
102
RTVSPropertyOp26
 70
     1
102
RTVSPropertyOp27
 70
     1
102
RTVSPropertyOp28
 70
     1
102
RTVSPropertyOp29
 70
     1
102
RTVSPropertyOp30
 70
     1
102
RTVSPropertyOp31
 70
     1
102
RTVSPropertyOp32
 70
     1
  0
XRECORD
  5
3DB
102
{ACAD_REACTORS
330
3DA
102
}
330
3DA
100
AcDbXrecord
280
     1
102
RTVSPropertyOp0
 70
     1
102
RTVSPropertyOp1
 70
     1
102
RTVSPropertyOp2
 70
     1
102
RTVSPropertyOp3
 70
     1
102
RTVSPropertyOp4
 70
     1
102
RTVSPropertyOp5
 70
     1
102
RTVSPropertyOp6
 70
     1
102
RTVSPropertyOp7
 70
     1
102
RTVSPropertyOp8
 70
     1
102
RTVSPropertyOp9
 70
     1
102
RTVSPropertyOp10
 70
     1
102
RTVSPropertyOp11
 70
     1
102
RTVSPropertyOp12
 70
     1
102
RTVSPropertyOp13
 70
     1
102
RTVSPropertyOp14
 70
     1
102
RTVSPropertyOp15
 70
     1
102
RTVSPropertyOp16
 70
     1
102
RTVSPropertyOp17
 70
     1
102
RTVSPropertyOp18
 70
     1
102
RTVSPropertyOp19
 70
     1
102
RTVSPropertyOp20
 70
     1
102
RTVSPropertyOp21
 70
     1
102
RTVSPropertyOp22
 70
     1
102
RTVSPropertyOp23
 70
     1
102
RTVSPropertyOp24
 70
     1
102
RTVSPropertyOp25
 70
     1
102
RTVSPropertyOp26
 70
     1
102
RTVSPropertyOp27
 70
     1
102
RTVSPropertyOp28
 70
     1
102
RTVSPropertyOp29
 70
     1
102
RTVSPropertyOp30
 70
     1
102
RTVSPropertyOp31
 70
     1
102
RTVSPropertyOp32
 70
     1
  0
XRECORD
  5
3CF
102
{ACAD_REACTORS
330
3CE
102
}
330
3CE
100
AcDbXrecord
280
     1
102
RTVSPropertyOp0
 70
     1
102
RTVSPropertyOp1
 70
     1
102
RTVSPropertyOp2
 70
     1
102
RTVSPropertyOp3
 70
     1
102
RTVSPropertyOp4
 70
     1
102
RTVSPropertyOp5
 70
     1
102
RTVSPropertyOp6
 70
     1
102
RTVSPropertyOp7
 70
     1
102
RTVSPropertyOp8
 70
     1
102
RTVSPropertyOp9
 70
     1
102
RTVSPropertyOp10
 70
     1
102
RTVSPropertyOp11
 70
     1
102
RTVSPropertyOp12
 70
     1
102
RTVSPropertyOp13
 70
     1
102
RTVSPropertyOp14
 70
     1
102
RTVSPropertyOp15
 70
     1
102
RTVSPropertyOp16
 70
     1
102
RTVSPropertyOp17
 70
     1
102
RTVSPropertyOp18
 70
     1
102
RTVSPropertyOp19
 70
     1
102
RTVSPropertyOp20
 70
     1
102
RTVSPropertyOp21
 70
     1
102
RTVSPropertyOp22
 70
     1
102
RTVSPropertyOp23
 70
     1
102
RTVSPropertyOp24
 70
     1
102
RTVSPropertyOp25
 70
     1
102
RTVSPropertyOp26
 70
     1
102
RTVSPropertyOp27
 70
     1
102
RTVSPropertyOp28
 70
     1
102
RTVSPropertyOp29
 70
     1
102
RTVSPropertyOp30
 70
     1
102
RTVSPropertyOp31
 70
     1
102
RTVSPropertyOp32
 70
     1
  0
XRECORD
  5
3E7
102
{ACAD_REACTORS
330
3E6
102
}
330
3E6
100
AcDbXrecord
280
     1
102
RTVSPropertyOp0
 70
     1
102
RTVSPropertyOp1
 70
     1
102
RTVSPropertyOp2
 70
     1
102
RTVSPropertyOp3
 70
     1
102
RTVSPropertyOp4
 70
     1
102
RTVSPropertyOp5
 70
     1
102
RTVSPropertyOp6
 70
     1
102
RTVSPropertyOp7
 70
     1
102
RTVSPropertyOp8
 70
     1
102
RTVSPropertyOp9
 70
     1
102
RTVSPropertyOp10
 70
     1
102
RTVSPropertyOp11
 70
     1
102
RTVSPropertyOp12
 70
     1
102
RTVSPropertyOp13
 70
     1
102
RTVSPropertyOp14
 70
     1
102
RTVSPropertyOp15
 70
     1
102
RTVSPropertyOp16
 70
     1
102
RTVSPropertyOp17
 70
     1
102
RTVSPropertyOp18
 70
     1
102
RTVSPropertyOp19
 70
     1
102
RTVSPropertyOp20
 70
     1
102
RTVSPropertyOp21
 70
     1
102
RTVSPropertyOp22
 70
     1
102
RTVSPropertyOp23
 70
     1
102
RTVSPropertyOp24
 70
     1
102
RTVSPropertyOp25
 70
     1
102
RTVSPropertyOp26
 70
     1
102
RTVSPropertyOp27
 70
     1
102
RTVSPropertyOp28
 70
     1
102
RTVSPropertyOp29
 70
     1
102
RTVSPropertyOp30
 70
     1
102
RTVSPropertyOp31
 70
     1
102
RTVSPropertyOp32
 70
     1
  0
ENDSEC
  0
EOF
