  0
SECTION
  2
HEADER
  9
$ACADVER
  1
AC1015
  9
$ACADMAINTVER
 70
    20
  9
$DWGCODEPAGE
  3
ANSI_1252
  9
$INSBASE
 10
0.0
 20
0.0
 30
0.0
  9
$EXTMIN
 10
-27.62978165118266
 20
-7.46894860267639
 30
-0.7812499999992878
  9
$EXTMAX
 10
34.24521834880447
 20
7.531051397323607
 30
29.25296792318997
  9
$LIMMIN
 10
0.0
 20
0.0
  9
$LIMMAX
 10
12.0
 20
9.0
  9
$ORTHOMODE
 70
     0
  9
$REGENMODE
 70
     1
  9
$FILLMODE
 70
     1
  9
$QTEXTMODE
 70
     0
  9
$MIRRTEXT
 70
     0
  9
$LTSCALE
 40
1.0
  9
$ATTMODE
 70
     1
  9
$TEXTSIZE
 40
0.2
  9
$TRACEWID
 40
0.05
  9
$TEXTSTYLE
  7
Standard
  9
$CLAYER
  8
0
  9
$CELTYPE
  6
ByLayer
  9
$CECOLOR
 62
   256
  9
$CELTSCALE
 40
1.0
  9
$DISPSILH
 70
     0
  9
$DIMSCALE
 40
1.0
  9
$DIMASZ
 40
0.18
  9
$DIMEXO
 40
0.0625
  9
$DIMDLI
 40
0.38
  9
$DIMRND
 40
0.0
  9
$DIMDLE
 40
0.0
  9
$DIMEXE
 40
0.18
  9
$DIMTP
 40
0.0
  9
$DIMTM
 40
0.0
  9
$DIMTXT
 40
0.18
  9
$DIMCEN
 40
0.09
  9
$DIMTSZ
 40
0.0
  9
$DIMTOL
 70
     0
  9
$DIMLIM
 70
     0
  9
$DIMTIH
 70
     1
  9
$DIMTOH
 70
     1
  9
$DIMSE1
 70
     0
  9
$DIMSE2
 70
     0
  9
$DIMTAD
 70
     0
  9
$DIMZIN
 70
     0
  9
$DIMBLK
  1

  9
$DIMASO
 70
     1
  9
$DIMSHO
 70
     1
  9
$DIMPOST
  1

  9
$DIMAPOST
  1

  9
$DIMALT
 70
     0
  9
$DIMALTD
 70
     2
  9
$DIMALTF
 40
25.4
  9
$DIMLFAC
 40
1.0
  9
$DIMTOFL
 70
     0
  9
$DIMTVP
 40
0.0
  9
$DIMTIX
 70
     0
  9
$DIMSOXD
 70
     0
  9
$DIMSAH
 70
     0
  9
$DIMBLK1
  1

  9
$DIMBLK2
  1

  9
$DIMSTYLE
  2
Standard
  9
$DIMCLRD
 70
     0
  9
$DIMCLRE
 70
     0
  9
$DIMCLRT
 70
     0
  9
$DIMTFAC
 40
1.0
  9
$DIMGAP
 40
0.09
  9
$DIMJUST
 70
     0
  9
$DIMSD1
 70
     0
  9
$DIMSD2
 70
     0
  9
$DIMTOLJ
 70
     1
  9
$DIMTZIN
 70
     0
  9
$DIMALTZ
 70
     0
  9
$DIMALTTZ
 70
     0
  9
$DIMUPT
 70
     0
  9
$DIMDEC
 70
     4
  9
$DIMTDEC
 70
     4
  9
$DIMALTU
 70
     4
  9
$DIMALTTD
 70
     2
  9
$DIMTXSTY
  7
Standard
  9
$DIMAUNIT
 70
     0
  9
$DIMADEC
 70
     0
  9
$DIMALTRND
 40
0.0
  9
$DIMAZIN
 70
     0
  9
$DIMDSEP
 70
    46
  9
$DIMATFIT
 70
     3
  9
$DIMFRAC
 70
     0
  9
$DIMLDRBLK
  1

  9
$DIMLUNIT
 70
     4
  9
$DIMLWD
 70
    -2
  9
$DIMLWE
 70
    -2
  9
$DIMTMOVE
 70
     0
  9
$LUNITS
 70
     4
  9
$LUPREC
 70
     4
  9
$SKETCHINC
 40
0.1
  9
$FILLETRAD
 40
0.0
  9
$AUNITS
 70
     0
  9
$AUPREC
 70
     0
  9
$MENU
  1
.
  9
$ELEVATION
 40
0.0
  9
$PELEVATION
 40
0.0
  9
$THICKNESS
 40
0.0
  9
$LIMCHECK
 70
     0
  9
$CHAMFERA
 40
0.0
  9
$CHAMFERB
 40
0.0
  9
$CHAMFERC
 40
0.0
  9
$CHAMFERD
 40
0.0
  9
$SKPOLY
 70
     0
  9
$TDCREATE
 40
2456030.392657396
  9
$TDUCREATE
 40
2456030.600990729
  9
$TDUPDATE
 40
2456030.393208947
  9
$TDUUPDATE
 40
2456030.601542280
  9
$TDINDWG
 40
0.0005176620
  9
$TDUSRTIMER
 40
0.0005176620
  9
$USRTIMER
 70
     1
  9
$ANGBASE
 50
0.0
  9
$ANGDIR
 70
     0
  9
$PDMODE
 70
     0
  9
$PDSIZE
 40
0.0
  9
$PLINEWID
 40
0.0
  9
$SPLFRAME
 70
     0
  9
$SPLINETYPE
 70
     6
  9
$SPLINESEGS
 70
     8
  9
$HANDSEED
  5
2E7
  9
$SURFTAB1
 70
     6
  9
$SURFTAB2
 70
     6
  9
$SURFTYPE
 70
     6
  9
$SURFU
 70
     6
  9
$SURFV
 70
     6
  9
$UCSBASE
  2

  9
$UCSNAME
  2

  9
$UCSORG
 10
0.0
 20
0.0
 30
0.0
  9
$UCSXDIR
 10
1.0
 20
0.0
 30
0.0
  9
$UCSYDIR
 10
0.0
 20
1.0
 30
0.0
  9
$UCSORTHOREF
  2

  9
$UCSORTHOVIEW
 70
     0
  9
$UCSORGTOP
 10
0.0
 20
0.0
 30
0.0
  9
$UCSORGBOTTOM
 10
0.0
 20
0.0
 30
0.0
  9
$UCSORGLEFT
 10
0.0
 20
0.0
 30
0.0
  9
$UCSORGRIGHT
 10
0.0
 20
0.0
 30
0.0
  9
$UCSORGFRONT
 10
0.0
 20
0.0
 30
0.0
  9
$UCSORGBACK
 10
0.0
 20
0.0
 30
0.0
  9
$PUCSBASE
  2

  9
$PUCSNAME
  2

  9
$PUCSORG
 10
0.0
 20
0.0
 30
0.0
  9
$PUCSXDIR
 10
1.0
 20
0.0
 30
0.0
  9
$PUCSYDIR
 10
0.0
 20
1.0
 30
0.0
  9
$PUCSORTHOREF
  2

  9
$PUCSORTHOVIEW
 70
     0
  9
$PUCSORGTOP
 10
0.0
 20
0.0
 30
0.0
  9
$PUCSORGBOTTOM
 10
0.0
 20
0.0
 30
0.0
  9
$PUCSORGLEFT
 10
0.0
 20
0.0
 30
0.0
  9
$PUCSORGRIGHT
 10
0.0
 20
0.0
 30
0.0
  9
$PUCSORGFRONT
 10
0.0
 20
0.0
 30
0.0
  9
$PUCSORGBACK
 10
0.0
 20
0.0
 30
0.0
  9
$USERI1
 70
     0
  9
$USERI2
 70
     0
  9
$USERI3
 70
     0
  9
$USERI4
 70
     0
  9
$USERI5
 70
     0
  9
$USERR1
 40
0.0
  9
$USERR2
 40
0.0
  9
$USERR3
 40
0.0
  9
$USERR4
 40
0.0
  9
$USERR5
 40
0.0
  9
$WORLDVIEW
 70
     1
  9
$SHADEDGE
 70
     3
  9
$SHADEDIF
 70
    70
  9
$TILEMODE
 70
     1
  9
$MAXACTVP
 70
    64
  9
$PINSBASE
 10
0.0
 20
0.0
 30
0.0
  9
$PLIMCHECK
 70
     0
  9
$PEXTMIN
 10
1.000000000000000E+20
 20
1.000000000000000E+20
 30
1.000000000000000E+20
  9
$PEXTMAX
 10
-1.000000000000000E+20
 20
-1.000000000000000E+20
 30
-1.000000000000000E+20
  9
$PLIMMIN
 10
0.0
 20
0.0
  9
$PLIMMAX
 10
12.0
 20
9.0
  9
$UNITMODE
 70
     0
  9
$VISRETAIN
 70
     1
  9
$PLINEGEN
 70
     0
  9
$PSLTSCALE
 70
     1
  9
$TREEDEPTH
 70
  3020
  9
$CMLSTYLE
  2
Standard
  9
$CMLJUST
 70
     0
  9
$CMLSCALE
 40
1.0
  9
$PROXYGRAPHICS
 70
     1
  9
$MEASUREMENT
 70
     0
  9
$CELWEIGHT
370
    -1
  9
$ENDCAPS
280
     0
  9
$JOINSTYLE
280
     0
  9
$LWDISPLAY
290
     0
  9
$INSUNITS
 70
     1
  9
$HYPERLINKBASE
  1

  9
$STYLESHEET
  1

  9
$XEDIT
290
     1
  9
$CEPSNTYPE
380
     0
  9
$PSTYLEMODE
290
     1
  9
$FINGERPRINTGUID
  2
{06F8D4DF-B350-4CF2-B0A6-69F3C98B5A6D}
  9
$VERSIONGUID
  2
{855A2C39-2A13-4697-B3AA-3FF77B0AC26C}
  9
$EXTNAMES
290
     1
  9
$PSVPSCALE
 40
0.0
  9
$OLESTARTUP
290
     0
  0
ENDSEC
  0
SECTION
  2
CLASSES
  0
CLASS
  1
ACDBDICTIONARYWDFLT
  2
AcDbDictionaryWithDefault
  3
ObjectDBX Classes
 90
        0
280
     0
281
     0
  0
CLASS
  1
MATERIAL
  2
AcDbMaterial
  3
ObjectDBX Classes
 90
     1153
280
     0
281
     0
  0
CLASS
  1
VISUALSTYLE
  2
AcDbVisualStyle
  3
ObjectDBX Classes
 90
     4095
280
     0
281
     0
  0
CLASS
  1
SCALE
  2
AcDbScale
  3
ObjectDBX Classes
 90
     1153
280
     0
281
     0
  0
CLASS
  1
TABLESTYLE
  2
AcDbTableStyle
  3
ObjectDBX Classes
 90
     4095
280
     0
281
     0
  0
CLASS
  1
MLEADERSTYLE
  2
AcDbMLeaderStyle
  3
ACDB_MLEADERSTYLE_CLASS
 90
     4095
280
     0
281
     0
  0
CLASS
  1
RASTERVARIABLES
  2
AcDbRasterVariables
  3
ISM
 90
        0
280
     0
281
     0
  0
CLASS
  1
DICTIONARYVAR
  2
AcDbDictionaryVar
  3
ObjectDBX Classes
 90
        0
280
     0
281
     0
  0
CLASS
  1
SUN
  2
AcDbSun
  3
SCENEOE
 90
     1153
280
     0
281
     0
  0
CLASS
  1
SOLID_BACKGROUND
  2
AcDbSolidBackground
  3
SCENEOE
 90
     4095
280
     0
281
     0
  0
CLASS
  1
NPOCOLLECTION
  2
AcDbImpNonPersistentObjectsCollection
  3
ObjectDBX Classes
 90
     1153
280
     0
281
     0
  0
CLASS
  1
CELLSTYLEMAP
  2
AcDbCellStyleMap
  3
ObjectDBX Classes
 90
     1152
280
     0
281
     0
  0
CLASS
  1
ACDBPLACEHOLDER
  2
AcDbPlaceHolder
  3
ObjectDBX Classes
 90
        0
280
     0
281
     0
  0
CLASS
  1
LAYOUT
  2
AcDbLayout
  3
ObjectDBX Classes
 90
        0
280
     0
281
     0
  0
ENDSEC
  0
SECTION
  2
TABLES
  0
TABLE
  2
VPORT
  5
8
330
0
100
AcDbSymbolTable
 70
     1
  0
VPORT
  5
57
330
8
100
AcDbSymbolTableRecord
100
AcDbViewportTableRecord
  2
*Active
 70
     0
 10
0.0
 20
0.0
 11
1.0
 21
1.0
 12
0.0
 22
0.0
 13
0.0
 23
0.0
 14
1.0
 24
1.0
 15
0.0
 25
0.0
 16
88.15081896178902
 26
-88.15081896178904
 36
88.15081896178904
 17
3.307718348810904
 27
0.0310513973236084
 37
14.23585896159534
 40
70.39580861994576
 41
1.402298850574712
 42
50.0
 43
0.0
 44
0.0
 50
0.0
 51
0.0000000000000086
 71
     0
 72
   100
 73
     1
 74
     1
 75
     0
 76
     0
 77
     0
 78
     0
281
     6
 65
     1
110
0.0
120
0.0
130
0.0
111
1.0
121
0.0
131
0.0
112
0.0
122
1.0
132
0.0
 79
     0
146
0.0
1001
ACAD_NAV_VCDISPLAY
1070
     3
  0
ENDTAB
  0
TABLE
  2
LTYPE
  5
5
330
0
100
AcDbSymbolTable
 70
     1
  0
LTYPE
  5
5B
330
5
100
AcDbSymbolTableRecord
100
AcDbLinetypeTableRecord
  2
ByBlock
 70
     0
  3

 72
    65
 73
     0
 40
0.0
  0
LTYPE
  5
5C
330
5
100
AcDbSymbolTableRecord
100
AcDbLinetypeTableRecord
  2
ByLayer
 70
     0
  3

 72
    65
 73
     0
 40
0.0
  0
LTYPE
  5
5D
330
5
100
AcDbSymbolTableRecord
100
AcDbLinetypeTableRecord
  2
Continuous
 70
     0
  3
Solid line
 72
    65
 73
     0
 40
0.0
  0
ENDTAB
  0
TABLE
  2
LAYER
  5
2
330
0
100
AcDbSymbolTable
 70
     4
  0
LAYER
  5
54
330
2
100
AcDbSymbolTableRecord
100
AcDbLayerTableRecord
  2
0
 70
     0
 62
     7
  6
Continuous
370
    -3
390
F
  0
LAYER
  5
7A
330
2
100
AcDbSymbolTableRecord
100
AcDbLayerTableRecord
  2
3D-S-COLS-ANLY
 70
     0
 62
     2
  6
Continuous
370
    -3
390
F
  0
LAYER
  5
18F
330
2
100
AcDbSymbolTableRecord
100
AcDbLayerTableRecord
  2
3D-GENM
 70
     0
 62
     6
  6
Continuous
370
    -3
390
F
  0
LAYER
  5
1BE
330
2
100
AcDbSymbolTableRecord
100
AcDbLayerTableRecord
  2
3D-S-BEAM
 70
     0
 62
     4
  6
Continuous
370
    -3
390
F
  0
ENDTAB
  0
TABLE
  2
STYLE
  5
3
330
0
100
AcDbSymbolTable
 70
     2
  0
STYLE
  5
55
330
3
100
AcDbSymbolTableRecord
100
AcDbTextStyleTableRecord
  2
Standard
 70
     0
 40
0.0
 41
1.0
 50
0.0
 71
     0
 42
0.2
  3
txt
  4

  0
STYLE
  5
5A
330
3
100
AcDbSymbolTableRecord
100
AcDbTextStyleTableRecord
  2
Annotative
 70
     0
 40
0.0
 41
1.0
 50
0.0
 71
     0
 42
0.2
  3
txt
  4

1001
AcadAnnotative
1000
AnnotativeData
1002
{
1070
     1
1070
     1
1002
}
  0
ENDTAB
  0
TABLE
  2
VIEW
  5
6
330
0
100
AcDbSymbolTable
 70
     1
  0
VIEW
  5
230
330
6
100
AcDbSymbolTableRecord
100
AcDbViewTableRecord
  2
Preview
 70
     0
 40
2400.0
 10
0.0
 20
0.0
 41
2400.0
 11
40.65069412894533
 21
-40.65069412894532
 31
40.65069412894533
 12
3.307718348811146
 22
-0.0000000000016214
 32
14.2358589617518
 42
50.0
 43
0.0
 44
0.0
 50
0.0
 71
     0
281
     0
 72
     0
  0
ENDTAB
  0
TABLE
  2
UCS
  5
7
330
0
100
AcDbSymbolTable
 70
     0
  0
ENDTAB
  0
TABLE
  2
APPID
  5
9
330
0
100
AcDbSymbolTable
 70
     5
  0
APPID
  5
56
330
9
100
AcDbSymbolTableRecord
100
AcDbRegAppTableRecord
  2
ACAD
 70
     0
  0
APPID
  5
5E
330
9
100
AcDbSymbolTableRecord
100
AcDbRegAppTableRecord
  2
AcadAnnotative
 70
     0
  0
APPID
  5
74
330
9
100
AcDbSymbolTableRecord
100
AcDbRegAppTableRecord
  2
REVIT
 70
     0
  0
APPID
  5
248
330
9
100
AcDbSymbolTableRecord
100
AcDbRegAppTableRecord
  2
ACAD_NAV_VCDISPLAY
 70
     0
  0
APPID
  5
2DF
330
9
100
AcDbSymbolTableRecord
100
AcDbRegAppTableRecord
  2
ACAD_MLEADERVER
 70
     0
  0
ENDTAB
  0
TABLE
  2
DIMSTYLE
  5
A
330
0
100
AcDbSymbolTable
 70
     2
100
AcDbDimStyleTable
 71
     0
  0
DIMSTYLE
105
58
330
A
100
AcDbSymbolTableRecord
100
AcDbDimStyleTableRecord
  2
Standard
 70
     0
340
55
  0
DIMSTYLE
105
59
330
A
100
AcDbSymbolTableRecord
100
AcDbDimStyleTableRecord
  2
Annotative
 70
     0
340
55
1001
AcadAnnotative
1000
AnnotativeData
1002
{
1070
     1
1070
     1
1002
}
  0
ENDTAB
  0
TABLE
  2
BLOCK_RECORD
  5
1
330
0
100
AcDbSymbolTable
 70
     4
  0
BLOCK_RECORD
  5
6C
330
1
100
AcDbSymbolTableRecord
100
AcDbBlockTableRecord
  2
*Model_Space
340
6F
  0
BLOCK_RECORD
  5
68
330
1
100
AcDbSymbolTableRecord
100
AcDbBlockTableRecord
  2
*Paper_Space
340
6B
  0
BLOCK_RECORD
  5
70
330
1
100
AcDbSymbolTableRecord
100
AcDbBlockTableRecord
  2
*Paper_Space0
340
73
  0
BLOCK_RECORD
  5
7B
330
1
100
AcDbSymbolTableRecord
100
AcDbBlockTableRecord
  2
Outrigger-Kawneer-Rounded - 5_-142066-Preview
340
0
102
{BLKREFS
331
178
331
179
331
17A
331
17B
331
17C
331
17D
331
17E
331
17F
331
180
331
181
331
182
331
183
331
184
331
185
331
186
331
187
331
188
331
189
331
18A
331
18B
331
18C
331
18D
331
18E
102
}
  0
BLOCK_RECORD
  5
190
330
1
100
AcDbSymbolTableRecord
100
AcDbBlockTableRecord
  2
Blade-Kawneer-Square - Versoleil-151929-Preview
340
0
102
{BLKREFS
331
1BD
331
22C
331
22D
331
22E
331
22F
102
}
  0
BLOCK_RECORD
  5
1BF
330
1
100
AcDbSymbolTableRecord
100
AcDbBlockTableRecord
  2
Fascia-Kawneer-Bullnose - Versoleil-156465-Preview
340
0
102
{BLKREFS
331
22B
102
}
  0
ENDTAB
  0
ENDSEC
  0
SECTION
  2
BLOCKS
  0
BLOCK
  5
6D
330
6C
100
AcDbEntity
  8
0
100
AcDbBlockBegin
  2
*Model_Space
 70
     0
 10
0.0
 20
0.0
 30
0.0
  3
*Model_Space
  1

  0
ENDBLK
  5
6E
330
6C
100
AcDbEntity
  8
0
100
AcDbBlockEnd
  0
BLOCK
  5
69
330
68
100
AcDbEntity
 67
     1
  8
0
100
AcDbBlockBegin
  2
*Paper_Space
 70
     0
 10
0.0
 20
0.0
 30
0.0
  3
*Paper_Space
  1

  0
ENDBLK
  5
6A
330
68
100
AcDbEntity
 67
     1
  8
0
100
AcDbBlockEnd
  0
BLOCK
  5
71
330
70
100
AcDbEntity
 67
     1
  8
0
100
AcDbBlockBegin
  2
*Paper_Space0
 70
     0
 10
0.0
 20
0.0
 30
0.0
  3
*Paper_Space0
  1

  0
ENDBLK
  5
72
330
70
100
AcDbEntity
 67
     1
  8
0
100
AcDbBlockEnd
  0
BLOCK
  5
176
330
7B
100
AcDbEntity
  8
0
100
AcDbBlockBegin
  2
Outrigger-Kawneer-Rounded - 5_-142066-Preview
 70
     0
 10
0.0
 20
0.0
 30
0.0
  3
Outrigger-Kawneer-Rounded - 5_-142066-Preview
  1

  0
POLYLINE
  5
7C
330
7B
100
AcDbEntity
  8
3D-S-COLS-ANLY
370
     9
100
AcDbPolyFaceMesh
 66
     1
 10
0.0
 20
0.0
 30
0.0
 70
    64
 71
    16
 72
     9
1001
REVIT
1002
{
1070
     3
1000
142059
1002
}
  0
VERTEX
  5
7D
330
7C
100
AcDbEntity
  8
3D-S-COLS-ANLY
370
     9
100
AcDbVertex
100
AcDbPolyFaceMeshVertex
 10
0.46875
 20
-2.499999940395354
 30
27.48854827880859
 70
   192
  0
VERTEX
  5
7E
330
7C
100
AcDbEntity
  8
3D-S-COLS-ANLY
370
     9
100
AcDbVertex
100
AcDbPolyFaceMeshVertex
 10
0.46875
 20
-2.499999940395354
 30
0.000000000001231
 70
   192
  0
VERTEX
  5
7F
330
7C
100
AcDbEntity
  8
3D-S-COLS-ANLY
370
     9
100
AcDbVertex
100
AcDbPolyFaceMeshVertex
 10
0.46875
 20
2.499999940395354
 30
0.0000000000013003
 70
   192
  0
VERTEX
  5
80
330
7C
100
AcDbEntity
  8
3D-S-COLS-ANLY
370
     9
100
AcDbVertex
100
AcDbPolyFaceMeshVertex
 10
0.46875
 20
2.499973833560943
 30
27.50000095367431
 70
   192
  0
VERTEX
  5
81
330
7C
100
AcDbEntity
  8
3D-S-COLS-ANLY
370
     9
100
AcDbVertex
100
AcDbPolyFaceMeshVertex
 10
0.46875
 20
2.414788305759429
 30
28.14704704284668
 70
   192
  0
VERTEX
  5
82
330
7C
100
AcDbEntity
  8
3D-S-COLS-ANLY
370
     9
100
AcDbVertex
100
AcDbPolyFaceMeshVertex
 10
0.46875
 20
2.165037274360656
 30
28.74999904632568
 70
   192
  0
VERTEX
  5
83
330
7C
100
AcDbEntity
  8
3D-S-COLS-ANLY
370
     9
100
AcDbVertex
100
AcDbPolyFaceMeshVertex
 10
0.46875
 20
1.767740786075591
 30
29.26776695251465
 70
   192
  0
VERTEX
  5
84
330
7C
100
AcDbEntity
  8
3D-S-COLS-ANLY
370
     9
100
AcDbVertex
100
AcDbPolyFaceMeshVertex
 10
0.46875
 20
1.249973773956298
 30
29.66506290435791
 70
   192
  0
VERTEX
  5
85
330
7C
100
AcDbEntity
  8
3D-S-COLS-ANLY
370
     9
100
AcDbVertex
100
AcDbPolyFaceMeshVertex
 10
0.46875
 20
0.6470213681459426
 30
29.91481590270996
 70
   192
  0
VERTEX
  5
86
330
7C
100
AcDbEntity
  8
3D-S-COLS-ANLY
370
     9
100
AcDbVertex
100
AcDbPolyFaceMeshVertex
 10
0.46875
 20
-0.0000262232779278
 30
30.0
 70
   192
  0
VERTEX
  5
87
330
7C
100
AcDbEntity
  8
3D-S-COLS-ANLY
370
     9
100
AcDbVertex
100
AcDbPolyFaceMeshVertex
 10
0.46875
 20
-0.557923212647438
 30
29.93695449829101
 70
   192
  0
VERTEX
  5
88
330
7C
100
AcDbEntity
  8
3D-S-COLS-ANLY
370
     9
100
AcDbVertex
100
AcDbPolyFaceMeshVertex
 10
0.46875
 20
-1.087682247161865
 30
29.75099945068359
 70
   192
  0
VERTEX
  5
89
330
7C
100
AcDbEntity
  8
3D-S-COLS-ANLY
370
     9
100
AcDbVertex
100
AcDbPolyFaceMeshVertex
 10
0.46875
 20
-1.562584519386291
 30
29.45151615142822
 70
   192
  0
VERTEX
  5
8A
330
7C
100
AcDbEntity
  8
3D-S-COLS-ANLY
370
     9
100
AcDbVertex
100
AcDbPolyFaceMeshVertex
 10
0.46875
 20
-1.958677947521209
 30
29.05360221862793
 70
   192
  0
VERTEX
  5
8B
330
7C
100
AcDbEntity
  8
3D-S-COLS-ANLY
370
     9
100
AcDbVertex
100
AcDbPolyFaceMeshVertex
 10
0.46875
 20
-2.25598508119583
 30
28.57733345031738
 70
   192
  0
VERTEX
  5
8C
330
7C
100
AcDbEntity
  8
3D-S-COLS-ANLY
370
     9
100
AcDbVertex
100
AcDbPolyFaceMeshVertex
 10
0.46875
 20
-2.4395112991333
 30
28.04672813415527
 70
   192
  0
VERTEX
  5
8D
330
7C
100
AcDbEntity
  8
3D-S-COLS-ANLY
370
     9
100
AcDbFaceRecord
 10
0.0
 20
0.0
 30
0.0
 70
   128
 71
    -7
 72
   -15
 73
     5
 74
     6
  0
VERTEX
  5
8E
330
7C
100
AcDbEntity
  8
3D-S-COLS-ANLY
370
     9
100
AcDbFaceRecord
 10
0.0
 20
0.0
 30
0.0
 70
   128
 71
   -16
 72
     4
 73
    -5
 74
    15
  0
VERTEX
  5
8F
330
7C
100
AcDbEntity
  8
3D-S-COLS-ANLY
370
     9
100
AcDbFaceRecord
 10
0.0
 20
0.0
 30
0.0
 70
   128
 71
     7
 72
     8
 73
    -9
 74
   -11
  0
VERTEX
  5
90
330
7C
100
AcDbEntity
  8
3D-S-COLS-ANLY
370
     9
100
AcDbFaceRecord
 10
0.0
 20
0.0
 30
0.0
 70
   128
 71
     9
 72
    10
 73
   -11
  0
VERTEX
  5
91
330
7C
100
AcDbEntity
  8
3D-S-COLS-ANLY
370
     9
100
AcDbFaceRecord
 10
0.0
 20
0.0
 30
0.0
 70
   128
 71
    -1
 72
     3
 73
    -4
 74
    16
  0
VERTEX
  5
92
330
7C
100
AcDbEntity
  8
3D-S-COLS-ANLY
370
     9
100
AcDbFaceRecord
 10
0.0
 20
0.0
 30
0.0
 70
   128
 71
    14
 72
   -15
 73
    -7
  0
VERTEX
  5
93
330
7C
100
AcDbEntity
  8
3D-S-COLS-ANLY
370
     9
100
AcDbFaceRecord
 10
0.0
 20
0.0
 30
0.0
 70
   128
 71
    -7
 72
    11
 73
   -12
 74
   -14
  0
VERTEX
  5
94
330
7C
100
AcDbEntity
  8
3D-S-COLS-ANLY
370
     9
100
AcDbFaceRecord
 10
0.0
 20
0.0
 30
0.0
 70
   128
 71
    12
 72
    13
 73
   -14
  0
VERTEX
  5
95
330
7C
100
AcDbEntity
  8
3D-S-COLS-ANLY
370
     9
100
AcDbFaceRecord
 10
0.0
 20
0.0
 30
0.0
 70
   128
 71
     2
 72
    -3
 73
     1
  0
SEQEND
  5
96
330
7C
100
AcDbEntity
  8
3D-S-COLS-ANLY
370
     9
  0
POLYLINE
  5
97
330
7B
100
AcDbEntity
  8
3D-S-COLS-ANLY
370
     9
100
AcDbPolyFaceMesh
 66
     1
 10
0.0
 20
0.0
 30
0.0
 70
    64
 71
    16
 72
     9
1001
REVIT
1002
{
1070
     3
1000
142059
1002
}
  0
VERTEX
  5
98
330
97
100
AcDbEntity
  8
3D-S-COLS-ANLY
370
     9
100
AcDbVertex
100
AcDbPolyFaceMeshVertex
 10
-0.46875
 20
-2.499999940395354
 30
27.48854827880859
 70
   192
  0
VERTEX
  5
99
330
97
100
AcDbEntity
  8
3D-S-COLS-ANLY
370
     9
100
AcDbVertex
100
AcDbPolyFaceMeshVertex
 10
-0.46875
 20
-2.4395112991333
 30
28.04672813415527
 70
   192
  0
VERTEX
  5
9A
330
97
100
AcDbEntity
  8
3D-S-COLS-ANLY
370
     9
100
AcDbVertex
100
AcDbPolyFaceMeshVertex
 10
-0.46875
 20
-2.25598508119583
 30
28.57733345031738
 70
   192
  0
VERTEX
  5
9B
330
97
100
AcDbEntity
  8
3D-S-COLS-ANLY
370
     9
100
AcDbVertex
100
AcDbPolyFaceMeshVertex
 10
-0.46875
 20
-1.958677947521209
 30
29.05360221862793
 70
   192
  0
VERTEX
  5
9C
330
97
100
AcDbEntity
  8
3D-S-COLS-ANLY
370
     9
100
AcDbVertex
100
AcDbPolyFaceMeshVertex
 10
-0.46875
 20
-1.562584519386291
 30
29.45151615142822
 70
   192
  0
VERTEX
  5
9D
330
97
100
AcDbEntity
  8
3D-S-COLS-ANLY
370
     9
100
AcDbVertex
100
AcDbPolyFaceMeshVertex
 10
-0.46875
 20
-1.087682247161865
 30
29.75099945068359
 70
   192
  0
VERTEX
  5
9E
330
97
100
AcDbEntity
  8
3D-S-COLS-ANLY
370
     9
100
AcDbVertex
100
AcDbPolyFaceMeshVertex
 10
-0.46875
 20
-0.557923212647438
 30
29.93695449829101
 70
   192
  0
VERTEX
  5
9F
330
97
100
AcDbEntity
  8
3D-S-COLS-ANLY
370
     9
100
AcDbVertex
100
AcDbPolyFaceMeshVertex
 10
-0.46875
 20
-0.0000262232779278
 30
30.0
 70
   192
  0
VERTEX
  5
A0
330
97
100
AcDbEntity
  8
3D-S-COLS-ANLY
370
     9
100
AcDbVertex
100
AcDbPolyFaceMeshVertex
 10
-0.46875
 20
0.6470213681459426
 30
29.91481590270996
 70
   192
  0
VERTEX
  5
A1
330
97
100
AcDbEntity
  8
3D-S-COLS-ANLY
370
     9
100
AcDbVertex
100
AcDbPolyFaceMeshVertex
 10
-0.46875
 20
1.249973773956298
 30
29.66506290435791
 70
   192
  0
VERTEX
  5
A2
330
97
100
AcDbEntity
  8
3D-S-COLS-ANLY
370
     9
100
AcDbVertex
100
AcDbPolyFaceMeshVertex
 10
-0.46875
 20
1.767740786075591
 30
29.26776695251465
 70
   192
  0
VERTEX
  5
A3
330
97
100
AcDbEntity
  8
3D-S-COLS-ANLY
370
     9
100
AcDbVertex
100
AcDbPolyFaceMeshVertex
 10
-0.46875
 20
2.165037274360656
 30
28.74999904632568
 70
   192
  0
VERTEX
  5
A4
330
97
100
AcDbEntity
  8
3D-S-COLS-ANLY
370
     9
100
AcDbVertex
100
AcDbPolyFaceMeshVertex
 10
-0.46875
 20
2.414788305759429
 30
28.14704704284668
 70
   192
  0
VERTEX
  5
A5
330
97
100
AcDbEntity
  8
3D-S-COLS-ANLY
370
     9
100
AcDbVertex
100
AcDbPolyFaceMeshVertex
 10
-0.46875
 20
2.499999940395354
 30
27.50000095367431
 70
   192
  0
VERTEX
  5
A6
330
97
100
AcDbEntity
  8
3D-S-COLS-ANLY
370
     9
100
AcDbVertex
100
AcDbPolyFaceMeshVertex
 10
-0.46875
 20
2.499999940395354
 30
0.0000000000013003
 70
   192
  0
VERTEX
  5
A7
330
97
100
AcDbEntity
  8
3D-S-COLS-ANLY
370
     9
100
AcDbVertex
100
AcDbPolyFaceMeshVertex
 10
-0.46875
 20
-2.499999940395354
 30
0.000000000001231
 70
   192
  0
VERTEX
  5
A8
330
97
100
AcDbEntity
  8
3D-S-COLS-ANLY
370
     9
100
AcDbFaceRecord
 10
0.0
 20
0.0
 30
0.0
 70
   128
 71
   -13
 72
    -3
 73
    11
 74
    12
  0
VERTEX
  5
A9
330
97
100
AcDbEntity
  8
3D-S-COLS-ANLY
370
     9
100
AcDbFaceRecord
 10
0.0
 20
0.0
 30
0.0
 70
   128
 71
    -1
 72
    13
 73
    14
 74
   -15
  0
VERTEX
  5
AA
330
97
100
AcDbEntity
  8
3D-S-COLS-ANLY
370
     9
100
AcDbFaceRecord
 10
0.0
 20
0.0
 30
0.0
 70
   128
 71
    10
 72
   -11
 73
     9
  0
VERTEX
  5
AB
330
97
100
AcDbEntity
  8
3D-S-COLS-ANLY
370
     9
100
AcDbFaceRecord
 10
0.0
 20
0.0
 30
0.0
 70
   128
 71
     7
 72
     8
 73
    -9
 74
   -11
  0
VERTEX
  5
AC
330
97
100
AcDbEntity
  8
3D-S-COLS-ANLY
370
     9
100
AcDbFaceRecord
 10
0.0
 20
0.0
 30
0.0
 70
   128
 71
     2
 72
    -3
 73
   -13
 74
     1
  0
VERTEX
  5
AD
330
97
100
AcDbEntity
  8
3D-S-COLS-ANLY
370
     9
100
AcDbFaceRecord
 10
0.0
 20
0.0
 30
0.0
 70
   128
 71
   -11
 72
     3
 73
    -4
  0
VERTEX
  5
AE
330
97
100
AcDbEntity
  8
3D-S-COLS-ANLY
370
     9
100
AcDbFaceRecord
 10
0.0
 20
0.0
 30
0.0
 70
   128
 71
    -7
 72
   -11
 73
     6
  0
VERTEX
  5
AF
330
97
100
AcDbEntity
  8
3D-S-COLS-ANLY
370
     9
100
AcDbFaceRecord
 10
0.0
 20
0.0
 30
0.0
 70
   128
 71
     4
 72
     5
 73
    -6
 74
   -11
  0
VERTEX
  5
B0
330
97
100
AcDbEntity
  8
3D-S-COLS-ANLY
370
     9
100
AcDbFaceRecord
 10
0.0
 20
0.0
 30
0.0
 70
   128
 71
    -1
 72
    15
 73
    16
  0
SEQEND
  5
B1
330
97
100
AcDbEntity
  8
3D-S-COLS-ANLY
370
     9
  0
POLYLINE
  5
B2
330
7B
100
AcDbEntity
  8
3D-S-COLS-ANLY
370
     9
100
AcDbPolyFaceMesh
 66
     1
 10
0.0
 20
0.0
 30
0.0
 70
    64
 71
     4
 72
     1
1001
REVIT
1002
{
1070
     3
1000
142059
1002
}
  0
VERTEX
  5
B3
330
B2
100
AcDbEntity
  8
3D-S-COLS-ANLY
370
     9
100
AcDbVertex
100
AcDbPolyFaceMeshVertex
 10
0.46875
 20
-2.499999940395354
 30
0.000000000001231
 70
   192
  0
VERTEX
  5
B4
330
B2
100
AcDbEntity
  8
3D-S-COLS-ANLY
370
     9
100
AcDbVertex
100
AcDbPolyFaceMeshVertex
 10
0.46875
 20
-2.499999940395354
 30
27.48854827880859
 70
   192
  0
VERTEX
  5
B5
330
B2
100
AcDbEntity
  8
3D-S-COLS-ANLY
370
     9
100
AcDbVertex
100
AcDbPolyFaceMeshVertex
 10
-0.46875
 20
-2.499999940395354
 30
27.48854827880859
 70
   192
  0
VERTEX
  5
B6
330
B2
100
AcDbEntity
  8
3D-S-COLS-ANLY
370
     9
100
AcDbVertex
100
AcDbPolyFaceMeshVertex
 10
-0.46875
 20
-2.499999940395354
 30
0.000000000001231
 70
   192
  0
VERTEX
  5
B7
330
B2
100
AcDbEntity
  8
3D-S-COLS-ANLY
370
     9
100
AcDbFaceRecord
 10
0.0
 20
0.0
 30
0.0
 70
   128
 71
     1
 72
     2
 73
     3
 74
     4
  0
SEQEND
  5
B8
330
B2
100
AcDbEntity
  8
3D-S-COLS-ANLY
370
     9
  0
POLYLINE
  5
B9
330
7B
100
AcDbEntity
  8
3D-S-COLS-ANLY
370
     9
100
AcDbPolyFaceMesh
 66
     1
 10
0.0
 20
0.0
 30
0.0
 70
    64
 71
     4
 72
     1
1001
REVIT
1002
{
1070
     3
1000
142059
1002
}
  0
VERTEX
  5
BA
330
B9
100
AcDbEntity
  8
3D-S-COLS-ANLY
370
     9
100
AcDbVertex
100
AcDbPolyFaceMeshVertex
 10
0.46875
 20
2.499999940395354
 30
0.0000000000013003
 70
   192
  0
VERTEX
  5
BB
330
B9
100
AcDbEntity
  8
3D-S-COLS-ANLY
370
     9
100
AcDbVertex
100
AcDbPolyFaceMeshVertex
 10
0.46875
 20
-2.499999940395354
 30
0.000000000001231
 70
   192
  0
VERTEX
  5
BC
330
B9
100
AcDbEntity
  8
3D-S-COLS-ANLY
370
     9
100
AcDbVertex
100
AcDbPolyFaceMeshVertex
 10
-0.46875
 20
-2.499999940395354
 30
0.000000000001231
 70
   192
  0
VERTEX
  5
BD
330
B9
100
AcDbEntity
  8
3D-S-COLS-ANLY
370
     9
100
AcDbVertex
100
AcDbPolyFaceMeshVertex
 10
-0.46875
 20
2.499999940395354
 30
0.0000000000013003
 70
   192
  0
VERTEX
  5
BE
330
B9
100
AcDbEntity
  8
3D-S-COLS-ANLY
370
     9
100
AcDbFaceRecord
 10
0.0
 20
0.0
 30
0.0
 70
   128
 71
     1
 72
     2
 73
     3
 74
     4
  0
SEQEND
  5
BF
330
B9
100
AcDbEntity
  8
3D-S-COLS-ANLY
370
     9
  0
POLYLINE
  5
C0
330
7B
100
AcDbEntity
  8
3D-S-COLS-ANLY
370
     9
100
AcDbPolyFaceMesh
 66
     1
 10
0.0
 20
0.0
 30
0.0
 70
    64
 71
     4
 72
     1
1001
REVIT
1002
{
1070
     3
1000
142059
1002
}
  0
VERTEX
  5
C1
330
C0
100
AcDbEntity
  8
3D-S-COLS-ANLY
370
     9
100
AcDbVertex
100
AcDbPolyFaceMeshVertex
 10
0.46875
 20
2.499999940395354
 30
27.50000095367431
 70
   192
  0
VERTEX
  5
C2
330
C0
100
AcDbEntity
  8
3D-S-COLS-ANLY
370
     9
100
AcDbVertex
100
AcDbPolyFaceMeshVertex
 10
0.46875
 20
2.499999940395354
 30
0.0000000000013003
 70
   192
  0
VERTEX
  5
C3
330
C0
100
AcDbEntity
  8
3D-S-COLS-ANLY
370
     9
100
AcDbVertex
100
AcDbPolyFaceMeshVertex
 10
-0.46875
 20
2.499999940395354
 30
0.0000000000013003
 70
   192
  0
VERTEX
  5
C4
330
C0
100
AcDbEntity
  8
3D-S-COLS-ANLY
370
     9
100
AcDbVertex
100
AcDbPolyFaceMeshVertex
 10
-0.46875
 20
2.499999940395354
 30
27.50000095367431
 70
   192
  0
VERTEX
  5
C5
330
C0
100
AcDbEntity
  8
3D-S-COLS-ANLY
370
     9
100
AcDbFaceRecord
 10
0.0
 20
0.0
 30
0.0
 70
   128
 71
     1
 72
     2
 73
     3
 74
     4
  0
SEQEND
  5
C6
330
C0
100
AcDbEntity
  8
3D-S-COLS-ANLY
370
     9
  0
POLYLINE
  5
C7
330
7B
100
AcDbEntity
  8
3D-S-COLS-ANLY
370
     9
100
AcDbPolyFaceMesh
 66
     1
 10
0.0
 20
0.0
 30
0.0
 70
    64
 71
    14
 72
     6
1001
REVIT
1002
{
1070
     3
1000
142059
1002
}
  0
VERTEX
  5
C8
330
C7
100
AcDbEntity
  8
3D-S-COLS-ANLY
370
     9
100
AcDbVertex
100
AcDbPolyFaceMeshVertex
 10
0.46875
 20
-0.0000262232779278
 30
30.0
 70
   192
  0
VERTEX
  5
C9
330
C7
100
AcDbEntity
  8
3D-S-COLS-ANLY
370
     9
100
AcDbVertex
100
AcDbPolyFaceMeshVertex
 10
0.46875
 20
0.6470213681459426
 30
29.91481590270996
 70
   192
  0
VERTEX
  5
CA
330
C7
100
AcDbEntity
  8
3D-S-COLS-ANLY
370
     9
100
AcDbVertex
100
AcDbPolyFaceMeshVertex
 10
0.46875
 20
1.249973773956298
 30
29.66506290435791
 70
   192
  0
VERTEX
  5
CB
330
C7
100
AcDbEntity
  8
3D-S-COLS-ANLY
370
     9
100
AcDbVertex
100
AcDbPolyFaceMeshVertex
 10
0.46875
 20
1.767740786075591
 30
29.26776695251465
 70
   192
  0
VERTEX
  5
CC
330
C7
100
AcDbEntity
  8
3D-S-COLS-ANLY
370
     9
100
AcDbVertex
100
AcDbPolyFaceMeshVertex
 10
0.46875
 20
2.165037274360656
 30
28.74999904632568
 70
   192
  0
VERTEX
  5
CD
330
C7
100
AcDbEntity
  8
3D-S-COLS-ANLY
370
     9
100
AcDbVertex
100
AcDbPolyFaceMeshVertex
 10
0.46875
 20
2.414788305759429
 30
28.14704704284668
 70
   192
  0
VERTEX
  5
CE
330
C7
100
AcDbEntity
  8
3D-S-COLS-ANLY
370
     9
100
AcDbVertex
100
AcDbPolyFaceMeshVertex
 10
0.46875
 20
2.499973833560943
 30
27.50000095367431
 70
   192
  0
VERTEX
  5
CF
330
C7
100
AcDbEntity
  8
3D-S-COLS-ANLY
370
     9
100
AcDbVertex
100
AcDbPolyFaceMeshVertex
 10
-0.46875
 20
2.499973833560943
 30
27.50000095367431
 70
   192
  0
VERTEX
  5
D0
330
C7
100
AcDbEntity
  8
3D-S-COLS-ANLY
370
     9
100
AcDbVertex
100
AcDbPolyFaceMeshVertex
 10
-0.46875
 20
2.414788305759429
 30
28.14704704284668
 70
   192
  0
VERTEX
  5
D1
330
C7
100
AcDbEntity
  8
3D-S-COLS-ANLY
370
     9
100
AcDbVertex
100
AcDbPolyFaceMeshVertex
 10
-0.46875
 20
2.165037274360656
 30
28.74999904632568
 70
   192
  0
VERTEX
  5
D2
330
C7
100
AcDbEntity
  8
3D-S-COLS-ANLY
370
     9
100
AcDbVertex
100
AcDbPolyFaceMeshVertex
 10
-0.46875
 20
1.767740786075591
 30
29.26776695251465
 70
   192
  0
VERTEX
  5
D3
330
C7
100
AcDbEntity
  8
3D-S-COLS-ANLY
370
     9
100
AcDbVertex
100
AcDbPolyFaceMeshVertex
 10
-0.46875
 20
1.249973773956298
 30
29.66506290435791
 70
   192
  0
VERTEX
  5
D4
330
C7
100
AcDbEntity
  8
3D-S-COLS-ANLY
370
     9
100
AcDbVertex
100
AcDbPolyFaceMeshVertex
 10
-0.46875
 20
0.6470213681459426
 30
29.91481590270996
 70
   192
  0
VERTEX
  5
D5
330
C7
100
AcDbEntity
  8
3D-S-COLS-ANLY
370
     9
100
AcDbVertex
100
AcDbPolyFaceMeshVertex
 10
-0.46875
 20
-0.0000262232779278
 30
30.0
 70
   192
  0
VERTEX
  5
D6
330
C7
100
AcDbEntity
  8
3D-S-COLS-ANLY
370
     9
100
AcDbFaceRecord
 10
0.0
 20
0.0
 30
0.0
 70
   128
 71
     7
 72
     8
 73
    -9
 74
     6
  0
VERTEX
  5
D7
330
C7
100
AcDbEntity
  8
3D-S-COLS-ANLY
370
     9
100
AcDbFaceRecord
 10
0.0
 20
0.0
 30
0.0
 70
   128
 71
    -6
 72
     9
 73
   -10
 74
     5
  0
VERTEX
  5
D8
330
C7
100
AcDbEntity
  8
3D-S-COLS-ANLY
370
     9
100
AcDbFaceRecord
 10
0.0
 20
0.0
 30
0.0
 70
   128
 71
   -11
 72
     4
 73
    -5
 74
    10
  0
VERTEX
  5
D9
330
C7
100
AcDbEntity
  8
3D-S-COLS-ANLY
370
     9
100
AcDbFaceRecord
 10
0.0
 20
0.0
 30
0.0
 70
   128
 71
    -3
 72
    12
 73
   -13
 74
     2
  0
VERTEX
  5
DA
330
C7
100
AcDbEntity
  8
3D-S-COLS-ANLY
370
     9
100
AcDbFaceRecord
 10
0.0
 20
0.0
 30
0.0
 70
   128
 71
    -2
 72
    13
 73
    14
 74
     1
  0
VERTEX
  5
DB
330
C7
100
AcDbEntity
  8
3D-S-COLS-ANLY
370
     9
100
AcDbFaceRecord
 10
0.0
 20
0.0
 30
0.0
 70
   128
 71
   -12
 72
     3
 73
    -4
 74
    11
  0
SEQEND
  5
DC
330
C7
100
AcDbEntity
  8
3D-S-COLS-ANLY
370
     9
  0
POLYLINE
  5
DD
330
7B
100
AcDbEntity
  8
3D-S-COLS-ANLY
370
     9
100
AcDbPolyFaceMesh
 66
     1
 10
0.0
 20
0.0
 30
0.0
 70
    64
 71
    16
 72
     7
1001
REVIT
1002
{
1070
     3
1000
142059
1002
}
  0
VERTEX
  5
DE
330
DD
100
AcDbEntity
  8
3D-S-COLS-ANLY
370
     9
100
AcDbVertex
100
AcDbPolyFaceMeshVertex
 10
0.46875
 20
-2.499999940395354
 30
27.48854827880859
 70
   192
  0
VERTEX
  5
DF
330
DD
100
AcDbEntity
  8
3D-S-COLS-ANLY
370
     9
100
AcDbVertex
100
AcDbPolyFaceMeshVertex
 10
0.46875
 20
-2.4395112991333
 30
28.04672813415527
 70
   192
  0
VERTEX
  5
E0
330
DD
100
AcDbEntity
  8
3D-S-COLS-ANLY
370
     9
100
AcDbVertex
100
AcDbPolyFaceMeshVertex
 10
0.46875
 20
-2.25598508119583
 30
28.57733345031738
 70
   192
  0
VERTEX
  5
E1
330
DD
100
AcDbEntity
  8
3D-S-COLS-ANLY
370
     9
100
AcDbVertex
100
AcDbPolyFaceMeshVertex
 10
0.46875
 20
-1.958677947521209
 30
29.05360221862793
 70
   192
  0
VERTEX
  5
E2
330
DD
100
AcDbEntity
  8
3D-S-COLS-ANLY
370
     9
100
AcDbVertex
100
AcDbPolyFaceMeshVertex
 10
0.46875
 20
-1.562584519386291
 30
29.45151615142822
 70
   192
  0
VERTEX
  5
E3
330
DD
100
AcDbEntity
  8
3D-S-COLS-ANLY
370
     9
100
AcDbVertex
100
AcDbPolyFaceMeshVertex
 10
0.46875
 20
-1.087682247161865
 30
29.75099945068359
 70
   192
  0
VERTEX
  5
E4
330
DD
100
AcDbEntity
  8
3D-S-COLS-ANLY
370
     9
100
AcDbVertex
100
AcDbPolyFaceMeshVertex
 10
0.46875
 20
-0.557923212647438
 30
29.93695449829101
 70
   192
  0
VERTEX
  5
E5
330
DD
100
AcDbEntity
  8
3D-S-COLS-ANLY
370
     9
100
AcDbVertex
100
AcDbPolyFaceMeshVertex
 10
0.46875
 20
-0.0000262232779278
 30
30.0
 70
   192
  0
VERTEX
  5
E6
330
DD
100
AcDbEntity
  8
3D-S-COLS-ANLY
370
     9
100
AcDbVertex
100
AcDbPolyFaceMeshVertex
 10
-0.46875
 20
-0.0000262232779278
 30
30.0
 70
   192
  0
VERTEX
  5
E7
330
DD
100
AcDbEntity
  8
3D-S-COLS-ANLY
370
     9
100
AcDbVertex
100
AcDbPolyFaceMeshVertex
 10
-0.46875
 20
-0.557923212647438
 30
29.93695449829101
 70
   192
  0
VERTEX
  5
E8
330
DD
100
AcDbEntity
  8
3D-S-COLS-ANLY
370
     9
100
AcDbVertex
100
AcDbPolyFaceMeshVertex
 10
-0.46875
 20
-1.087682247161865
 30
29.75099945068359
 70
   192
  0
VERTEX
  5
E9
330
DD
100
AcDbEntity
  8
3D-S-COLS-ANLY
370
     9
100
AcDbVertex
100
AcDbPolyFaceMeshVertex
 10
-0.46875
 20
-1.562584519386291
 30
29.45151615142822
 70
   192
  0
VERTEX
  5
EA
330
DD
100
AcDbEntity
  8
3D-S-COLS-ANLY
370
     9
100
AcDbVertex
100
AcDbPolyFaceMeshVertex
 10
-0.46875
 20
-1.958677947521209
 30
29.05360221862793
 70
   192
  0
VERTEX
  5
EB
330
DD
100
AcDbEntity
  8
3D-S-COLS-ANLY
370
     9
100
AcDbVertex
100
AcDbPolyFaceMeshVertex
 10
-0.46875
 20
-2.25598508119583
 30
28.57733345031738
 70
   192
  0
VERTEX
  5
EC
330
DD
100
AcDbEntity
  8
3D-S-COLS-ANLY
370
     9
100
AcDbVertex
100
AcDbPolyFaceMeshVertex
 10
-0.46875
 20
-2.4395112991333
 30
28.04672813415527
 70
   192
  0
VERTEX
  5
ED
330
DD
100
AcDbEntity
  8
3D-S-COLS-ANLY
370
     9
100
AcDbVertex
100
AcDbPolyFaceMeshVertex
 10
-0.46875
 20
-2.499999940395354
 30
27.48854827880859
 70
   192
  0
VERTEX
  5
EE
330
DD
100
AcDbEntity
  8
3D-S-COLS-ANLY
370
     9
100
AcDbFaceRecord
 10
0.0
 20
0.0
 30
0.0
 70
   128
 71
     8
 72
     9
 73
   -10
 74
     7
  0
VERTEX
  5
EF
330
DD
100
AcDbEntity
  8
3D-S-COLS-ANLY
370
     9
100
AcDbFaceRecord
 10
0.0
 20
0.0
 30
0.0
 70
   128
 71
    -7
 72
    10
 73
   -11
 74
     6
  0
VERTEX
  5
F0
330
DD
100
AcDbEntity
  8
3D-S-COLS-ANLY
370
     9
100
AcDbFaceRecord
 10
0.0
 20
0.0
 30
0.0
 70
   128
 71
    -6
 72
    11
 73
   -12
 74
     5
  0
VERTEX
  5
F1
330
DD
100
AcDbEntity
  8
3D-S-COLS-ANLY
370
     9
100
AcDbFaceRecord
 10
0.0
 20
0.0
 30
0.0
 70
   128
 71
    -5
 72
    12
 73
   -13
 74
     4
  0
VERTEX
  5
F2
330
DD
100
AcDbEntity
  8
3D-S-COLS-ANLY
370
     9
100
AcDbFaceRecord
 10
0.0
 20
0.0
 30
0.0
 70
   128
 71
    -4
 72
    13
 73
   -14
 74
     3
  0
VERTEX
  5
F3
330
DD
100
AcDbEntity
  8
3D-S-COLS-ANLY
370
     9
100
AcDbFaceRecord
 10
0.0
 20
0.0
 30
0.0
 70
   128
 71
    -3
 72
    14
 73
   -15
 74
     2
  0
VERTEX
  5
F4
330
DD
100
AcDbEntity
  8
3D-S-COLS-ANLY
370
     9
100
AcDbFaceRecord
 10
0.0
 20
0.0
 30
0.0
 70
   128
 71
    -2
 72
    15
 73
    16
 74
     1
  0
SEQEND
  5
F5
330
DD
100
AcDbEntity
  8
3D-S-COLS-ANLY
370
     9
  0
POLYLINE
  5
F6
330
7B
100
AcDbEntity
  8
3D-S-COLS-ANLY
370
     9
100
AcDbPolyFaceMesh
 66
     1
 10
0.0
 20
0.0
 30
0.0
 70
    64
 71
    14
 72
     7
1001
REVIT
1002
{
1070
     3
1000
153703
1002
}
  0
VERTEX
  5
F7
330
F6
100
AcDbEntity
  8
3D-S-COLS-ANLY
370
     9
100
AcDbVertex
100
AcDbPolyFaceMeshVertex
 10
0.46875
 20
-4.722607970237731
 30
0.9839555919170377
 70
   192
  0
VERTEX
  5
F8
330
F6
100
AcDbEntity
  8
3D-S-COLS-ANLY
370
     9
100
AcDbVertex
100
AcDbPolyFaceMeshVertex
 10
0.46875
 20
-4.91659641265869
 30
0.8563673794269559
 70
   192
  0
VERTEX
  5
F9
330
F6
100
AcDbEntity
  8
3D-S-COLS-ANLY
370
     9
100
AcDbVertex
100
AcDbPolyFaceMeshVertex
 10
0.46875
 20
-5.134779453277587
 30
0.7769551277160644
 70
   192
  0
VERTEX
  5
FA
330
F6
100
AcDbEntity
  8
3D-S-COLS-ANLY
370
     9
100
AcDbVertex
100
AcDbPolyFaceMeshVertex
 10
0.46875
 20
-5.365395426750182
 30
0.75
 70
   192
  0
VERTEX
  5
FB
330
F6
100
AcDbEntity
  8
3D-S-COLS-ANLY
370
     9
100
AcDbVertex
100
AcDbPolyFaceMeshVertex
 10
0.46875
 20
-7.46894860267639
 30
0.75
 70
   192
  0
VERTEX
  5
FC
330
F6
100
AcDbEntity
  8
3D-S-COLS-ANLY
370
     9
100
AcDbVertex
100
AcDbPolyFaceMeshVertex
 10
0.46875
 20
-7.46894860267639
 30
0.000000000001247
 70
   192
  0
VERTEX
  5
FD
330
F6
100
AcDbEntity
  8
3D-S-COLS-ANLY
370
     9
100
AcDbVertex
100
AcDbPolyFaceMeshVertex
 10
0.46875
 20
7.531051397323607
 30
0.0000000000012736
 70
   192
  0
VERTEX
  5
FE
330
F6
100
AcDbEntity
  8
3D-S-COLS-ANLY
370
     9
100
AcDbVertex
100
AcDbPolyFaceMeshVertex
 10
0.46875
 20
7.531051397323607
 30
0.75
 70
   192
  0
VERTEX
  5
FF
330
F6
100
AcDbEntity
  8
3D-S-COLS-ANLY
370
     9
100
AcDbVertex
100
AcDbPolyFaceMeshVertex
 10
0.46875
 20
5.42749786376953
 30
0.75
 70
   192
  0
VERTEX
  5
100
330
F6
100
AcDbEntity
  8
3D-S-COLS-ANLY
370
     9
100
AcDbVertex
100
AcDbPolyFaceMeshVertex
 10
0.46875
 20
5.196881890296935
 30
0.7769551277160644
 70
   192
  0
VERTEX
  5
101
330
F6
100
AcDbEntity
  8
3D-S-COLS-ANLY
370
     9
100
AcDbVertex
100
AcDbPolyFaceMeshVertex
 10
0.46875
 20
4.97869849205017
 30
0.8563673794269559
 70
   192
  0
VERTEX
  5
102
330
F6
100
AcDbEntity
  8
3D-S-COLS-ANLY
370
     9
100
AcDbVertex
100
AcDbPolyFaceMeshVertex
 10
0.46875
 20
4.78471004962921
 30
0.9839555919170377
 70
   192
  0
VERTEX
  5
103
330
F6
100
AcDbEntity
  8
3D-S-COLS-ANLY
370
     9
100
AcDbVertex
100
AcDbPolyFaceMeshVertex
 10
0.46875
 20
2.501257359981536
 30
2.899999916553496
 70
   192
  0
VERTEX
  5
104
330
F6
100
AcDbEntity
  8
3D-S-COLS-ANLY
370
     9
100
AcDbVertex
100
AcDbPolyFaceMeshVertex
 10
0.46875
 20
-2.439154922962188
 30
2.899999916553496
 70
   192
  0
VERTEX
  5
105
330
F6
100
AcDbEntity
  8
3D-S-COLS-ANLY
370
     9
100
AcDbFaceRecord
 10
0.0
 20
0.0
 30
0.0
 70
   128
 71
     8
 72
    -9
 73
     7
  0
VERTEX
  5
106
330
F6
100
AcDbEntity
  8
3D-S-COLS-ANLY
370
     9
100
AcDbFaceRecord
 10
0.0
 20
0.0
 30
0.0
 70
   128
 71
    -7
 72
     9
 73
   -10
 74
    -3
  0
VERTEX
  5
107
330
F6
100
AcDbEntity
  8
3D-S-COLS-ANLY
370
     9
100
AcDbFaceRecord
 10
0.0
 20
0.0
 30
0.0
 70
   128
 71
    10
 72
   -11
 73
     2
 74
    -3
  0
VERTEX
  5
108
330
F6
100
AcDbEntity
  8
3D-S-COLS-ANLY
370
     9
100
AcDbFaceRecord
 10
0.0
 20
0.0
 30
0.0
 70
   128
 71
    -1
 72
    12
 73
    13
 74
    14
  0
VERTEX
  5
109
330
F6
100
AcDbEntity
  8
3D-S-COLS-ANLY
370
     9
100
AcDbFaceRecord
 10
0.0
 20
0.0
 30
0.0
 70
   128
 71
    -2
 72
    11
 73
   -12
 74
     1
  0
VERTEX
  5
10A
330
F6
100
AcDbEntity
  8
3D-S-COLS-ANLY
370
     9
100
AcDbFaceRecord
 10
0.0
 20
0.0
 30
0.0
 70
   128
 71
     5
 72
    -6
 73
     4
  0
VERTEX
  5
10B
330
F6
100
AcDbEntity
  8
3D-S-COLS-ANLY
370
     9
100
AcDbFaceRecord
 10
0.0
 20
0.0
 30
0.0
 70
   128
 71
     3
 72
    -4
 73
     6
 74
    -7
  0
SEQEND
  5
10C
330
F6
100
AcDbEntity
  8
3D-S-COLS-ANLY
370
     9
  0
POLYLINE
  5
10D
330
7B
100
AcDbEntity
  8
3D-S-COLS-ANLY
370
     9
100
AcDbPolyFaceMesh
 66
     1
 10
0.0
 20
0.0
 30
0.0
 70
    64
 71
    14
 72
     7
1001
REVIT
1002
{
1070
     3
1000
153703
1002
}
  0
VERTEX
  5
10E
330
10D
100
AcDbEntity
  8
3D-S-COLS-ANLY
370
     9
100
AcDbVertex
100
AcDbPolyFaceMeshVertex
 10
-0.46875
 20
-4.722607970237731
 30
0.9839555919170377
 70
   192
  0
VERTEX
  5
10F
330
10D
100
AcDbEntity
  8
3D-S-COLS-ANLY
370
     9
100
AcDbVertex
100
AcDbPolyFaceMeshVertex
 10
-0.46875
 20
-2.439154922962188
 30
2.899999916553496
 70
   192
  0
VERTEX
  5
110
330
10D
100
AcDbEntity
  8
3D-S-COLS-ANLY
370
     9
100
AcDbVertex
100
AcDbPolyFaceMeshVertex
 10
-0.46875
 20
2.501257359981536
 30
2.899999916553496
 70
   192
  0
VERTEX
  5
111
330
10D
100
AcDbEntity
  8
3D-S-COLS-ANLY
370
     9
100
AcDbVertex
100
AcDbPolyFaceMeshVertex
 10
-0.46875
 20
4.78471004962921
 30
0.9839555919170377
 70
   192
  0
VERTEX
  5
112
330
10D
100
AcDbEntity
  8
3D-S-COLS-ANLY
370
     9
100
AcDbVertex
100
AcDbPolyFaceMeshVertex
 10
-0.46875
 20
4.97869849205017
 30
0.8563673794269559
 70
   192
  0
VERTEX
  5
113
330
10D
100
AcDbEntity
  8
3D-S-COLS-ANLY
370
     9
100
AcDbVertex
100
AcDbPolyFaceMeshVertex
 10
-0.46875
 20
5.196881890296935
 30
0.7769551277160644
 70
   192
  0
VERTEX
  5
114
330
10D
100
AcDbEntity
  8
3D-S-COLS-ANLY
370
     9
100
AcDbVertex
100
AcDbPolyFaceMeshVertex
 10
-0.46875
 20
5.42749786376953
 30
0.75
 70
   192
  0
VERTEX
  5
115
330
10D
100
AcDbEntity
  8
3D-S-COLS-ANLY
370
     9
100
AcDbVertex
100
AcDbPolyFaceMeshVertex
 10
-0.46875
 20
7.531051397323607
 30
0.75
 70
   192
  0
VERTEX
  5
116
330
10D
100
AcDbEntity
  8
3D-S-COLS-ANLY
370
     9
100
AcDbVertex
100
AcDbPolyFaceMeshVertex
 10
-0.46875
 20
7.531051397323607
 30
0.0000000000012736
 70
   192
  0
VERTEX
  5
117
330
10D
100
AcDbEntity
  8
3D-S-COLS-ANLY
370
     9
100
AcDbVertex
100
AcDbPolyFaceMeshVertex
 10
-0.46875
 20
-7.46894860267639
 30
0.000000000001247
 70
   192
  0
VERTEX
  5
118
330
10D
100
AcDbEntity
  8
3D-S-COLS-ANLY
370
     9
100
AcDbVertex
100
AcDbPolyFaceMeshVertex
 10
-0.46875
 20
-7.46894860267639
 30
0.75
 70
   192
  0
VERTEX
  5
119
330
10D
100
AcDbEntity
  8
3D-S-COLS-ANLY
370
     9
100
AcDbVertex
100
AcDbPolyFaceMeshVertex
 10
-0.46875
 20
-5.365395426750182
 30
0.75
 70
   192
  0
VERTEX
  5
11A
330
10D
100
AcDbEntity
  8
3D-S-COLS-ANLY
370
     9
100
AcDbVertex
100
AcDbPolyFaceMeshVertex
 10
-0.46875
 20
-5.134779453277587
 30
0.7769551277160644
 70
   192
  0
VERTEX
  5
11B
330
10D
100
AcDbEntity
  8
3D-S-COLS-ANLY
370
     9
100
AcDbVertex
100
AcDbPolyFaceMeshVertex
 10
-0.46875
 20
-4.91659641265869
 30
0.8563673794269559
 70
   192
  0
VERTEX
  5
11C
330
10D
100
AcDbEntity
  8
3D-S-COLS-ANLY
370
     9
100
AcDbFaceRecord
 10
0.0
 20
0.0
 30
0.0
 70
   128
 71
    -9
 72
     7
 73
     8
  0
VERTEX
  5
11D
330
10D
100
AcDbEntity
  8
3D-S-COLS-ANLY
370
     9
100
AcDbFaceRecord
 10
0.0
 20
0.0
 30
0.0
 70
   128
 71
     6
 72
    -7
 73
    -9
 74
   -13
  0
VERTEX
  5
11E
330
10D
100
AcDbEntity
  8
3D-S-COLS-ANLY
370
     9
100
AcDbFaceRecord
 10
0.0
 20
0.0
 30
0.0
 70
   128
 71
   -14
 72
     5
 73
    -6
 74
    13
  0
VERTEX
  5
11F
330
10D
100
AcDbEntity
  8
3D-S-COLS-ANLY
370
     9
100
AcDbFaceRecord
 10
0.0
 20
0.0
 30
0.0
 70
   128
 71
     3
 72
    -4
 73
     1
 74
     2
  0
VERTEX
  5
120
330
10D
100
AcDbEntity
  8
3D-S-COLS-ANLY
370
     9
100
AcDbFaceRecord
 10
0.0
 20
0.0
 30
0.0
 70
   128
 71
     4
 72
    -5
 73
    14
 74
    -1
  0
VERTEX
  5
121
330
10D
100
AcDbEntity
  8
3D-S-COLS-ANLY
370
     9
100
AcDbFaceRecord
 10
0.0
 20
0.0
 30
0.0
 70
   128
 71
   -12
 72
    10
 73
    11
  0
VERTEX
  5
122
330
10D
100
AcDbEntity
  8
3D-S-COLS-ANLY
370
     9
100
AcDbFaceRecord
 10
0.0
 20
0.0
 30
0.0
 70
   128
 71
   -10
 72
    12
 73
   -13
 74
     9
  0
SEQEND
  5
123
330
10D
100
AcDbEntity
  8
3D-S-COLS-ANLY
370
     9
  0
POLYLINE
  5
124
330
7B
100
AcDbEntity
  8
3D-S-COLS-ANLY
370
     9
100
AcDbPolyFaceMesh
 66
     1
 10
0.0
 20
0.0
 30
0.0
 70
    64
 71
     8
 72
     3
1001
REVIT
1002
{
1070
     3
1000
153703
1002
}
  0
VERTEX
  5
125
330
124
100
AcDbEntity
  8
3D-S-COLS-ANLY
370
     9
100
AcDbVertex
100
AcDbPolyFaceMeshVertex
 10
0.46875
 20
-5.365395426750182
 30
0.75
 70
   192
  0
VERTEX
  5
126
330
124
100
AcDbEntity
  8
3D-S-COLS-ANLY
370
     9
100
AcDbVertex
100
AcDbPolyFaceMeshVertex
 10
0.46875
 20
-5.134779453277587
 30
0.7769551277160644
 70
   192
  0
VERTEX
  5
127
330
124
100
AcDbEntity
  8
3D-S-COLS-ANLY
370
     9
100
AcDbVertex
100
AcDbPolyFaceMeshVertex
 10
0.46875
 20
-4.91659641265869
 30
0.8563673794269559
 70
   192
  0
VERTEX
  5
128
330
124
100
AcDbEntity
  8
3D-S-COLS-ANLY
370
     9
100
AcDbVertex
100
AcDbPolyFaceMeshVertex
 10
0.46875
 20
-4.722607970237731
 30
0.9839555919170377
 70
   192
  0
VERTEX
  5
129
330
124
100
AcDbEntity
  8
3D-S-COLS-ANLY
370
     9
100
AcDbVertex
100
AcDbPolyFaceMeshVertex
 10
-0.46875
 20
-4.722607970237731
 30
0.9839555919170377
 70
   192
  0
VERTEX
  5
12A
330
124
100
AcDbEntity
  8
3D-S-COLS-ANLY
370
     9
100
AcDbVertex
100
AcDbPolyFaceMeshVertex
 10
-0.46875
 20
-4.91659641265869
 30
0.8563673794269559
 70
   192
  0
VERTEX
  5
12B
330
124
100
AcDbEntity
  8
3D-S-COLS-ANLY
370
     9
100
AcDbVertex
100
AcDbPolyFaceMeshVertex
 10
-0.46875
 20
-5.134779453277587
 30
0.7769551277160644
 70
   192
  0
VERTEX
  5
12C
330
124
100
AcDbEntity
  8
3D-S-COLS-ANLY
370
     9
100
AcDbVertex
100
AcDbPolyFaceMeshVertex
 10
-0.46875
 20
-5.365395426750182
 30
0.75
 70
   192
  0
VERTEX
  5
12D
330
124
100
AcDbEntity
  8
3D-S-COLS-ANLY
370
     9
100
AcDbFaceRecord
 10
0.0
 20
0.0
 30
0.0
 70
   128
 71
    -6
 72
     3
 73
     4
 74
     5
  0
VERTEX
  5
12E
330
124
100
AcDbEntity
  8
3D-S-COLS-ANLY
370
     9
100
AcDbFaceRecord
 10
0.0
 20
0.0
 30
0.0
 70
   128
 71
    -3
 72
     6
 73
    -7
 74
     2
  0
VERTEX
  5
12F
330
124
100
AcDbEntity
  8
3D-S-COLS-ANLY
370
     9
100
AcDbFaceRecord
 10
0.0
 20
0.0
 30
0.0
 70
   128
 71
     8
 72
     1
 73
    -2
 74
     7
  0
SEQEND
  5
130
330
124
100
AcDbEntity
  8
3D-S-COLS-ANLY
370
     9
  0
POLYLINE
  5
131
330
7B
100
AcDbEntity
  8
3D-S-COLS-ANLY
370
     9
100
AcDbPolyFaceMesh
 66
     1
 10
0.0
 20
0.0
 30
0.0
 70
    64
 71
     4
 72
     1
1001
REVIT
1002
{
1070
     3
1000
153703
1002
}
  0
VERTEX
  5
132
330
131
100
AcDbEntity
  8
3D-S-COLS-ANLY
370
     9
100
AcDbVertex
100
AcDbPolyFaceMeshVertex
 10
0.46875
 20
-7.46894860267639
 30
0.75
 70
   192
  0
VERTEX
  5
133
330
131
100
AcDbEntity
  8
3D-S-COLS-ANLY
370
     9
100
AcDbVertex
100
AcDbPolyFaceMeshVertex
 10
0.46875
 20
-5.365395426750182
 30
0.75
 70
   192
  0
VERTEX
  5
134
330
131
100
AcDbEntity
  8
3D-S-COLS-ANLY
370
     9
100
AcDbVertex
100
AcDbPolyFaceMeshVertex
 10
-0.46875
 20
-5.365395426750182
 30
0.75
 70
   192
  0
VERTEX
  5
135
330
131
100
AcDbEntity
  8
3D-S-COLS-ANLY
370
     9
100
AcDbVertex
100
AcDbPolyFaceMeshVertex
 10
-0.46875
 20
-7.46894860267639
 30
0.75
 70
   192
  0
VERTEX
  5
136
330
131
100
AcDbEntity
  8
3D-S-COLS-ANLY
370
     9
100
AcDbFaceRecord
 10
0.0
 20
0.0
 30
0.0
 70
   128
 71
     1
 72
     2
 73
     3
 74
     4
  0
SEQEND
  5
137
330
131
100
AcDbEntity
  8
3D-S-COLS-ANLY
370
     9
  0
POLYLINE
  5
138
330
7B
100
AcDbEntity
  8
3D-S-COLS-ANLY
370
     9
100
AcDbPolyFaceMesh
 66
     1
 10
0.0
 20
0.0
 30
0.0
 70
    64
 71
     4
 72
     1
1001
REVIT
1002
{
1070
     3
1000
153703
1002
}
  0
VERTEX
  5
139
330
138
100
AcDbEntity
  8
3D-S-COLS-ANLY
370
     9
100
AcDbVertex
100
AcDbPolyFaceMeshVertex
 10
0.46875
 20
-7.46894860267639
 30
0.000000000001245
 70
   192
  0
VERTEX
  5
13A
330
138
100
AcDbEntity
  8
3D-S-COLS-ANLY
370
     9
100
AcDbVertex
100
AcDbPolyFaceMeshVertex
 10
0.46875
 20
-7.46894860267639
 30
0.75
 70
   192
  0
VERTEX
  5
13B
330
138
100
AcDbEntity
  8
3D-S-COLS-ANLY
370
     9
100
AcDbVertex
100
AcDbPolyFaceMeshVertex
 10
-0.46875
 20
-7.46894860267639
 30
0.75
 70
   192
  0
VERTEX
  5
13C
330
138
100
AcDbEntity
  8
3D-S-COLS-ANLY
370
     9
100
AcDbVertex
100
AcDbPolyFaceMeshVertex
 10
-0.46875
 20
-7.46894860267639
 30
0.000000000001245
 70
   192
  0
VERTEX
  5
13D
330
138
100
AcDbEntity
  8
3D-S-COLS-ANLY
370
     9
100
AcDbFaceRecord
 10
0.0
 20
0.0
 30
0.0
 70
   128
 71
     1
 72
     2
 73
     3
 74
     4
  0
SEQEND
  5
13E
330
138
100
AcDbEntity
  8
3D-S-COLS-ANLY
370
     9
  0
POLYLINE
  5
13F
330
7B
100
AcDbEntity
  8
3D-S-COLS-ANLY
370
     9
100
AcDbPolyFaceMesh
 66
     1
 10
0.0
 20
0.0
 30
0.0
 70
    64
 71
     4
 72
     1
1001
REVIT
1002
{
1070
     3
1000
153703
1002
}
  0
VERTEX
  5
140
330
13F
100
AcDbEntity
  8
3D-S-COLS-ANLY
370
     9
100
AcDbVertex
100
AcDbPolyFaceMeshVertex
 10
0.46875
 20
7.531051397323607
 30
0.0000000000012733
 70
   192
  0
VERTEX
  5
141
330
13F
100
AcDbEntity
  8
3D-S-COLS-ANLY
370
     9
100
AcDbVertex
100
AcDbPolyFaceMeshVertex
 10
0.46875
 20
-7.46894860267639
 30
0.000000000001245
 70
   192
  0
VERTEX
  5
142
330
13F
100
AcDbEntity
  8
3D-S-COLS-ANLY
370
     9
100
AcDbVertex
100
AcDbPolyFaceMeshVertex
 10
-0.46875
 20
-7.46894860267639
 30
0.000000000001245
 70
   192
  0
VERTEX
  5
143
330
13F
100
AcDbEntity
  8
3D-S-COLS-ANLY
370
     9
100
AcDbVertex
100
AcDbPolyFaceMeshVertex
 10
-0.46875
 20
7.531051397323607
 30
0.0000000000012733
 70
   192
  0
VERTEX
  5
144
330
13F
100
AcDbEntity
  8
3D-S-COLS-ANLY
370
     9
100
AcDbFaceRecord
 10
0.0
 20
0.0
 30
0.0
 70
   128
 71
     1
 72
     2
 73
     3
 74
     4
  0
SEQEND
  5
145
330
13F
100
AcDbEntity
  8
3D-S-COLS-ANLY
370
     9
  0
POLYLINE
  5
146
330
7B
100
AcDbEntity
  8
3D-S-COLS-ANLY
370
     9
100
AcDbPolyFaceMesh
 66
     1
 10
0.0
 20
0.0
 30
0.0
 70
    64
 71
     4
 72
     1
1001
REVIT
1002
{
1070
     3
1000
153703
1002
}
  0
VERTEX
  5
147
330
146
100
AcDbEntity
  8
3D-S-COLS-ANLY
370
     9
100
AcDbVertex
100
AcDbPolyFaceMeshVertex
 10
0.46875
 20
7.531051397323607
 30
0.75
 70
   192
  0
VERTEX
  5
148
330
146
100
AcDbEntity
  8
3D-S-COLS-ANLY
370
     9
100
AcDbVertex
100
AcDbPolyFaceMeshVertex
 10
0.46875
 20
7.531051397323607
 30
0.0000000000012733
 70
   192
  0
VERTEX
  5
149
330
146
100
AcDbEntity
  8
3D-S-COLS-ANLY
370
     9
100
AcDbVertex
100
AcDbPolyFaceMeshVertex
 10
-0.46875
 20
7.531051397323607
 30
0.0000000000012733
 70
   192
  0
VERTEX
  5
14A
330
146
100
AcDbEntity
  8
3D-S-COLS-ANLY
370
     9
100
AcDbVertex
100
AcDbPolyFaceMeshVertex
 10
-0.46875
 20
7.531051397323607
 30
0.75
 70
   192
  0
VERTEX
  5
14B
330
146
100
AcDbEntity
  8
3D-S-COLS-ANLY
370
     9
100
AcDbFaceRecord
 10
0.0
 20
0.0
 30
0.0
 70
   128
 71
     1
 72
     2
 73
     3
 74
     4
  0
SEQEND
  5
14C
330
146
100
AcDbEntity
  8
3D-S-COLS-ANLY
370
     9
  0
POLYLINE
  5
14D
330
7B
100
AcDbEntity
  8
3D-S-COLS-ANLY
370
     9
100
AcDbPolyFaceMesh
 66
     1
 10
0.0
 20
0.0
 30
0.0
 70
    64
 71
     4
 72
     1
1001
REVIT
1002
{
1070
     3
1000
153703
1002
}
  0
VERTEX
  5
14E
330
14D
100
AcDbEntity
  8
3D-S-COLS-ANLY
370
     9
100
AcDbVertex
100
AcDbPolyFaceMeshVertex
 10
0.46875
 20
5.42749786376953
 30
0.75
 70
   192
  0
VERTEX
  5
14F
330
14D
100
AcDbEntity
  8
3D-S-COLS-ANLY
370
     9
100
AcDbVertex
100
AcDbPolyFaceMeshVertex
 10
0.46875
 20
7.531051397323607
 30
0.75
 70
   192
  0
VERTEX
  5
150
330
14D
100
AcDbEntity
  8
3D-S-COLS-ANLY
370
     9
100
AcDbVertex
100
AcDbPolyFaceMeshVertex
 10
-0.46875
 20
7.531051397323607
 30
0.75
 70
   192
  0
VERTEX
  5
151
330
14D
100
AcDbEntity
  8
3D-S-COLS-ANLY
370
     9
100
AcDbVertex
100
AcDbPolyFaceMeshVertex
 10
-0.46875
 20
5.42749786376953
 30
0.75
 70
   192
  0
VERTEX
  5
152
330
14D
100
AcDbEntity
  8
3D-S-COLS-ANLY
370
     9
100
AcDbFaceRecord
 10
0.0
 20
0.0
 30
0.0
 70
   128
 71
     4
 72
     1
 73
     2
 74
     3
  0
SEQEND
  5
153
330
14D
100
AcDbEntity
  8
3D-S-COLS-ANLY
370
     9
  0
POLYLINE
  5
154
330
7B
100
AcDbEntity
  8
3D-S-COLS-ANLY
370
     9
100
AcDbPolyFaceMesh
 66
     1
 10
0.0
 20
0.0
 30
0.0
 70
    64
 71
     8
 72
     3
1001
REVIT
1002
{
1070
     3
1000
153703
1002
}
  0
VERTEX
  5
155
330
154
100
AcDbEntity
  8
3D-S-COLS-ANLY
370
     9
100
AcDbVertex
100
AcDbPolyFaceMeshVertex
 10
0.46875
 20
4.78471004962921
 30
0.9839555919170377
 70
   192
  0
VERTEX
  5
156
330
154
100
AcDbEntity
  8
3D-S-COLS-ANLY
370
     9
100
AcDbVertex
100
AcDbPolyFaceMeshVertex
 10
0.46875
 20
4.97869849205017
 30
0.8563673794269559
 70
   192
  0
VERTEX
  5
157
330
154
100
AcDbEntity
  8
3D-S-COLS-ANLY
370
     9
100
AcDbVertex
100
AcDbPolyFaceMeshVertex
 10
0.46875
 20
5.196881890296935
 30
0.7769551277160644
 70
   192
  0
VERTEX
  5
158
330
154
100
AcDbEntity
  8
3D-S-COLS-ANLY
370
     9
100
AcDbVertex
100
AcDbPolyFaceMeshVertex
 10
0.46875
 20
5.42749786376953
 30
0.75
 70
   192
  0
VERTEX
  5
159
330
154
100
AcDbEntity
  8
3D-S-COLS-ANLY
370
     9
100
AcDbVertex
100
AcDbPolyFaceMeshVertex
 10
-0.46875
 20
5.42749786376953
 30
0.75
 70
   192
  0
VERTEX
  5
15A
330
154
100
AcDbEntity
  8
3D-S-COLS-ANLY
370
     9
100
AcDbVertex
100
AcDbPolyFaceMeshVertex
 10
-0.46875
 20
5.196881890296935
 30
0.7769551277160644
 70
   192
  0
VERTEX
  5
15B
330
154
100
AcDbEntity
  8
3D-S-COLS-ANLY
370
     9
100
AcDbVertex
100
AcDbPolyFaceMeshVertex
 10
-0.46875
 20
4.97869849205017
 30
0.8563673794269559
 70
   192
  0
VERTEX
  5
15C
330
154
100
AcDbEntity
  8
3D-S-COLS-ANLY
370
     9
100
AcDbVertex
100
AcDbPolyFaceMeshVertex
 10
-0.46875
 20
4.78471004962921
 30
0.9839555919170377
 70
   192
  0
VERTEX
  5
15D
330
154
100
AcDbEntity
  8
3D-S-COLS-ANLY
370
     9
100
AcDbFaceRecord
 10
0.0
 20
0.0
 30
0.0
 70
   128
 71
    -6
 72
     3
 73
     4
 74
     5
  0
VERTEX
  5
15E
330
154
100
AcDbEntity
  8
3D-S-COLS-ANLY
370
     9
100
AcDbFaceRecord
 10
0.0
 20
0.0
 30
0.0
 70
   128
 71
    -3
 72
     6
 73
    -7
 74
     2
  0
VERTEX
  5
15F
330
154
100
AcDbEntity
  8
3D-S-COLS-ANLY
370
     9
100
AcDbFaceRecord
 10
0.0
 20
0.0
 30
0.0
 70
   128
 71
     8
 72
     1
 73
    -2
 74
     7
  0
SEQEND
  5
160
330
154
100
AcDbEntity
  8
3D-S-COLS-ANLY
370
     9
  0
POLYLINE
  5
161
330
7B
100
AcDbEntity
  8
3D-S-COLS-ANLY
370
     9
100
AcDbPolyFaceMesh
 66
     1
 10
0.0
 20
0.0
 30
0.0
 70
    64
 71
     4
 72
     1
1001
REVIT
1002
{
1070
     3
1000
153703
1002
}
  0
VERTEX
  5
162
330
161
100
AcDbEntity
  8
3D-S-COLS-ANLY
370
     9
100
AcDbVertex
100
AcDbPolyFaceMeshVertex
 10
0.46875
 20
2.501257359981536
 30
2.899999916553496
 70
   192
  0
VERTEX
  5
163
330
161
100
AcDbEntity
  8
3D-S-COLS-ANLY
370
     9
100
AcDbVertex
100
AcDbPolyFaceMeshVertex
 10
0.46875
 20
4.78471004962921
 30
0.9839555919170377
 70
   192
  0
VERTEX
  5
164
330
161
100
AcDbEntity
  8
3D-S-COLS-ANLY
370
     9
100
AcDbVertex
100
AcDbPolyFaceMeshVertex
 10
-0.46875
 20
4.78471004962921
 30
0.9839555919170377
 70
   192
  0
VERTEX
  5
165
330
161
100
AcDbEntity
  8
3D-S-COLS-ANLY
370
     9
100
AcDbVertex
100
AcDbPolyFaceMeshVertex
 10
-0.46875
 20
2.501257359981536
 30
2.899999916553496
 70
   192
  0
VERTEX
  5
166
330
161
100
AcDbEntity
  8
3D-S-COLS-ANLY
370
     9
100
AcDbFaceRecord
 10
0.0
 20
0.0
 30
0.0
 70
   128
 71
     4
 72
     1
 73
     2
 74
     3
  0
SEQEND
  5
167
330
161
100
AcDbEntity
  8
3D-S-COLS-ANLY
370
     9
  0
POLYLINE
  5
168
330
7B
100
AcDbEntity
  8
3D-S-COLS-ANLY
370
     9
100
AcDbPolyFaceMesh
 66
     1
 10
0.0
 20
0.0
 30
0.0
 70
    64
 71
     4
 72
     1
1001
REVIT
1002
{
1070
     3
1000
153703
1002
}
  0
VERTEX
  5
169
330
168
100
AcDbEntity
  8
3D-S-COLS-ANLY
370
     9
100
AcDbVertex
100
AcDbPolyFaceMeshVertex
 10
0.46875
 20
-2.439154922962188
 30
2.899999916553496
 70
   192
  0
VERTEX
  5
16A
330
168
100
AcDbEntity
  8
3D-S-COLS-ANLY
370
     9
100
AcDbVertex
100
AcDbPolyFaceMeshVertex
 10
0.46875
 20
2.501257359981536
 30
2.899999916553496
 70
   192
  0
VERTEX
  5
16B
330
168
100
AcDbEntity
  8
3D-S-COLS-ANLY
370
     9
100
AcDbVertex
100
AcDbPolyFaceMeshVertex
 10
-0.46875
 20
2.501257359981536
 30
2.899999916553496
 70
   192
  0
VERTEX
  5
16C
330
168
100
AcDbEntity
  8
3D-S-COLS-ANLY
370
     9
100
AcDbVertex
100
AcDbPolyFaceMeshVertex
 10
-0.46875
 20
-2.439154922962188
 30
2.899999916553496
 70
   192
  0
VERTEX
  5
16D
330
168
100
AcDbEntity
  8
3D-S-COLS-ANLY
370
     9
100
AcDbFaceRecord
 10
0.0
 20
0.0
 30
0.0
 70
   128
 71
     1
 72
     2
 73
     3
 74
     4
  0
SEQEND
  5
16E
330
168
100
AcDbEntity
  8
3D-S-COLS-ANLY
370
     9
  0
POLYLINE
  5
16F
330
7B
100
AcDbEntity
  8
3D-S-COLS-ANLY
370
     9
100
AcDbPolyFaceMesh
 66
     1
 10
0.0
 20
0.0
 30
0.0
 70
    64
 71
     4
 72
     1
1001
REVIT
1002
{
1070
     3
1000
153703
1002
}
  0
VERTEX
  5
170
330
16F
100
AcDbEntity
  8
3D-S-COLS-ANLY
370
     9
100
AcDbVertex
100
AcDbPolyFaceMeshVertex
 10
0.46875
 20
-4.722607970237731
 30
0.9839555919170377
 70
   192
  0
VERTEX
  5
171
330
16F
100
AcDbEntity
  8
3D-S-COLS-ANLY
370
     9
100
AcDbVertex
100
AcDbPolyFaceMeshVertex
 10
0.46875
 20
-2.439154922962188
 30
2.899999916553496
 70
   192
  0
VERTEX
  5
172
330
16F
100
AcDbEntity
  8
3D-S-COLS-ANLY
370
     9
100
AcDbVertex
100
AcDbPolyFaceMeshVertex
 10
-0.46875
 20
-2.439154922962188
 30
2.899999916553496
 70
   192
  0
VERTEX
  5
173
330
16F
100
AcDbEntity
  8
3D-S-COLS-ANLY
370
     9
100
AcDbVertex
100
AcDbPolyFaceMeshVertex
 10
-0.46875
 20
-4.722607970237731
 30
0.9839555919170377
 70
   192
  0
VERTEX
  5
174
330
16F
100
AcDbEntity
  8
3D-S-COLS-ANLY
370
     9
100
AcDbFaceRecord
 10
0.0
 20
0.0
 30
0.0
 70
   128
 71
     4
 72
     1
 73
     2
 74
     3
  0
SEQEND
  5
175
330
16F
100
AcDbEntity
  8
3D-S-COLS-ANLY
370
     9
  0
ENDBLK
  5
177
330
7B
100
AcDbEntity
  8
0
100
AcDbBlockEnd
  0
BLOCK
  5
1BB
330
190
100
AcDbEntity
  8
0
100
AcDbBlockBegin
  2
Blade-Kawneer-Square - Versoleil-151929-Preview
 70
     0
 10
0.0
 20
0.0
 30
0.0
  3
Blade-Kawneer-Square - Versoleil-151929-Preview
  1

  0
POLYLINE
  5
191
330
190
100
AcDbEntity
  8
3D-GENM
370
     9
100
AcDbPolyFaceMesh
 66
     1
 10
0.0
 20
0.0
 30
0.0
 70
    64
 71
     4
 72
     1
1001
REVIT
1002
{
1070
     3
1000
103689
1002
}
  0
VERTEX
  5
192
330
191
100
AcDbEntity
  8
3D-GENM
370
     9
100
AcDbVertex
100
AcDbPolyFaceMeshVertex
 10
30.0
 20
-1.249999970197677
 30
2.499999940395354
 70
   192
  0
VERTEX
  5
193
330
191
100
AcDbEntity
  8
3D-GENM
370
     9
100
AcDbVertex
100
AcDbPolyFaceMeshVertex
 10
30.0
 20
-1.249999970197677
 30
-0.0000000000000826
 70
   192
  0
VERTEX
  5
194
330
191
100
AcDbEntity
  8
3D-GENM
370
     9
100
AcDbVertex
100
AcDbPolyFaceMeshVertex
 10
30.0
 20
1.249999970197677
 30
-0.0000000000000799
 70
   192
  0
VERTEX
  5
195
330
191
100
AcDbEntity
  8
3D-GENM
370
     9
100
AcDbVertex
100
AcDbPolyFaceMeshVertex
 10
30.0
 20
1.249999970197677
 30
2.499999940395354
 70
   192
  0
VERTEX
  5
196
330
191
100
AcDbEntity
  8
3D-GENM
370
     9
100
AcDbFaceRecord
 10
0.0
 20
0.0
 30
0.0
 70
   128
 71
     3
 72
     4
 73
     1
 74
     2
  0
SEQEND
  5
197
330
191
100
AcDbEntity
  8
3D-GENM
370
     9
  0
POLYLINE
  5
198
330
190
100
AcDbEntity
  8
3D-GENM
370
     9
100
AcDbPolyFaceMesh
 66
     1
 10
0.0
 20
0.0
 30
0.0
 70
    64
 71
     4
 72
     1
1001
REVIT
1002
{
1070
     3
1000
103689
1002
}
  0
VERTEX
  5
199
330
198
100
AcDbEntity
  8
3D-GENM
370
     9
100
AcDbVertex
100
AcDbPolyFaceMeshVertex
 10
-30.0
 20
-1.249999970197677
 30
-0.0000000000000826
 70
   192
  0
VERTEX
  5
19A
330
198
100
AcDbEntity
  8
3D-GENM
370
     9
100
AcDbVertex
100
AcDbPolyFaceMeshVertex
 10
-30.0
 20
-1.249999970197677
 30
2.499999940395354
 70
   192
  0
VERTEX
  5
19B
330
198
100
AcDbEntity
  8
3D-GENM
370
     9
100
AcDbVertex
100
AcDbPolyFaceMeshVertex
 10
-30.0
 20
1.249999970197677
 30
2.499999940395354
 70
   192
  0
VERTEX
  5
19C
330
198
100
AcDbEntity
  8
3D-GENM
370
     9
100
AcDbVertex
100
AcDbPolyFaceMeshVertex
 10
-30.0
 20
1.249999970197677
 30
-0.0000000000000799
 70
   192
  0
VERTEX
  5
19D
330
198
100
AcDbEntity
  8
3D-GENM
370
     9
100
AcDbFaceRecord
 10
0.0
 20
0.0
 30
0.0
 70
   128
 71
     2
 72
     3
 73
     4
 74
     1
  0
SEQEND
  5
19E
330
198
100
AcDbEntity
  8
3D-GENM
370
     9
  0
POLYLINE
  5
19F
330
190
100
AcDbEntity
  8
3D-GENM
370
     9
100
AcDbPolyFaceMesh
 66
     1
 10
0.0
 20
0.0
 30
0.0
 70
    64
 71
     4
 72
     1
1001
REVIT
1002
{
1070
     3
1000
103689
1002
}
  0
VERTEX
  5
1A0
330
19F
100
AcDbEntity
  8
3D-GENM
370
     9
100
AcDbVertex
100
AcDbPolyFaceMeshVertex
 10
30.0
 20
-1.249999970197677
 30
2.499999940395354
 70
   192
  0
VERTEX
  5
1A1
330
19F
100
AcDbEntity
  8
3D-GENM
370
     9
100
AcDbVertex
100
AcDbPolyFaceMeshVertex
 10
-30.0
 20
-1.249999970197677
 30
2.499999940395354
 70
   192
  0
VERTEX
  5
1A2
330
19F
100
AcDbEntity
  8
3D-GENM
370
     9
100
AcDbVertex
100
AcDbPolyFaceMeshVertex
 10
-30.0
 20
-1.249999970197677
 30
-0.0000000000000821
 70
   192
  0
VERTEX
  5
1A3
330
19F
100
AcDbEntity
  8
3D-GENM
370
     9
100
AcDbVertex
100
AcDbPolyFaceMeshVertex
 10
30.0
 20
-1.249999970197677
 30
-0.0000000000000821
 70
   192
  0
VERTEX
  5
1A4
330
19F
100
AcDbEntity
  8
3D-GENM
370
     9
100
AcDbFaceRecord
 10
0.0
 20
0.0
 30
0.0
 70
   128
 71
     3
 72
     4
 73
     1
 74
     2
  0
SEQEND
  5
1A5
330
19F
100
AcDbEntity
  8
3D-GENM
370
     9
  0
POLYLINE
  5
1A6
330
190
100
AcDbEntity
  8
3D-GENM
370
     9
100
AcDbPolyFaceMesh
 66
     1
 10
0.0
 20
0.0
 30
0.0
 70
    64
 71
     4
 72
     1
1001
REVIT
1002
{
1070
     3
1000
103689
1002
}
  0
VERTEX
  5
1A7
330
1A6
100
AcDbEntity
  8
3D-GENM
370
     9
100
AcDbVertex
100
AcDbPolyFaceMeshVertex
 10
30.0
 20
1.249999970197677
 30
-0.0000000000000803
 70
   192
  0
VERTEX
  5
1A8
330
1A6
100
AcDbEntity
  8
3D-GENM
370
     9
100
AcDbVertex
100
AcDbPolyFaceMeshVertex
 10
30.0
 20
-1.249999970197677
 30
-0.0000000000000821
 70
   192
  0
VERTEX
  5
1A9
330
1A6
100
AcDbEntity
  8
3D-GENM
370
     9
100
AcDbVertex
100
AcDbPolyFaceMeshVertex
 10
-30.0
 20
-1.249999970197677
 30
-0.0000000000000821
 70
   192
  0
VERTEX
  5
1AA
330
1A6
100
AcDbEntity
  8
3D-GENM
370
     9
100
AcDbVertex
100
AcDbPolyFaceMeshVertex
 10
-30.0
 20
1.249999970197677
 30
-0.0000000000000803
 70
   192
  0
VERTEX
  5
1AB
330
1A6
100
AcDbEntity
  8
3D-GENM
370
     9
100
AcDbFaceRecord
 10
0.0
 20
0.0
 30
0.0
 70
   128
 71
     1
 72
     2
 73
     3
 74
     4
  0
SEQEND
  5
1AC
330
1A6
100
AcDbEntity
  8
3D-GENM
370
     9
  0
POLYLINE
  5
1AD
330
190
100
AcDbEntity
  8
3D-GENM
370
     9
100
AcDbPolyFaceMesh
 66
     1
 10
0.0
 20
0.0
 30
0.0
 70
    64
 71
     4
 72
     1
1001
REVIT
1002
{
1070
     3
1000
103689
1002
}
  0
VERTEX
  5
1AE
330
1AD
100
AcDbEntity
  8
3D-GENM
370
     9
100
AcDbVertex
100
AcDbPolyFaceMeshVertex
 10
30.0
 20
1.249999970197677
 30
-0.0000000000000803
 70
   192
  0
VERTEX
  5
1AF
330
1AD
100
AcDbEntity
  8
3D-GENM
370
     9
100
AcDbVertex
100
AcDbPolyFaceMeshVertex
 10
-30.0
 20
1.249999970197677
 30
-0.0000000000000803
 70
   192
  0
VERTEX
  5
1B0
330
1AD
100
AcDbEntity
  8
3D-GENM
370
     9
100
AcDbVertex
100
AcDbPolyFaceMeshVertex
 10
-30.0
 20
1.249999970197677
 30
2.499999940395354
 70
   192
  0
VERTEX
  5
1B1
330
1AD
100
AcDbEntity
  8
3D-GENM
370
     9
100
AcDbVertex
100
AcDbPolyFaceMeshVertex
 10
30.0
 20
1.249999970197677
 30
2.499999940395354
 70
   192
  0
VERTEX
  5
1B2
330
1AD
100
AcDbEntity
  8
3D-GENM
370
     9
100
AcDbFaceRecord
 10
0.0
 20
0.0
 30
0.0
 70
   128
 71
     4
 72
     1
 73
     2
 74
     3
  0
SEQEND
  5
1B3
330
1AD
100
AcDbEntity
  8
3D-GENM
370
     9
  0
POLYLINE
  5
1B4
330
190
100
AcDbEntity
  8
3D-GENM
370
     9
100
AcDbPolyFaceMesh
 66
     1
 10
0.0
 20
0.0
 30
0.0
 70
    64
 71
     4
 72
     1
1001
REVIT
1002
{
1070
     3
1000
103689
1002
}
  0
VERTEX
  5
1B5
330
1B4
100
AcDbEntity
  8
3D-GENM
370
     9
100
AcDbVertex
100
AcDbPolyFaceMeshVertex
 10
30.0
 20
-1.249999970197677
 30
2.499999940395354
 70
   192
  0
VERTEX
  5
1B6
330
1B4
100
AcDbEntity
  8
3D-GENM
370
     9
100
AcDbVertex
100
AcDbPolyFaceMeshVertex
 10
30.0
 20
1.249999970197677
 30
2.499999940395354
 70
   192
  0
VERTEX
  5
1B7
330
1B4
100
AcDbEntity
  8
3D-GENM
370
     9
100
AcDbVertex
100
AcDbPolyFaceMeshVertex
 10
-30.0
 20
1.249999970197677
 30
2.499999940395354
 70
   192
  0
VERTEX
  5
1B8
330
1B4
100
AcDbEntity
  8
3D-GENM
370
     9
100
AcDbVertex
100
AcDbPolyFaceMeshVertex
 10
-30.0
 20
-1.249999970197677
 30
2.499999940395354
 70
   192
  0
VERTEX
  5
1B9
330
1B4
100
AcDbEntity
  8
3D-GENM
370
     9
100
AcDbFaceRecord
 10
0.0
 20
0.0
 30
0.0
 70
   128
 71
     1
 72
     2
 73
     3
 74
     4
  0
SEQEND
  5
1BA
330
1B4
100
AcDbEntity
  8
3D-GENM
370
     9
  0
ENDBLK
  5
1BC
330
190
100
AcDbEntity
  8
0
100
AcDbBlockEnd
  0
BLOCK
  5
229
330
1BF
100
AcDbEntity
  8
0
100
AcDbBlockBegin
  2
Fascia-Kawneer-Bullnose - Versoleil-156465-Preview
 70
     0
 10
0.0
 20
0.0
 30
0.0
  3
Fascia-Kawneer-Bullnose - Versoleil-156465-Preview
  1

  0
POLYLINE
  5
1C0
330
1BF
100
AcDbEntity
  8
3D-S-BEAM
370
     9
100
AcDbPolyFaceMesh
 66
     1
 10
0.0
 20
0.0
 30
0.0
 70
    64
 71
    15
 72
     7
1001
REVIT
1002
{
1070
     3
1000
141087
1002
}
  0
VERTEX
  5
1C1
330
1C0
100
AcDbEntity
  8
3D-S-BEAM
370
     9
100
AcDbVertex
100
AcDbPolyFaceMeshVertex
 10
30.0
 20
-0.0309972111135721
 30
2.531249999999999
 70
   192
  0
VERTEX
  5
1C2
330
1C0
100
AcDbEntity
  8
3D-S-BEAM
370
     9
100
AcDbVertex
100
AcDbPolyFaceMeshVertex
 10
30.0
 20
-0.5916511416435241
 30
2.467572391033172
 70
   192
  0
VERTEX
  5
1C3
330
1C0
100
AcDbEntity
  8
3D-S-BEAM
370
     9
100
AcDbVertex
100
AcDbPolyFaceMeshVertex
 10
30.0
 20
-1.123744189739227
 30
2.279783785343169
 70
   192
  0
VERTEX
  5
1C4
330
1C0
100
AcDbEntity
  8
3D-S-BEAM
370
     9
100
AcDbVertex
100
AcDbPolyFaceMeshVertex
 10
30.0
 20
-1.600170493125915
 30
1.977450191974639
 70
   192
  0
VERTEX
  5
1C5
330
1C0
100
AcDbEntity
  8
3D-S-BEAM
370
     9
100
AcDbVertex
100
AcDbPolyFaceMeshVertex
 10
30.0
 20
-1.996659994125366
 30
1.575973212718963
 70
   192
  0
VERTEX
  5
1C6
330
1C0
100
AcDbEntity
  8
3D-S-BEAM
370
     9
100
AcDbVertex
100
AcDbPolyFaceMeshVertex
 10
30.0
 20
-2.293014585971831
 30
1.095804959535598
 70
   192
  0
VERTEX
  5
1C7
330
1C0
100
AcDbEntity
  8
3D-S-BEAM
370
     9
100
AcDbVertex
100
AcDbPolyFaceMeshVertex
 10
30.0
 20
-2.474137544631957
 30
0.561406061053276
 70
   192
  0
VERTEX
  5
1C8
330
1C0
100
AcDbEntity
  8
3D-S-BEAM
370
     9
100
AcDbVertex
100
AcDbPolyFaceMeshVertex
 10
30.0
 20
-2.530801892280578
 30
-0.0000000000000906
 70
   192
  0
VERTEX
  5
1C9
330
1C0
100
AcDbEntity
  8
3D-S-BEAM
370
     9
100
AcDbVertex
100
AcDbPolyFaceMeshVertex
 10
30.0
 20
2.468807458877563
 30
-0.0000000000000906
 70
   192
  0
VERTEX
  5
1CA
330
1C0
100
AcDbEntity
  8
3D-S-BEAM
370
     9
100
AcDbVertex
100
AcDbPolyFaceMeshVertex
 10
30.0
 20
2.412143111228942
 30
0.561406061053276
 70
   192
  0
VERTEX
  5
1CB
330
1C0
100
AcDbEntity
  8
3D-S-BEAM
370
     9
100
AcDbVertex
100
AcDbPolyFaceMeshVertex
 10
30.0
 20
2.231020152568816
 30
1.095804959535598
 70
   192
  0
VERTEX
  5
1CC
330
1C0
100
AcDbEntity
  8
3D-S-BEAM
370
     9
100
AcDbVertex
100
AcDbPolyFaceMeshVertex
 10
30.0
 20
1.93466556072235
 30
1.575973212718963
 70
   192
  0
VERTEX
  5
1CD
330
1C0
100
AcDbEntity
  8
3D-S-BEAM
370
     9
100
AcDbVertex
100
AcDbPolyFaceMeshVertex
 10
30.0
 20
1.5381760597229
 30
1.977450191974639
 70
   192
  0
VERTEX
  5
1CE
330
1C0
100
AcDbEntity
  8
3D-S-BEAM
370
     9
100
AcDbVertex
100
AcDbPolyFaceMeshVertex
 10
30.0
 20
1.061749756336211
 30
2.279783785343169
 70
   192
  0
VERTEX
  5
1CF
330
1C0
100
AcDbEntity
  8
3D-S-BEAM
370
     9
100
AcDbVertex
100
AcDbPolyFaceMeshVertex
 10
30.0
 20
0.529656708240509
 30
2.467572391033172
 70
   192
  0
VERTEX
  5
1D0
330
1C0
100
AcDbEntity
  8
3D-S-BEAM
370
     9
100
AcDbFaceRecord
 10
0.0
 20
0.0
 30
0.0
 70
   128
 71
    11
 72
   -12
 73
    10
  0
VERTEX
  5
1D1
330
1C0
100
AcDbEntity
  8
3D-S-BEAM
370
     9
100
AcDbFaceRecord
 10
0.0
 20
0.0
 30
0.0
 70
   128
 71
   -15
 72
    -5
 73
   -10
 74
   -12
  0
VERTEX
  5
1D2
330
1C0
100
AcDbEntity
  8
3D-S-BEAM
370
     9
100
AcDbFaceRecord
 10
0.0
 20
0.0
 30
0.0
 70
   128
 71
   -15
 72
    12
 73
    13
 74
    14
  0
VERTEX
  5
1D3
330
1C0
100
AcDbEntity
  8
3D-S-BEAM
370
     9
100
AcDbFaceRecord
 10
0.0
 20
0.0
 30
0.0
 70
   128
 71
     8
 72
     9
 73
   -10
 74
    -5
  0
VERTEX
  5
1D4
330
1C0
100
AcDbEntity
  8
3D-S-BEAM
370
     9
100
AcDbFaceRecord
 10
0.0
 20
0.0
 30
0.0
 70
   128
 71
     5
 72
     6
 73
     7
 74
    -8
  0
VERTEX
  5
1D5
330
1C0
100
AcDbEntity
  8
3D-S-BEAM
370
     9
100
AcDbFaceRecord
 10
0.0
 20
0.0
 30
0.0
 70
   128
 71
    -2
 72
    -5
 73
    15
 74
     1
  0
VERTEX
  5
1D6
330
1C0
100
AcDbEntity
  8
3D-S-BEAM
370
     9
100
AcDbFaceRecord
 10
0.0
 20
0.0
 30
0.0
 70
   128
 71
     2
 72
     3
 73
     4
 74
    -5
  0
SEQEND
  5
1D7
330
1C0
100
AcDbEntity
  8
3D-S-BEAM
370
     9
  0
POLYLINE
  5
1D8
330
1BF
100
AcDbEntity
  8
3D-S-BEAM
370
     9
100
AcDbPolyFaceMesh
 66
     1
 10
0.0
 20
0.0
 30
0.0
 70
    64
 71
    15
 72
     7
1001
REVIT
1002
{
1070
     3
1000
141087
1002
}
  0
VERTEX
  5
1D9
330
1D8
100
AcDbEntity
  8
3D-S-BEAM
370
     9
100
AcDbVertex
100
AcDbPolyFaceMeshVertex
 10
-30.0
 20
-0.0309972111135721
 30
2.531249999999999
 70
   192
  0
VERTEX
  5
1DA
330
1D8
100
AcDbEntity
  8
3D-S-BEAM
370
     9
100
AcDbVertex
100
AcDbPolyFaceMeshVertex
 10
-30.0
 20
0.529656708240509
 30
2.467572391033172
 70
   192
  0
VERTEX
  5
1DB
330
1D8
100
AcDbEntity
  8
3D-S-BEAM
370
     9
100
AcDbVertex
100
AcDbPolyFaceMeshVertex
 10
-30.0
 20
1.061749756336211
 30
2.279783785343169
 70
   192
  0
VERTEX
  5
1DC
330
1D8
100
AcDbEntity
  8
3D-S-BEAM
370
     9
100
AcDbVertex
100
AcDbPolyFaceMeshVertex
 10
-30.0
 20
1.5381760597229
 30
1.977450191974639
 70
   192
  0
VERTEX
  5
1DD
330
1D8
100
AcDbEntity
  8
3D-S-BEAM
370
     9
100
AcDbVertex
100
AcDbPolyFaceMeshVertex
 10
-30.0
 20
1.93466556072235
 30
1.575973212718963
 70
   192
  0
VERTEX
  5
1DE
330
1D8
100
AcDbEntity
  8
3D-S-BEAM
370
     9
100
AcDbVertex
100
AcDbPolyFaceMeshVertex
 10
-30.0
 20
2.231020152568816
 30
1.095804959535598
 70
   192
  0
VERTEX
  5
1DF
330
1D8
100
AcDbEntity
  8
3D-S-BEAM
370
     9
100
AcDbVertex
100
AcDbPolyFaceMeshVertex
 10
-30.0
 20
2.412143111228942
 30
0.561406061053276
 70
   192
  0
VERTEX
  5
1E0
330
1D8
100
AcDbEntity
  8
3D-S-BEAM
370
     9
100
AcDbVertex
100
AcDbPolyFaceMeshVertex
 10
-30.0
 20
2.468807458877563
 30
-0.0000000000000746
 70
   192
  0
VERTEX
  5
1E1
330
1D8
100
AcDbEntity
  8
3D-S-BEAM
370
     9
100
AcDbVertex
100
AcDbPolyFaceMeshVertex
 10
-30.0
 20
-2.530801892280578
 30
-0.0000000000000573
 70
   192
  0
VERTEX
  5
1E2
330
1D8
100
AcDbEntity
  8
3D-S-BEAM
370
     9
100
AcDbVertex
100
AcDbPolyFaceMeshVertex
 10
-30.0
 20
-2.474137544631957
 30
0.561406061053276
 70
   192
  0
VERTEX
  5
1E3
330
1D8
100
AcDbEntity
  8
3D-S-BEAM
370
     9
100
AcDbVertex
100
AcDbPolyFaceMeshVertex
 10
-30.0
 20
-2.293014585971831
 30
1.095804959535598
 70
   192
  0
VERTEX
  5
1E4
330
1D8
100
AcDbEntity
  8
3D-S-BEAM
370
     9
100
AcDbVertex
100
AcDbPolyFaceMeshVertex
 10
-30.0
 20
-1.996659994125366
 30
1.575973212718963
 70
   192
  0
VERTEX
  5
1E5
330
1D8
100
AcDbEntity
  8
3D-S-BEAM
370
     9
100
AcDbVertex
100
AcDbPolyFaceMeshVertex
 10
-30.0
 20
-1.600170493125915
 30
1.977450191974639
 70
   192
  0
VERTEX
  5
1E6
330
1D8
100
AcDbEntity
  8
3D-S-BEAM
370
     9
100
AcDbVertex
100
AcDbPolyFaceMeshVertex
 10
-30.0
 20
-1.123744189739227
 30
2.279783785343169
 70
   192
  0
VERTEX
  5
1E7
330
1D8
100
AcDbEntity
  8
3D-S-BEAM
370
     9
100
AcDbVertex
100
AcDbPolyFaceMeshVertex
 10
-30.0
 20
-0.5916511416435241
 30
2.467572391033172
 70
   192
  0
VERTEX
  5
1E8
330
1D8
100
AcDbEntity
  8
3D-S-BEAM
370
     9
100
AcDbFaceRecord
 10
0.0
 20
0.0
 30
0.0
 70
   128
 71
     5
 72
     6
 73
    -7
 74
    -2
  0
VERTEX
  5
1E9
330
1D8
100
AcDbEntity
  8
3D-S-BEAM
370
     9
100
AcDbFaceRecord
 10
0.0
 20
0.0
 30
0.0
 70
   128
 71
   -12
 72
    -2
 73
     7
 74
    -8
  0
VERTEX
  5
1EA
330
1D8
100
AcDbEntity
  8
3D-S-BEAM
370
     9
100
AcDbFaceRecord
 10
0.0
 20
0.0
 30
0.0
 70
   128
 71
     4
 72
    -5
 73
     2
 74
     3
  0
VERTEX
  5
1EB
330
1D8
100
AcDbEntity
  8
3D-S-BEAM
370
     9
100
AcDbFaceRecord
 10
0.0
 20
0.0
 30
0.0
 70
   128
 71
    10
 72
    11
 73
   -12
 74
     9
  0
VERTEX
  5
1EC
330
1D8
100
AcDbEntity
  8
3D-S-BEAM
370
     9
100
AcDbFaceRecord
 10
0.0
 20
0.0
 30
0.0
 70
   128
 71
    -2
 72
   -12
 73
    15
 74
     1
  0
VERTEX
  5
1ED
330
1D8
100
AcDbEntity
  8
3D-S-BEAM
370
     9
100
AcDbFaceRecord
 10
0.0
 20
0.0
 30
0.0
 70
   128
 71
    13
 72
    14
 73
   -15
 74
    12
  0
VERTEX
  5
1EE
330
1D8
100
AcDbEntity
  8
3D-S-BEAM
370
     9
100
AcDbFaceRecord
 10
0.0
 20
0.0
 30
0.0
 70
   128
 71
     8
 72
    -9
 73
   -12
  0
SEQEND
  5
1EF
330
1D8
100
AcDbEntity
  8
3D-S-BEAM
370
     9
  0
POLYLINE
  5
1F0
330
1BF
100
AcDbEntity
  8
3D-S-BEAM
370
     9
100
AcDbPolyFaceMesh
 66
     1
 10
0.0
 20
0.0
 30
0.0
 70
    64
 71
    16
 72
     7
1001
REVIT
1002
{
1070
     3
1000
141087
1002
}
  0
VERTEX
  5
1F1
330
1F0
100
AcDbEntity
  8
3D-S-BEAM
370
     9
100
AcDbVertex
100
AcDbPolyFaceMeshVertex
 10
30.0
 20
-2.530801892280578
 30
-0.0000000000000579
 70
   192
  0
VERTEX
  5
1F2
330
1F0
100
AcDbEntity
  8
3D-S-BEAM
370
     9
100
AcDbVertex
100
AcDbPolyFaceMeshVertex
 10
30.0
 20
-2.474137544631957
 30
0.561406061053276
 70
   192
  0
VERTEX
  5
1F3
330
1F0
100
AcDbEntity
  8
3D-S-BEAM
370
     9
100
AcDbVertex
100
AcDbPolyFaceMeshVertex
 10
30.0
 20
-2.293014585971831
 30
1.095804959535598
 70
   192
  0
VERTEX
  5
1F4
330
1F0
100
AcDbEntity
  8
3D-S-BEAM
370
     9
100
AcDbVertex
100
AcDbPolyFaceMeshVertex
 10
30.0
 20
-1.996659994125366
 30
1.575973212718963
 70
   192
  0
VERTEX
  5
1F5
330
1F0
100
AcDbEntity
  8
3D-S-BEAM
370
     9
100
AcDbVertex
100
AcDbPolyFaceMeshVertex
 10
30.0
 20
-1.600170493125915
 30
1.977450191974639
 70
   192
  0
VERTEX
  5
1F6
330
1F0
100
AcDbEntity
  8
3D-S-BEAM
370
     9
100
AcDbVertex
100
AcDbPolyFaceMeshVertex
 10
30.0
 20
-1.123744189739227
 30
2.279783785343169
 70
   192
  0
VERTEX
  5
1F7
330
1F0
100
AcDbEntity
  8
3D-S-BEAM
370
     9
100
AcDbVertex
100
AcDbPolyFaceMeshVertex
 10
30.0
 20
-0.5916511416435241
 30
2.467572391033172
 70
   192
  0
VERTEX
  5
1F8
330
1F0
100
AcDbEntity
  8
3D-S-BEAM
370
     9
100
AcDbVertex
100
AcDbPolyFaceMeshVertex
 10
30.0
 20
-0.0309972111135721
 30
2.531249999999999
 70
   192
  0
VERTEX
  5
1F9
330
1F0
100
AcDbEntity
  8
3D-S-BEAM
370
     9
100
AcDbVertex
100
AcDbPolyFaceMeshVertex
 10
-30.0
 20
-0.0309972111135721
 30
2.531249999999999
 70
   192
  0
VERTEX
  5
1FA
330
1F0
100
AcDbEntity
  8
3D-S-BEAM
370
     9
100
AcDbVertex
100
AcDbPolyFaceMeshVertex
 10
-30.0
 20
-0.5916511416435241
 30
2.467572391033172
 70
   192
  0
VERTEX
  5
1FB
330
1F0
100
AcDbEntity
  8
3D-S-BEAM
370
     9
100
AcDbVertex
100
AcDbPolyFaceMeshVertex
 10
-30.0
 20
-1.123744189739227
 30
2.279783785343169
 70
   192
  0
VERTEX
  5
1FC
330
1F0
100
AcDbEntity
  8
3D-S-BEAM
370
     9
100
AcDbVertex
100
AcDbPolyFaceMeshVertex
 10
-30.0
 20
-1.600170493125915
 30
1.977450191974639
 70
   192
  0
VERTEX
  5
1FD
330
1F0
100
AcDbEntity
  8
3D-S-BEAM
370
     9
100
AcDbVertex
100
AcDbPolyFaceMeshVertex
 10
-30.0
 20
-1.996659994125366
 30
1.575973212718963
 70
   192
  0
VERTEX
  5
1FE
330
1F0
100
AcDbEntity
  8
3D-S-BEAM
370
     9
100
AcDbVertex
100
AcDbPolyFaceMeshVertex
 10
-30.0
 20
-2.293014585971831
 30
1.095804959535598
 70
   192
  0
VERTEX
  5
1FF
330
1F0
100
AcDbEntity
  8
3D-S-BEAM
370
     9
100
AcDbVertex
100
AcDbPolyFaceMeshVertex
 10
-30.0
 20
-2.474137544631957
 30
0.561406061053276
 70
   192
  0
VERTEX
  5
200
330
1F0
100
AcDbEntity
  8
3D-S-BEAM
370
     9
100
AcDbVertex
100
AcDbPolyFaceMeshVertex
 10
-30.0
 20
-2.530801892280578
 30
-0.0000000000000735
 70
   192
  0
VERTEX
  5
201
330
1F0
100
AcDbEntity
  8
3D-S-BEAM
370
     9
100
AcDbFaceRecord
 10
0.0
 20
0.0
 30
0.0
 70
   128
 71
     9
 72
   -10
 73
     7
 74
     8
  0
VERTEX
  5
202
330
1F0
100
AcDbEntity
  8
3D-S-BEAM
370
     9
100
AcDbFaceRecord
 10
0.0
 20
0.0
 30
0.0
 70
   128
 71
    10
 72
   -11
 73
     6
 74
    -7
  0
VERTEX
  5
203
330
1F0
100
AcDbEntity
  8
3D-S-BEAM
370
     9
100
AcDbFaceRecord
 10
0.0
 20
0.0
 30
0.0
 70
   128
 71
    11
 72
   -12
 73
     5
 74
    -6
  0
VERTEX
  5
204
330
1F0
100
AcDbEntity
  8
3D-S-BEAM
370
     9
100
AcDbFaceRecord
 10
0.0
 20
0.0
 30
0.0
 70
   128
 71
     4
 72
    -5
 73
    12
 74
   -13
  0
VERTEX
  5
205
330
1F0
100
AcDbEntity
  8
3D-S-BEAM
370
     9
100
AcDbFaceRecord
 10
0.0
 20
0.0
 30
0.0
 70
   128
 71
    13
 72
   -14
 73
     3
 74
    -4
  0
VERTEX
  5
206
330
1F0
100
AcDbEntity
  8
3D-S-BEAM
370
     9
100
AcDbFaceRecord
 10
0.0
 20
0.0
 30
0.0
 70
   128
 71
    14
 72
   -15
 73
     2
 74
    -3
  0
VERTEX
  5
207
330
1F0
100
AcDbEntity
  8
3D-S-BEAM
370
     9
100
AcDbFaceRecord
 10
0.0
 20
0.0
 30
0.0
 70
   128
 71
    15
 72
    16
 73
     1
 74
    -2
  0
SEQEND
  5
208
330
1F0
100
AcDbEntity
  8
3D-S-BEAM
370
     9
  0
POLYLINE
  5
209
330
1BF
100
AcDbEntity
  8
3D-S-BEAM
370
     9
100
AcDbPolyFaceMesh
 66
     1
 10
0.0
 20
0.0
 30
0.0
 70
    64
 71
     4
 72
     1
1001
REVIT
1002
{
1070
     3
1000
141087
1002
}
  0
VERTEX
  5
20A
330
209
100
AcDbEntity
  8
3D-S-BEAM
370
     9
100
AcDbVertex
100
AcDbPolyFaceMeshVertex
 10
30.0
 20
2.468807458877563
 30
-0.0000000000000747
 70
   192
  0
VERTEX
  5
20B
330
209
100
AcDbEntity
  8
3D-S-BEAM
370
     9
100
AcDbVertex
100
AcDbPolyFaceMeshVertex
 10
30.0
 20
-2.530801892280578
 30
-0.0000000000000908
 70
   192
  0
VERTEX
  5
20C
330
209
100
AcDbEntity
  8
3D-S-BEAM
370
     9
100
AcDbVertex
100
AcDbPolyFaceMeshVertex
 10
-30.0
 20
-2.530801892280578
 30
-0.0000000000000908
 70
   192
  0
VERTEX
  5
20D
330
209
100
AcDbEntity
  8
3D-S-BEAM
370
     9
100
AcDbVertex
100
AcDbPolyFaceMeshVertex
 10
-30.0
 20
2.468807458877563
 30
-0.0000000000000747
 70
   192
  0
VERTEX
  5
20E
330
209
100
AcDbEntity
  8
3D-S-BEAM
370
     9
100
AcDbFaceRecord
 10
0.0
 20
0.0
 30
0.0
 70
   128
 71
     1
 72
     2
 73
     3
 74
     4
  0
SEQEND
  5
20F
330
209
100
AcDbEntity
  8
3D-S-BEAM
370
     9
  0
POLYLINE
  5
210
330
1BF
100
AcDbEntity
  8
3D-S-BEAM
370
     9
100
AcDbPolyFaceMesh
 66
     1
 10
0.0
 20
0.0
 30
0.0
 70
    64
 71
    16
 72
     7
1001
REVIT
1002
{
1070
     3
1000
141087
1002
}
  0
VERTEX
  5
211
330
210
100
AcDbEntity
  8
3D-S-BEAM
370
     9
100
AcDbVertex
100
AcDbPolyFaceMeshVertex
 10
30.0
 20
-0.0309972111135721
 30
2.531249999999999
 70
   192
  0
VERTEX
  5
212
330
210
100
AcDbEntity
  8
3D-S-BEAM
370
     9
100
AcDbVertex
100
AcDbPolyFaceMeshVertex
 10
30.0
 20
0.529656708240509
 30
2.467572391033172
 70
   192
  0
VERTEX
  5
213
330
210
100
AcDbEntity
  8
3D-S-BEAM
370
     9
100
AcDbVertex
100
AcDbPolyFaceMeshVertex
 10
30.0
 20
1.061749756336211
 30
2.279783785343169
 70
   192
  0
VERTEX
  5
214
330
210
100
AcDbEntity
  8
3D-S-BEAM
370
     9
100
AcDbVertex
100
AcDbPolyFaceMeshVertex
 10
30.0
 20
1.5381760597229
 30
1.977450191974639
 70
   192
  0
VERTEX
  5
215
330
210
100
AcDbEntity
  8
3D-S-BEAM
370
     9
100
AcDbVertex
100
AcDbPolyFaceMeshVertex
 10
30.0
 20
1.93466556072235
 30
1.575973212718963
 70
   192
  0
VERTEX
  5
216
330
210
100
AcDbEntity
  8
3D-S-BEAM
370
     9
100
AcDbVertex
100
AcDbPolyFaceMeshVertex
 10
30.0
 20
2.231020152568816
 30
1.095804959535598
 70
   192
  0
VERTEX
  5
217
330
210
100
AcDbEntity
  8
3D-S-BEAM
370
     9
100
AcDbVertex
100
AcDbPolyFaceMeshVertex
 10
30.0
 20
2.412143111228942
 30
0.561406061053276
 70
   192
  0
VERTEX
  5
218
330
210
100
AcDbEntity
  8
3D-S-BEAM
370
     9
100
AcDbVertex
100
AcDbPolyFaceMeshVertex
 10
30.0
 20
2.468807458877563
 30
-0.0000000000000905
 70
   192
  0
VERTEX
  5
219
330
210
100
AcDbEntity
  8
3D-S-BEAM
370
     9
100
AcDbVertex
100
AcDbPolyFaceMeshVertex
 10
-30.0
 20
2.468807458877563
 30
-0.0000000000000905
 70
   192
  0
VERTEX
  5
21A
330
210
100
AcDbEntity
  8
3D-S-BEAM
370
     9
100
AcDbVertex
100
AcDbPolyFaceMeshVertex
 10
-30.0
 20
2.412143111228942
 30
0.561406061053276
 70
   192
  0
VERTEX
  5
21B
330
210
100
AcDbEntity
  8
3D-S-BEAM
370
     9
100
AcDbVertex
100
AcDbPolyFaceMeshVertex
 10
-30.0
 20
2.231020152568816
 30
1.095804959535598
 70
   192
  0
VERTEX
  5
21C
330
210
100
AcDbEntity
  8
3D-S-BEAM
370
     9
100
AcDbVertex
100
AcDbPolyFaceMeshVertex
 10
-30.0
 20
1.93466556072235
 30
1.575973212718963
 70
   192
  0
VERTEX
  5
21D
330
210
100
AcDbEntity
  8
3D-S-BEAM
370
     9
100
AcDbVertex
100
AcDbPolyFaceMeshVertex
 10
-30.0
 20
1.5381760597229
 30
1.977450191974639
 70
   192
  0
VERTEX
  5
21E
330
210
100
AcDbEntity
  8
3D-S-BEAM
370
     9
100
AcDbVertex
100
AcDbPolyFaceMeshVertex
 10
-30.0
 20
1.061749756336211
 30
2.279783785343169
 70
   192
  0
VERTEX
  5
21F
330
210
100
AcDbEntity
  8
3D-S-BEAM
370
     9
100
AcDbVertex
100
AcDbPolyFaceMeshVertex
 10
-30.0
 20
0.529656708240509
 30
2.467572391033172
 70
   192
  0
VERTEX
  5
220
330
210
100
AcDbEntity
  8
3D-S-BEAM
370
     9
100
AcDbVertex
100
AcDbPolyFaceMeshVertex
 10
-30.0
 20
-0.0309972111135721
 30
2.531249999999999
 70
   192
  0
VERTEX
  5
221
330
210
100
AcDbEntity
  8
3D-S-BEAM
370
     9
100
AcDbFaceRecord
 10
0.0
 20
0.0
 30
0.0
 70
   128
 71
     9
 72
   -10
 73
     7
 74
     8
  0
VERTEX
  5
222
330
210
100
AcDbEntity
  8
3D-S-BEAM
370
     9
100
AcDbFaceRecord
 10
0.0
 20
0.0
 30
0.0
 70
   128
 71
    10
 72
   -11
 73
     6
 74
    -7
  0
VERTEX
  5
223
330
210
100
AcDbEntity
  8
3D-S-BEAM
370
     9
100
AcDbFaceRecord
 10
0.0
 20
0.0
 30
0.0
 70
   128
 71
    11
 72
   -12
 73
     5
 74
    -6
  0
VERTEX
  5
224
330
210
100
AcDbEntity
  8
3D-S-BEAM
370
     9
100
AcDbFaceRecord
 10
0.0
 20
0.0
 30
0.0
 70
   128
 71
     4
 72
    -5
 73
    12
 74
   -13
  0
VERTEX
  5
225
330
210
100
AcDbEntity
  8
3D-S-BEAM
370
     9
100
AcDbFaceRecord
 10
0.0
 20
0.0
 30
0.0
 70
   128
 71
    13
 72
   -14
 73
     3
 74
    -4
  0
VERTEX
  5
226
330
210
100
AcDbEntity
  8
3D-S-BEAM
370
     9
100
AcDbFaceRecord
 10
0.0
 20
0.0
 30
0.0
 70
   128
 71
    14
 72
   -15
 73
     2
 74
    -3
  0
VERTEX
  5
227
330
210
100
AcDbEntity
  8
3D-S-BEAM
370
     9
100
AcDbFaceRecord
 10
0.0
 20
0.0
 30
0.0
 70
   128
 71
    15
 72
    16
 73
     1
 74
    -2
  0
SEQEND
  5
228
330
210
100
AcDbEntity
  8
3D-S-BEAM
370
     9
  0
ENDBLK
  5
22A
330
1BF
100
AcDbEntity
  8
0
100
AcDbBlockEnd
  0
ENDSEC
  0
SECTION
  2
ENTITIES
  0
INSERT
  5
178
330
6C
100
AcDbEntity
  8
3D-S-COLS-ANLY
370
     9
100
AcDbBlockReference
  2
Outrigger-Kawneer-Rounded - 5_-142066-Preview
 10
-27.16103165118266
 20
0.0
 30
-0.7812500000005188
1001
REVIT
1002
{
1070
     1
1000
9383
1002
}
1002
{
1070
     5
1000
142066
1002
}
1002
{
1070
     4
1000
97641
1002
}
1002
{
1070
     2
1000
-2009030
1002
}
  0
INSERT
  5
179
330
6C
100
AcDbEntity
  8
3D-S-COLS-ANLY
370
     9
100
AcDbBlockReference
  2
Outrigger-Kawneer-Rounded - 5_-142066-Preview
 10
33.77646834880447
 20
0.0
 30
-0.7812500000005188
1001
REVIT
1002
{
1070
     1
1000
17865
1002
}
1002
{
1070
     5
1000
142066
1002
}
1002
{
1070
     4
1000
97641
1002
}
1002
{
1070
     2
1000
-2009030
1002
}
  0
INSERT
  5
17A
330
6C
100
AcDbEntity
  8
3D-S-COLS-ANLY
370
     9
100
AcDbBlockReference
  2
Outrigger-Kawneer-Rounded - 5_-142066-Preview
 10
-27.1610316511823
 20
0.0
 30
-0.7812500000005188
1001
REVIT
1002
{
1070
     1
1000
20682
1002
}
1002
{
1070
     5
1000
142066
1002
}
1002
{
1070
     4
1000
97641
1002
}
1002
{
1070
     2
1000
-2009030
1002
}
  0
INSERT
  5
17B
330
6C
100
AcDbEntity
  8
3D-S-COLS-ANLY
370
     9
100
AcDbBlockReference
  2
Outrigger-Kawneer-Rounded - 5_-142066-Preview
 10
-27.16103165118238
 20
0.0
 30
-0.7812500000005188
1001
REVIT
1002
{
1070
     1
1000
20692
1002
}
1002
{
1070
     5
1000
142066
1002
}
1002
{
1070
     4
1000
97641
1002
}
1002
{
1070
     2
1000
-2009030
1002
}
  0
INSERT
  5
17C
330
6C
100
AcDbEntity
  8
3D-S-COLS-ANLY
370
     9
100
AcDbBlockReference
  2
Outrigger-Kawneer-Rounded - 5_-142066-Preview
 10
-27.16103165118238
 20
0.0
 30
-0.7812500000005188
1001
REVIT
1002
{
1070
     1
1000
20702
1002
}
1002
{
1070
     5
1000
142066
1002
}
1002
{
1070
     4
1000
97641
1002
}
1002
{
1070
     2
1000
-2009030
1002
}
  0
INSERT
  5
17D
330
6C
100
AcDbEntity
  8
3D-S-COLS-ANLY
370
     9
100
AcDbBlockReference
  2
Outrigger-Kawneer-Rounded - 5_-142066-Preview
 10
-27.16103165118221
 20
0.0
 30
-0.7812500000005188
1001
REVIT
1002
{
1070
     1
1000
20712
1002
}
1002
{
1070
     5
1000
142066
1002
}
1002
{
1070
     4
1000
97641
1002
}
1002
{
1070
     2
1000
-2009030
1002
}
  0
INSERT
  5
17E
330
6C
100
AcDbEntity
  8
3D-S-COLS-ANLY
370
     9
100
AcDbBlockReference
  2
Outrigger-Kawneer-Rounded - 5_-142066-Preview
 10
-27.16103165118204
 20
0.0
 30
-0.7812500000005188
1001
REVIT
1002
{
1070
     1
1000
20722
1002
}
1002
{
1070
     5
1000
142066
1002
}
1002
{
1070
     4
1000
97641
1002
}
1002
{
1070
     2
1000
-2009030
1002
}
  0
INSERT
  5
17F
330
6C
100
AcDbEntity
  8
3D-S-COLS-ANLY
370
     9
100
AcDbBlockReference
  2
Outrigger-Kawneer-Rounded - 5_-142066-Preview
 10
-27.16103165118213
 20
0.0
 30
-0.7812500000005188
1001
REVIT
1002
{
1070
     1
1000
20734
1002
}
1002
{
1070
     5
1000
142066
1002
}
1002
{
1070
     4
1000
97641
1002
}
1002
{
1070
     2
1000
-2009030
1002
}
  0
INSERT
  5
180
330
6C
100
AcDbEntity
  8
3D-S-COLS-ANLY
370
     9
100
AcDbBlockReference
  2
Outrigger-Kawneer-Rounded - 5_-142066-Preview
 10
-27.16103165118213
 20
0.0
 30
-0.7812500000005188
1001
REVIT
1002
{
1070
     1
1000
20744
1002
}
1002
{
1070
     5
1000
142066
1002
}
1002
{
1070
     4
1000
97641
1002
}
1002
{
1070
     2
1000
-2009030
1002
}
  0
INSERT
  5
181
330
6C
100
AcDbEntity
  8
3D-S-COLS-ANLY
370
     9
100
AcDbBlockReference
  2
Outrigger-Kawneer-Rounded - 5_-142066-Preview
 10
-27.16103165118097
 20
0.0
 30
-0.7812500000005188
1001
REVIT
1002
{
1070
     1
1000
20752
1002
}
1002
{
1070
     5
1000
142066
1002
}
1002
{
1070
     4
1000
97641
1002
}
1002
{
1070
     2
1000
-2009030
1002
}
  0
INSERT
  5
182
330
6C
100
AcDbEntity
  8
3D-S-COLS-ANLY
370
     9
100
AcDbBlockReference
  2
Outrigger-Kawneer-Rounded - 5_-142066-Preview
 10
-27.16103165118046
 20
0.0
 30
-0.7812500000005188
1001
REVIT
1002
{
1070
     1
1000
20762
1002
}
1002
{
1070
     5
1000
142066
1002
}
1002
{
1070
     4
1000
97641
1002
}
1002
{
1070
     2
1000
-2009030
1002
}
  0
INSERT
  5
183
330
6C
100
AcDbEntity
  8
3D-S-COLS-ANLY
370
     9
100
AcDbBlockReference
  2
Outrigger-Kawneer-Rounded - 5_-142066-Preview
 10
-27.16103165118008
 20
0.0
 30
-0.7812500000005188
1001
REVIT
1002
{
1070
     1
1000
20772
1002
}
1002
{
1070
     5
1000
142066
1002
}
1002
{
1070
     4
1000
97641
1002
}
1002
{
1070
     2
1000
-2009030
1002
}
  0
INSERT
  5
184
330
6C
100
AcDbEntity
  8
3D-S-COLS-ANLY
370
     9
100
AcDbBlockReference
  2
Outrigger-Kawneer-Rounded - 5_-142066-Preview
 10
-27.16103165117944
 20
0.0
 30
-0.7812500000005188
1001
REVIT
1002
{
1070
     1
1000
20782
1002
}
1002
{
1070
     5
1000
142066
1002
}
1002
{
1070
     4
1000
97641
1002
}
1002
{
1070
     2
1000
-2009030
1002
}
  0
INSERT
  5
185
330
6C
100
AcDbEntity
  8
3D-S-COLS-ANLY
370
     9
100
AcDbBlockReference
  2
Outrigger-Kawneer-Rounded - 5_-142066-Preview
 10
-27.16103165117923
 20
0.0
 30
-0.7812500000005188
1001
REVIT
1002
{
1070
     1
1000
20792
1002
}
1002
{
1070
     5
1000
142066
1002
}
1002
{
1070
     4
1000
97641
1002
}
1002
{
1070
     2
1000
-2009030
1002
}
  0
INSERT
  5
186
330
6C
100
AcDbEntity
  8
3D-S-COLS-ANLY
370
     9
100
AcDbBlockReference
  2
Outrigger-Kawneer-Rounded - 5_-142066-Preview
 10
-27.16103165117863
 20
0.0
 30
-0.7812500000005188
1001
REVIT
1002
{
1070
     1
1000
20804
1002
}
1002
{
1070
     5
1000
142066
1002
}
1002
{
1070
     4
1000
97641
1002
}
1002
{
1070
     2
1000
-2009030
1002
}
  0
INSERT
  5
187
330
6C
100
AcDbEntity
  8
3D-S-COLS-ANLY
370
     9
100
AcDbBlockReference
  2
Outrigger-Kawneer-Rounded - 5_-142066-Preview
 10
-27.16103165117831
 20
0.0
 30
-0.7812500000005188
1001
REVIT
1002
{
1070
     1
1000
20814
1002
}
1002
{
1070
     5
1000
142066
1002
}
1002
{
1070
     4
1000
97641
1002
}
1002
{
1070
     2
1000
-2009030
1002
}
  0
INSERT
  5
188
330
6C
100
AcDbEntity
  8
3D-S-COLS-ANLY
370
     9
100
AcDbBlockReference
  2
Outrigger-Kawneer-Rounded - 5_-142066-Preview
 10
-27.16103165117803
 20
0.0
 30
-0.7812500000005188
1001
REVIT
1002
{
1070
     1
1000
20824
1002
}
1002
{
1070
     5
1000
142066
1002
}
1002
{
1070
     4
1000
97641
1002
}
1002
{
1070
     2
1000
-2009030
1002
}
  0
INSERT
  5
189
330
6C
100
AcDbEntity
  8
3D-S-COLS-ANLY
370
     9
100
AcDbBlockReference
  2
Outrigger-Kawneer-Rounded - 5_-142066-Preview
 10
-27.16103165117744
 20
0.0
 30
-0.7812500000005188
1001
REVIT
1002
{
1070
     1
1000
20834
1002
}
1002
{
1070
     5
1000
142066
1002
}
1002
{
1070
     4
1000
97641
1002
}
1002
{
1070
     2
1000
-2009030
1002
}
  0
INSERT
  5
18A
330
6C
100
AcDbEntity
  8
3D-S-COLS-ANLY
370
     9
100
AcDbBlockReference
  2
Outrigger-Kawneer-Rounded - 5_-142066-Preview
 10
-27.16103165117737
 20
0.0
 30
-0.7812500000005188
1001
REVIT
1002
{
1070
     1
1000
20844
1002
}
1002
{
1070
     5
1000
142066
1002
}
1002
{
1070
     4
1000
97641
1002
}
1002
{
1070
     2
1000
-2009030
1002
}
  0
INSERT
  5
18B
330
6C
100
AcDbEntity
  8
3D-S-COLS-ANLY
370
     9
100
AcDbBlockReference
  2
Outrigger-Kawneer-Rounded - 5_-142066-Preview
 10
-27.16103165117713
 20
0.0
 30
-0.7812500000005188
1001
REVIT
1002
{
1070
     1
1000
20854
1002
}
1002
{
1070
     5
1000
142066
1002
}
1002
{
1070
     4
1000
97641
1002
}
1002
{
1070
     2
1000
-2009030
1002
}
  0
INSERT
  5
18C
330
6C
100
AcDbEntity
  8
3D-S-COLS-ANLY
370
     9
100
AcDbBlockReference
  2
Outrigger-Kawneer-Rounded - 5_-142066-Preview
 10
-27.16103165117702
 20
0.0
 30
-0.7812500000005188
1001
REVIT
1002
{
1070
     1
1000
20864
1002
}
1002
{
1070
     5
1000
142066
1002
}
1002
{
1070
     4
1000
97641
1002
}
1002
{
1070
     2
1000
-2009030
1002
}
  0
INSERT
  5
18D
330
6C
100
AcDbEntity
  8
3D-S-COLS-ANLY
370
     9
100
AcDbBlockReference
  2
Outrigger-Kawneer-Rounded - 5_-142066-Preview
 10
-27.16103165117698
 20
0.0
 30
-0.7812500000005188
1001
REVIT
1002
{
1070
     1
1000
20874
1002
}
1002
{
1070
     5
1000
142066
1002
}
1002
{
1070
     4
1000
97641
1002
}
1002
{
1070
     2
1000
-2009030
1002
}
  0
INSERT
  5
18E
330
6C
100
AcDbEntity
  8
3D-S-COLS-ANLY
370
     9
100
AcDbBlockReference
  2
Outrigger-Kawneer-Rounded - 5_-142066-Preview
 10
-27.16103165117691
 20
0.0
 30
-0.7812500000005188
1001
REVIT
1002
{
1070
     1
1000
28566
1002
}
1002
{
1070
     5
1000
142066
1002
}
1002
{
1070
     4
1000
97641
1002
}
1002
{
1070
     2
1000
-2009030
1002
}
  0
INSERT
  5
1BD
330
6C
100
AcDbEntity
  8
3D-GENM
370
     9
100
AcDbBlockReference
  2
Blade-Kawneer-Square - Versoleil-151929-Preview
 10
3.30771834880314
 20
0.0
 30
2.968749999844529
1001
REVIT
1002
{
1070
     1
1000
104998
1002
}
1002
{
1070
     5
1000
139474
1002
}
1002
{
1070
     4
1000
97641
1002
}
1002
{
1070
     2
1000
-2000151
1002
}
  0
INSERT
  5
22B
330
6C
100
AcDbEntity
  8
3D-S-BEAM
370
     9
100
AcDbBlockReference
  2
Fascia-Kawneer-Bullnose - Versoleil-156465-Preview
 10
3.307718348802197
 20
0.0
 30
26.72171792318997
1001
REVIT
1002
{
1070
     1
1000
107080
1002
}
1002
{
1070
     5
1000
141099
1002
}
1002
{
1070
     4
1000
97641
1002
}
1002
{
1070
     2
1000
-2001354
1002
}
  0
INSERT
  5
22C
330
6C
100
AcDbEntity
  8
3D-GENM
370
     9
100
AcDbBlockReference
  2
Blade-Kawneer-Square - Versoleil-151929-Preview
 10
3.307718348802287
 20
0.0
 30
7.968749999844527
1001
REVIT
1002
{
1070
     1
1000
110978
1002
}
1002
{
1070
     5
1000
139474
1002
}
1002
{
1070
     4
1000
97641
1002
}
1002
{
1070
     2
1000
-2000151
1002
}
  0
INSERT
  5
22D
330
6C
100
AcDbEntity
  8
3D-GENM
370
     9
100
AcDbBlockReference
  2
Blade-Kawneer-Square - Versoleil-151929-Preview
 10
3.307718348801435
 20
0.0
 30
12.96874999984452
1001
REVIT
1002
{
1070
     1
1000
132816
1002
}
1002
{
1070
     5
1000
139474
1002
}
1002
{
1070
     4
1000
97641
1002
}
1002
{
1070
     2
1000
-2000151
1002
}
  0
INSERT
  5
22E
330
6C
100
AcDbEntity
  8
3D-GENM
370
     9
100
AcDbBlockReference
  2
Blade-Kawneer-Square - Versoleil-151929-Preview
 10
3.307718348800582
 20
0.0
 30
17.96874999984452
1001
REVIT
1002
{
1070
     1
1000
132818
1002
}
1002
{
1070
     5
1000
139474
1002
}
1002
{
1070
     4
1000
97641
1002
}
1002
{
1070
     2
1000
-2000151
1002
}
  0
INSERT
  5
22F
330
6C
100
AcDbEntity
  8
3D-GENM
370
     9
100
AcDbBlockReference
  2
Blade-Kawneer-Square - Versoleil-151929-Preview
 10
3.307718348799729
 20
0.0
 30
22.96874999984452
1001
REVIT
1002
{
1070
     1
1000
132820
1002
}
1002
{
1070
     5
1000
139474
1002
}
1002
{
1070
     4
1000
97641
1002
}
1002
{
1070
     2
1000
-2000151
1002
}
  0
ENDSEC
  0
SECTION
  2
OBJECTS
  0
DICTIONARY
  5
C
330
0
100
AcDbDictionary
281
     1
  3
ACAD_BACKGROUND
350
243
  3
ACAD_CIP_PREVIOUS_PRODUCT_INFO
350
247
  3
ACAD_COLOR
350
63
  3
ACAD_GROUP
350
D
  3
ACAD_IMAGE_VARS
350
75
  3
ACAD_LAYOUT
350
62
  3
ACAD_MATERIAL
350
10
  3
ACAD_MLEADERSTYLE
350
66
  3
ACAD_MLINESTYLE
350
5F
  3
ACAD_PLOTSETTINGS
350
61
  3
ACAD_PLOTSTYLENAME
350
E
  3
ACAD_SCALELIST
350
42
  3
ACAD_TABLESTYLE
350
64
  3
ACAD_VISUALSTYLE
350
29
  3
ACDB_RECOMPOSE_DATA
350
2A9
  3
AcDbVariableDictionary
350
23B
  3
DWGPROPS
350
2AA
  3
REVIT_DICTIONARY
350
235
  0
DICTIONARY
  5
243
102
{ACAD_REACTORS
330
C
102
}
330
C
100
AcDbDictionary
281
     1
  0
XRECORD
  5
247
102
{ACAD_REACTORS
330
C
102
}
330
C
100
AcDbXrecord
280
     1
300
ACD
300
2012
300
BDSADV_F_S
  0
DICTIONARY
  5
63
102
{ACAD_REACTORS
330
C
102
}
330
C
100
AcDbDictionary
281
     1
  0
DICTIONARY
  5
D
102
{ACAD_REACTORS
330
C
102
}
330
C
100
AcDbDictionary
281
     1
  0
RASTERVARIABLES
  5
75
102
{ACAD_REACTORS
330
C
102
}
330
C
100
AcDbRasterVariables
 90
        0
 70
     0
 71
     1
 72
     5
  0
DICTIONARY
  5
62
102
{ACAD_REACTORS
330
C
102
}
330
C
100
AcDbDictionary
281
     1
  3
Layout1
350
6B
  3
Layout2
350
73
  3
Model
350
6F
  0
DICTIONARY
  5
10
102
{ACAD_REACTORS
330
C
102
}
330
C
100
AcDbDictionary
281
     1
  3
ByBlock
350
19
  3
ByLayer
350
11
  3
Global
350
21
  3
RevitMaterialDefinition97641
350
232
  0
DICTIONARY
  5
66
102
{ACAD_REACTORS
330
C
102
}
330
C
100
AcDbDictionary
281
     1
  3
Standard
350
67
  0
DICTIONARY
  5
5F
102
{ACAD_REACTORS
330
C
102
}
330
C
100
AcDbDictionary
281
     1
  3
Standard
350
60
  0
DICTIONARY
  5
61
102
{ACAD_REACTORS
330
C
102
}
330
C
100
AcDbDictionary
281
     1
  0
ACDBDICTIONARYWDFLT
  5
E
102
{ACAD_REACTORS
330
C
102
}
330
C
100
AcDbDictionary
281
     1
  3
Normal
350
F
100
AcDbDictionaryWithDefault
340
F
  0
DICTIONARY
  5
42
102
{ACAD_REACTORS
330
C
102
}
330
C
100
AcDbDictionary
281
     1
  3
A0
350
43
  3
A1
350
44
  3
A2
350
45
  3
A3
350
46
  3
A4
350
47
  3
A5
350
48
  3
A6
350
49
  3
A7
350
4A
  3
A8
350
4B
  3
A9
350
4C
  3
B0
350
4D
  3
B1
350
4E
  3
B2
350
4F
  3
B3
350
50
  3
B4
350
51
  3
B5
350
52
  3
B6
350
53
  0
DICTIONARY
  5
64
102
{ACAD_REACTORS
330
C
102
}
330
C
100
AcDbDictionary
281
     1
  3
Standard
350
65
  0
DICTIONARY
  5
29
102
{ACAD_REACTORS
330
C
102
}
330
C
100
AcDbDictionary
281
     1
  3
2dWireframe
350
2F
  3
Basic
350
2E
  3
Brighten
350
35
  3
ColorChange
350
39
  3
Conceptual
350
32
  3
Dim
350
34
  3
EdgeColorOff
350
41
  3
Facepattern
350
38
  3
Flat
350
2A
  3
FlatWithEdges
350
2B
  3
Gouraud
350
2C
  3
GouraudWithEdges
350
2D
  3
Hidden
350
31
  3
JitterOff
350
3F
  3
Linepattern
350
37
  3
OverhangOff
350
40
  3
Realistic
350
33
  3
Shaded
350
3E
  3
Shaded with edges
350
3D
  3
Shades of Gray
350
3A
  3
Sketchy
350
3B
  3
Thicken
350
36
  3
Wireframe
350
30
  3
X-Ray
350
3C
  0
XRECORD
  5
2A9
102
{ACAD_REACTORS
330
C
102
}
330
C
100
AcDbXrecord
280
     1
 90
        1
330
65
  0
DICTIONARY
  5
23B
102
{ACAD_REACTORS
330
C
102
}
330
C
100
AcDbDictionary
281
     1
  3
CANNOSCALE
350
23E
  3
CMLEADERSTYLE
350
23D
  3
CTABLESTYLE
350
23C
  3
DIMASSOC
350
2A1
  3
HIDETEXT
350
2A0
  3
INDEXCTL
350
29F
  3
LATITUDE
350
2A3
  3
LAYEREVAL
350
29C
  3
LAYERNOTIFY
350
29D
  3
LIGHTINGUNITS
350
29B
  3
LONGITUDE
350
2A4
  3
MSLTSCALE
350
29A
  3
SOLIDHIST
350
2A2
  3
SORTENTS
350
29E
  3
TIMEZONE
350
2A5
  3
XCLIPFRAME
350
2A6
  0
XRECORD
  5
2AA
102
{ACAD_REACTORS
330
C
102
}
330
C
100
AcDbXrecord
280
     1
  1
DWGPROPS COOKIE
  2

  3

  4

  6

  7

  8
omarr
  9

300
=
301
=
302
=
303
=
304
=
305
=
306
=
307
=
308
=
309
=
 40
0.0005083680555556
 41
2456030.392657396
 42
2456030.393208947
  1

 90
        0
  0
DICTIONARY
  5
235
102
{ACAD_REACTORS
330
C
102
}
330
C
100
AcDbDictionary
281
     1
  3
DRAWING_TOOL
350
239
  3
REVIT_CATEGORY_MAPPING
350
237
  3
REVIT_SUB_CATEGORY_MAPPING
350
238
  3
REVIT_TYPE_MAPPING
350
236
  0
LAYOUT
  5
6B
102
{ACAD_XDICTIONARY
360
2E0
102
}
102
{ACAD_REACTORS
330
62
102
}
330
62
100
AcDbPlotSettings
  1

  2

  4

  6

 40
0.0
 41
0.0
 42
0.0
 43
0.0
 44
0.0
 45
0.0
 46
0.0
 47
0.0
 48
0.0
 49
0.0
140
0.0
141
0.0
142
1.0
143
1.0
 70
   688
 72
     0
 73
     0
 74
     5
  7

 75
    16
147
1.0
148
0.0
149
0.0
100
AcDbLayout
  1
Layout1
 70
     1
 71
     1
 10
0.0
 20
0.0
 11
12.0
 21
9.0
 12
0.0
 22
0.0
 32
0.0
 14
1.000000000000000E+20
 24
1.000000000000000E+20
 34
1.000000000000000E+20
 15
-1.000000000000000E+20
 25
-1.000000000000000E+20
 35
-1.000000000000000E+20
146
0.0
 13
0.0
 23
0.0
 33
0.0
 16
1.0
 26
0.0
 36
0.0
 17
0.0
 27
1.0
 37
0.0
 76
     0
330
68
  0
LAYOUT
  5
73
102
{ACAD_XDICTIONARY
360
2E4
102
}
102
{ACAD_REACTORS
330
62
102
}
330
62
100
AcDbPlotSettings
  1

  2

  4

  6

 40
0.0
 41
0.0
 42
0.0
 43
0.0
 44
0.0
 45
0.0
 46
0.0
 47
0.0
 48
0.0
 49
0.0
140
0.0
141
0.0
142
1.0
143
1.0
 70
   688
 72
     0
 73
     0
 74
     5
  7

 75
    16
147
1.0
148
0.0
149
0.0
100
AcDbLayout
  1
Layout2
 70
     1
 71
     2
 10
0.0
 20
0.0
 11
12.0
 21
9.0
 12
0.0
 22
0.0
 32
0.0
 14
0.0
 24
0.0
 34
0.0
 15
0.0
 25
0.0
 35
0.0
146
0.0
 13
0.0
 23
0.0
 33
0.0
 16
1.0
 26
0.0
 36
0.0
 17
0.0
 27
1.0
 37
0.0
 76
     0
330
70
  0
LAYOUT
  5
6F
102
{ACAD_XDICTIONARY
360
2E2
102
}
102
{ACAD_REACTORS
330
62
102
}
330
62
100
AcDbPlotSettings
  1

  2

  4

  6

 40
0.0
 41
0.0
 42
0.0
 43
0.0
 44
0.0
 45
0.0
 46
0.0
 47
0.0
 48
0.0
 49
0.0
140
0.0
141
0.0
142
1.0
143
1.0
 70
  1712
 72
     0
 73
     0
 74
     0
  7

 75
     0
147
1.0
148
0.0
149
0.0
100
AcDbLayout
  1
Model
 70
     1
 71
     0
 10
0.0
 20
0.0
 11
12.0
 21
9.0
 12
0.0
 22
0.0
 32
0.0
 14
0.0
 24
0.0
 34
0.0
 15
0.0
 25
0.0
 35
0.0
146
0.0
 13
0.0
 23
0.0
 33
0.0
 16
1.0
 26
0.0
 36
0.0
 17
0.0
 27
1.0
 37
0.0
 76
     0
330
6C
331
57
  0
MATERIAL
  5
19
102
{ACAD_XDICTIONARY
360
1A
102
}
102
{ACAD_REACTORS
330
10
102
}
330
10
100
AcDbMaterial
  1
ByBlock
 72
     0
 43
0.0208333333333333
 43
0.0
 43
0.0
 43
0.0
 43
0.0
 43
0.0208333333333333
 43
0.0
 43
0.0
 43
0.0
 43
0.0
 43
1.0
 43
0.0
 43
0.0
 43
0.0
 43
0.0
 43
1.0
 77
     0
 47
0.0208333333333333
 47
0.0
 47
0.0
 47
0.0
 47
0.0
 47
0.0208333333333333
 47
0.0
 47
0.0
 47
0.0
 47
0.0
 47
1.0
 47
0.0
 47
0.0
 47
0.0
 47
0.0
 47
1.0
171
     0
 49
0.0208333333333333
 49
0.0
 49
0.0
 49
0.0
 49
0.0
 49
0.0208333333333333
 49
0.0
 49
0.0
 49
0.0
 49
0.0
 49
1.0
 49
0.0
 49
0.0
 49
0.0
 49
0.0
 49
1.0
175
     0
142
0.0208333333333333
142
0.0
142
0.0
142
0.0
142
0.0
142
0.0208333333333333
142
0.0
142
0.0
142
0.0
142
0.0
142
1.0
142
0.0
142
0.0
142
0.0
142
0.0
142
1.0
179
     0
144
0.0208333333333333
144
0.0
144
0.0
144
0.0
144
0.0
144
0.0208333333333333
144
0.0
144
0.0
144
0.0
144
0.0
144
1.0
144
0.0
144
0.0
144
0.0
144
0.0
144
1.0
147
0.0208333333333333
147
0.0
147
0.0
147
0.0
147
0.0
147
0.0208333333333333
147
0.0
147
0.0
147
0.0
147
0.0
147
1.0
147
0.0
147
0.0
147
0.0
147
0.0
147
1.0
  0
MATERIAL
  5
11
102
{ACAD_XDICTIONARY
360
12
102
}
102
{ACAD_REACTORS
330
10
102
}
330
10
100
AcDbMaterial
  1
ByLayer
 72
     0
 43
0.0208333333333333
 43
0.0
 43
0.0
 43
0.0
 43
0.0
 43
0.0208333333333333
 43
0.0
 43
0.0
 43
0.0
 43
0.0
 43
1.0
 43
0.0
 43
0.0
 43
0.0
 43
0.0
 43
1.0
 77
     0
 47
0.0208333333333333
 47
0.0
 47
0.0
 47
0.0
 47
0.0
 47
0.0208333333333333
 47
0.0
 47
0.0
 47
0.0
 47
0.0
 47
1.0
 47
0.0
 47
0.0
 47
0.0
 47
0.0
 47
1.0
171
     0
 49
0.0208333333333333
 49
0.0
 49
0.0
 49
0.0
 49
0.0
 49
0.0208333333333333
 49
0.0
 49
0.0
 49
0.0
 49
0.0
 49
1.0
 49
0.0
 49
0.0
 49
0.0
 49
0.0
 49
1.0
175
     0
142
0.0208333333333333
142
0.0
142
0.0
142
0.0
142
0.0
142
0.0208333333333333
142
0.0
142
0.0
142
0.0
142
0.0
142
1.0
142
0.0
142
0.0
142
0.0
142
0.0
142
1.0
179
     0
144
0.0208333333333333
144
0.0
144
0.0
144
0.0
144
0.0
144
0.0208333333333333
144
0.0
144
0.0
144
0.0
144
0.0
144
1.0
144
0.0
144
0.0
144
0.0
144
0.0
144
1.0
147
0.0208333333333333
147
0.0
147
0.0
147
0.0
147
0.0
147
0.0208333333333333
147
0.0
147
0.0
147
0.0
147
0.0
147
1.0
147
0.0
147
0.0
147
0.0
147
0.0
147
1.0
  0
MATERIAL
  5
21
102
{ACAD_XDICTIONARY
360
22
102
}
102
{ACAD_REACTORS
330
10
102
}
330
10
100
AcDbMaterial
  1
Global
 72
     0
 43
0.0208333333333333
 43
0.0
 43
0.0
 43
0.0
 43
0.0
 43
0.0208333333333333
 43
0.0
 43
0.0
 43
0.0
 43
0.0
 43
1.0
 43
0.0
 43
0.0
 43
0.0
 43
0.0
 43
1.0
 77
     0
 47
0.0208333333333333
 47
0.0
 47
0.0
 47
0.0
 47
0.0
 47
0.0208333333333333
 47
0.0
 47
0.0
 47
0.0
 47
0.0
 47
1.0
 47
0.0
 47
0.0
 47
0.0
 47
0.0
 47
1.0
171
     0
 49
0.0208333333333333
 49
0.0
 49
0.0
 49
0.0
 49
0.0
 49
0.0208333333333333
 49
0.0
 49
0.0
 49
0.0
 49
0.0
 49
1.0
 49
0.0
 49
0.0
 49
0.0
 49
0.0
 49
1.0
175
     0
142
0.0208333333333333
142
0.0
142
0.0
142
0.0
142
0.0
142
0.0208333333333333
142
0.0
142
0.0
142
0.0
142
0.0
142
1.0
142
0.0
142
0.0
142
0.0
142
0.0
142
1.0
179
     0
144
0.0208333333333333
144
0.0
144
0.0
144
0.0
144
0.0
144
0.0208333333333333
144
0.0
144
0.0
144
0.0
144
0.0
144
1.0
144
0.0
144
0.0
144
0.0
144
0.0
144
1.0
147
0.0208333333333333
147
0.0
147
0.0
147
0.0
147
0.0
147
0.0208333333333333
147
0.0
147
0.0
147
0.0
147
0.0
147
1.0
147
0.0
147
0.0
147
0.0
147
0.0
147
1.0
  0
MATERIAL
  5
232
102
{ACAD_XDICTIONARY
360
233
102
}
102
{ACAD_REACTORS
330
10
102
}
330
10
100
AcDbMaterial
  1
RevitMaterialDefinition97641
 70
     1
 90
-1025120795
 71
     1
 91
-1025120795
 73
     1
 76
     1
 45
0.5
 77
     0
175
     0
145
0.0
  0
MLEADERSTYLE
  5
67
102
{ACAD_REACTORS
330
66
102
}
330
66
100
AcDbMLeaderStyle
170
     2
171
     1
172
     0
 90
        2
 40
0.0
 41
0.0
173
     1
 91
-1056964608
340
5B
 92
       -2
290
     1
 42
0.09
291
     1
 43
0.36
  3
Standard
 44
0.18
300

342
55
174
     1
178
     6
175
     1
176
     0
 93
-1056964608
 45
0.18
292
     0
297
     0
 46
0.18
 94
-1056964608
 47
1.0
 49
1.0
140
1.0
293
     1
141
0.0
294
     1
177
     0
142
1.0
295
     0
296
     0
143
0.125
1001
ACAD_MLEADERVER
1070
     2
  0
MLINESTYLE
  5
60
102
{ACAD_REACTORS
330
5F
102
}
330
5F
100
AcDbMlineStyle
  2
STANDARD
 70
     0
  3

 62
   256
 51
90.0
 52
90.0
 71
     2
 49
0.5
 62
   256
  6
BYLAYER
 49
-0.5
 62
   256
  6
BYLAYER
  0
ACDBPLACEHOLDER
  5
F
102
{ACAD_REACTORS
330
E
102
}
330
E
  0
SCALE
  5
43
102
{ACAD_REACTORS
330
42
102
}
330
42
100
AcDbScale
 70
     0
300
1:1
140
1.0
141
1.0
290
     1
  0
SCALE
  5
44
102
{ACAD_REACTORS
330
42
102
}
330
42
100
AcDbScale
 70
     0
300
1/128" = 1'-0"
140
0.0078125
141
12.0
290
     0
  0
SCALE
  5
45
102
{ACAD_REACTORS
330
42
102
}
330
42
100
AcDbScale
 70
     0
300
1/64" = 1'-0"
140
0.015625
141
12.0
290
     0
  0
SCALE
  5
46
102
{ACAD_REACTORS
330
42
102
}
330
42
100
AcDbScale
 70
     0
300
1/32" = 1'-0"
140
0.03125
141
12.0
290
     0
  0
SCALE
  5
47
102
{ACAD_REACTORS
330
42
102
}
330
42
100
AcDbScale
 70
     0
300
1/16" = 1'-0"
140
0.0625
141
12.0
290
     0
  0
SCALE
  5
48
102
{ACAD_REACTORS
330
42
102
}
330
42
100
AcDbScale
 70
     0
300
3/32" = 1'-0"
140
0.09375
141
12.0
290
     0
  0
SCALE
  5
49
102
{ACAD_REACTORS
330
42
102
}
330
42
100
AcDbScale
 70
     0
300
1/8" = 1'-0"
140
0.125
141
12.0
290
     0
  0
SCALE
  5
4A
102
{ACAD_REACTORS
330
42
102
}
330
42
100
AcDbScale
 70
     0
300
3/16" = 1'-0"
140
0.1875
141
12.0
290
     0
  0
SCALE
  5
4B
102
{ACAD_REACTORS
330
42
102
}
330
42
100
AcDbScale
 70
     0
300
1/4" = 1'-0"
140
0.25
141
12.0
290
     0
  0
SCALE
  5
4C
102
{ACAD_REACTORS
330
42
102
}
330
42
100
AcDbScale
 70
     0
300
3/8" = 1'-0"
140
0.375
141
12.0
290
     0
  0
SCALE
  5
4D
102
{ACAD_REACTORS
330
42
102
}
330
42
100
AcDbScale
 70
     0
300
1/2" = 1'-0"
140
0.5
141
12.0
290
     0
  0
SCALE
  5
4E
102
{ACAD_REACTORS
330
42
102
}
330
42
100
AcDbScale
 70
     0
300
3/4" = 1'-0"
140
0.75
141
12.0
290
     0
  0
SCALE
  5
4F
102
{ACAD_REACTORS
330
42
102
}
330
42
100
AcDbScale
 70
     0
300
1" = 1'-0"
140
1.0
141
12.0
290
     0
  0
SCALE
  5
50
102
{ACAD_REACTORS
330
42
102
}
330
42
100
AcDbScale
 70
     0
300
1-1/2" = 1'-0"
140
1.5
141
12.0
290
     0
  0
SCALE
  5
51
102
{ACAD_REACTORS
330
42
102
}
330
42
100
AcDbScale
 70
     0
300
3" = 1'-0"
140
3.0
141
12.0
290
     0
  0
SCALE
  5
52
102
{ACAD_REACTORS
330
42
102
}
330
42
100
AcDbScale
 70
     0
300
6" = 1'-0"
140
6.0
141
12.0
290
     0
  0
SCALE
  5
53
102
{ACAD_REACTORS
330
42
102
}
330
42
100
AcDbScale
 70
     0
300
1'-0" = 1'-0"
140
12.0
141
12.0
290
     0
  0
TABLESTYLE
  5
65
102
{ACAD_XDICTIONARY
360
2A7
102
}
102
{ACAD_REACTORS
330
64
102
}
330
64
100
AcDbTableStyle
  3
Standard
 70
     0
 71
     0
 40
0.06
 41
0.06
280
     0
281
     0
  7
Standard
140
0.18
170
     2
 62
     0
 63
     7
283
     0
274
    -2
284
     1
 64
     0
275
    -2
285
     1
 65
     0
276
    -2
286
     1
 66
     0
277
    -2
287
     1
 67
     0
278
    -2
288
     1
 68
     0
279
    -2
289
     1
 69
     0
  7
Standard
140
0.25
170
     5
 62
     0
 63
     7
283
     0
274
    -2
284
     1
 64
     0
275
    -2
285
     1
 65
     0
276
    -2
286
     1
 66
     0
277
    -2
287
     1
 67
     0
278
    -2
288
     1
 68
     0
279
    -2
289
     1
 69
     0
  7
Standard
140
0.18
170
     5
 62
     0
 63
     7
283
     0
274
    -2
284
     1
 64
     0
275
    -2
285
     1
 65
     0
276
    -2
286
     1
 66
     0
277
    -2
287
     1
 67
     0
278
    -2
288
     1
 68
     0
279
    -2
289
     1
 69
     0
  0
VISUALSTYLE
  5
2F
102
{ACAD_XDICTIONARY
360
2B8
102
}
102
{ACAD_REACTORS
330
29
102
}
330
29
100
AcDbVisualStyle
  2
2dWireframe
 70
     4
 71
     0
 72
     2
 73
     0
 90
        0
 40
-0.6
 41
-30.0
 62
     5
 63
     7
 74
     1
 91
        4
 64
     7
 65
   257
 75
     1
175
     1
 42
1.0
 92
        0
 66
   257
 43
1.0
 76
     1
 77
     6
 78
     2
 67
     7
 79
     5
170
     0
171
     0
290
     0
174
     0
 93
        1
 44
0.0
173
     0
291
     0
 45
0.0
1001
ACAD
1000
AcDbSavedByObjectVersion
1070
     0
  0
VISUALSTYLE
  5
2E
102
{ACAD_XDICTIONARY
360
2B6
102
}
102
{ACAD_REACTORS
330
29
102
}
330
29
100
AcDbVisualStyle
  2
Basic
 70
     7
 71
     1
 72
     0
 73
     1
 90
        0
 40
-0.6
 41
-30.0
 62
     5
 63
     7
 74
     0
 91
        4
 64
     7
 65
   257
 75
     1
175
     1
 42
1.0
 92
        8
 66
     7
 43
1.0
 76
     1
 77
     6
 78
     2
 67
     7
 79
     5
170
     0
171
     0
290
     0
174
     0
 93
        1
 44
0.0
173
     0
291
     1
 45
0.0
1001
ACAD
1000
AcDbSavedByObjectVersion
1070
     0
  0
VISUALSTYLE
  5
35
102
{ACAD_XDICTIONARY
360
2C4
102
}
102
{ACAD_REACTORS
330
29
102
}
330
29
100
AcDbVisualStyle
  2
Brighten
 70
    12
 71
     2
 72
     2
 73
     0
 90
        0
 40
-0.6
 41
-30.0
 62
     5
 63
     7
 74
     1
 91
        4
 64
     7
 65
   257
 75
     1
175
     1
 42
1.0
 92
        8
 66
     7
 43
1.0
 76
     1
 77
     6
 78
     2
 67
     7
 79
     5
170
     0
171
     0
290
     0
174
     0
 93
        1
 44
50.0
173
     0
291
     1
 45
0.0
1001
ACAD
1000
AcDbSavedByObjectVersion
1070
     0
  0
VISUALSTYLE
  5
39
102
{ACAD_XDICTIONARY
360
2CC
102
}
102
{ACAD_REACTORS
330
29
102
}
330
29
100
AcDbVisualStyle
  2
ColorChange
 70
    16
 71
     2
 72
     2
 73
     3
 90
        0
 40
-0.6
 41
-30.0
 62
     5
 63
     8
 74
     1
 91
        4
 64
     7
 65
   257
 75
     1
175
     1
 42
1.0
 92
        8
 66
     8
 43
1.0
 76
     1
 77
     6
 78
     2
 67
     7
 79
     5
170
     0
171
     0
290
     0
174
     0
 93
        1
 44
0.0
173
     0
291
     1
 45
0.0
1001
ACAD
1000
AcDbSavedByObjectVersion
1070
     0
  0
VISUALSTYLE
  5
32
102
{ACAD_XDICTIONARY
360
2BE
102
}
102
{ACAD_REACTORS
330
29
102
}
330
29
100
AcDbVisualStyle
  2
Conceptual
 70
     9
 71
     3
 72
     2
 73
     0
 90
        0
 40
-0.6
 41
-30.0
 62
     5
 63
     7
 74
     2
 91
        2
 64
     7
 65
   257
 75
     1
175
     1
 42
179.0
 92
        8
 66
     7
 43
1.0
 76
     1
 77
     6
 78
     2
 67
     7
 79
     3
170
     0
171
     0
290
     0
174
     0
 93
        1
 44
0.0
173
     0
291
     0
 45
0.0
1001
ACAD
1000
AcDbSavedByObjectVersion
1070
     0
  0
VISUALSTYLE
  5
34
102
{ACAD_XDICTIONARY
360
2C2
102
}
102
{ACAD_REACTORS
330
29
102
}
330
29
100
AcDbVisualStyle
  2
Dim
 70
    11
 71
     2
 72
     2
 73
     0
 90
        0
 40
-0.6
 41
-30.0
 62
     5
 63
     7
 74
     1
 91
        4
 64
     7
 65
   257
 75
     1
175
     1
 42
1.0
 92
        8
 66
     7
 43
1.0
 76
     1
 77
     6
 78
     2
 67
     7
 79
     5
170
     0
171
     0
290
     0
174
     0
 93
        1
 44
-50.0
173
     0
291
     1
 45
0.0
1001
ACAD
1000
AcDbSavedByObjectVersion
1070
     0
  0
VISUALSTYLE
  5
41
102
{ACAD_XDICTIONARY
360
2DC
102
}
102
{ACAD_REACTORS
330
29
102
}
330
29
100
AcDbVisualStyle
  2
EdgeColorOff
 70
    22
 71
     2
 72
     2
 73
     0
 90
        0
 40
-0.6
 41
-30.0
 62
     5
 63
     7
 74
     1
 91
        4
 64
     7
 65
   257
 75
     1
175
     1
 42
1.0
 92
        8
 66
     7
 43
1.0
 76
     1
 77
     6
 78
     2
 67
     7
 79
     5
170
     0
171
     0
290
     0
174
     0
 93
        1
 44
0.0
173
     0
291
     1
 45
0.0
1001
ACAD
1000
AcDbSavedByObjectVersion
1070
     0
  0
VISUALSTYLE
  5
38
102
{ACAD_XDICTIONARY
360
2CA
102
}
102
{ACAD_REACTORS
330
29
102
}
330
29
100
AcDbVisualStyle
  2
Facepattern
 70
    15
 71
     2
 72
     2
 73
     0
 90
        0
 40
-0.6
 41
-30.0
 62
     5
 63
     7
 74
     1
 91
        4
 64
     7
 65
   257
 75
     1
175
     1
 42
1.0
 92
        8
 66
     7
 43
1.0
 76
     1
 77
     6
 78
     2
 67
     7
 79
     5
170
     0
171
     0
290
     0
174
     0
 93
        1
 44
0.0
173
     0
291
     1
 45
0.0
1001
ACAD
1000
AcDbSavedByObjectVersion
1070
     0
  0
VISUALSTYLE
  5
2A
102
{ACAD_XDICTIONARY
360
2AE
102
}
102
{ACAD_REACTORS
330
29
102
}
330
29
100
AcDbVisualStyle
  2
Flat
 70
     0
 71
     2
 72
     1
 73
     1
 90
        2
 40
-0.6
 41
30.0
 62
     5
 63
     7
 74
     0
 91
        0
 64
     7
 65
   257
 75
     1
175
     1
 42
1.0
 92
        8
 66
     7
 43
1.0
 76
     1
 77
     6
 78
     2
 67
     7
 79
     5
170
     0
171
     0
290
     0
174
     0
 93
       13
 44
0.0
173
     0
291
     1
 45
0.0
1001
ACAD
1000
AcDbSavedByObjectVersion
1070
     0
  0
VISUALSTYLE
  5
2B
102
{ACAD_XDICTIONARY
360
2B0
102
}
102
{ACAD_REACTORS
330
29
102
}
330
29
100
AcDbVisualStyle
  2
FlatWithEdges
 70
     1
 71
     2
 72
     1
 73
     1
 90
        2
 40
-0.6
 41
30.0
 62
     5
 63
     7
 74
     1
 91
        0
 64
     7
 65
   257
 75
     1
175
     1
 42
1.0
 92
        0
 66
   257
 43
1.0
 76
     1
 77
     6
 78
     2
 67
     7
 79
     5
170
     0
171
     0
290
     0
174
     0
 93
       13
 44
0.0
173
     0
291
     1
 45
0.0
1001
ACAD
1000
AcDbSavedByObjectVersion
1070
     0
  0
VISUALSTYLE
  5
2C
102
{ACAD_XDICTIONARY
360
2B2
102
}
102
{ACAD_REACTORS
330
29
102
}
330
29
100
AcDbVisualStyle
  2
Gouraud
 70
     2
 71
     2
 72
     2
 73
     1
 90
        2
 40
-0.6
 41
30.0
 62
     5
 63
     7
 74
     0
 91
        0
 64
     7
 65
   257
 75
     1
175
     1
 42
1.0
 92
        0
 66
     7
 43
1.0
 76
     1
 77
     6
 78
     2
 67
     7
 79
     5
170
     0
171
     0
290
     0
174
     0
 93
       13
 44
0.0
173
     0
291
     1
 45
0.0
1001
ACAD
1000
AcDbSavedByObjectVersion
1070
     0
  0
VISUALSTYLE
  5
2D
102
{ACAD_XDICTIONARY
360
2B4
102
}
102
{ACAD_REACTORS
330
29
102
}
330
29
100
AcDbVisualStyle
  2
GouraudWithEdges
 70
     3
 71
     2
 72
     2
 73
     1
 90
        2
 40
-0.6
 41
30.0
 62
     5
 63
     7
 74
     1
 91
        0
 64
     7
 65
   257
 75
     1
175
     1
 42
1.0
 92
        0
 66
   257
 43
1.0
 76
     1
 77
     6
 78
     2
 67
     7
 79
     5
170
     0
171
     0
290
     0
174
     0
 93
       13
 44
0.0
173
     0
291
     1
 45
0.0
1001
ACAD
1000
AcDbSavedByObjectVersion
1070
     0
  0
VISUALSTYLE
  5
31
102
{ACAD_XDICTIONARY
360
2BC
102
}
102
{ACAD_REACTORS
330
29
102
}
330
29
100
AcDbVisualStyle
  2
Hidden
 70
     6
 71
     1
 72
     2
 73
     2
 90
        0
 40
-0.6
 41
-30.0
 62
     5
 63
     7
 74
     2
 91
        2
 64
     7
 65
   257
 75
     2
175
     1
 42
40.0
 92
        0
 66
   257
 43
1.0
 76
     1
 77
     6
 78
     2
 67
     7
 79
     3
170
     0
171
     0
290
     0
174
     0
 93
        1
 44
0.0
173
     0
291
     0
 45
0.0
1001
ACAD
1000
AcDbSavedByObjectVersion
1070
     0
  0
VISUALSTYLE
  5
3F
102
{ACAD_XDICTIONARY
360
2D8
102
}
102
{ACAD_REACTORS
330
29
102
}
330
29
100
AcDbVisualStyle
  2
JitterOff
 70
    20
 71
     2
 72
     2
 73
     0
 90
        0
 40
-0.6
 41
-30.0
 62
     5
 63
     7
 74
     1
 91
        4
 64
     7
 65
   257
 75
     1
175
     1
 42
1.0
 92
       10
 66
     7
 43
1.0
 76
     1
 77
     6
 78
     2
 67
     7
 79
     5
170
     0
171
     0
290
     0
174
     0
 93
        1
 44
0.0
173
     0
291
     1
 45
0.0
1001
ACAD
1000
AcDbSavedByObjectVersion
1070
     0
  0
VISUALSTYLE
  5
37
102
{ACAD_XDICTIONARY
360
2C8
102
}
102
{ACAD_REACTORS
330
29
102
}
330
29
100
AcDbVisualStyle
  2
Linepattern
 70
    14
 71
     2
 72
     2
 73
     0
 90
        0
 40
-0.6
 41
-30.0
 62
     5
 63
     7
 74
     1
 91
        4
 64
     7
 65
   257
 75
     7
175
     7
 42
1.0
 92
        8
 66
     7
 43
1.0
 76
     1
 77
     6
 78
     2
 67
     7
 79
     5
170
     0
171
     0
290
     0
174
     0
 93
        1
 44
0.0
173
     0
291
     1
 45
0.0
1001
ACAD
1000
AcDbSavedByObjectVersion
1070
     0
  0
VISUALSTYLE
  5
40
102
{ACAD_XDICTIONARY
360
2DA
102
}
102
{ACAD_REACTORS
330
29
102
}
330
29
100
AcDbVisualStyle
  2
OverhangOff
 70
    21
 71
     2
 72
     2
 73
     0
 90
        0
 40
-0.6
 41
-30.0
 62
     5
 63
     7
 74
     1
 91
        4
 64
     7
 65
   257
 75
     1
175
     1
 42
1.0
 92
        9
 66
     7
 43
1.0
 76
     1
 77
     6
 78
     2
 67
     7
 79
     5
170
     0
171
     0
290
     0
174
     0
 93
        1
 44
0.0
173
     0
291
     1
 45
0.0
1001
ACAD
1000
AcDbSavedByObjectVersion
1070
     0
  0
VISUALSTYLE
  5
33
102
{ACAD_XDICTIONARY
360
2C0
102
}
102
{ACAD_REACTORS
330
29
102
}
330
29
100
AcDbVisualStyle
  2
Realistic
 70
     8
 71
     2
 72
     3
 73
     0
 90
        2
 40
-0.6
 41
30.0
 62
     5
 63
     7
 74
     0
 91
        0
 64
     7
 65
   257
 75
     1
175
     1
 42
1.0
 92
        8
 66
   257
 43
1.0
 76
     1
 77
     6
 78
     2
 67
     7
 79
     3
170
     0
171
     0
290
     0
174
     0
 93
       13
 44
0.0
173
     0
291
     0
 45
0.0
1001
ACAD
1000
AcDbSavedByObjectVersion
1070
     0
  0
VISUALSTYLE
  5
3E
102
{ACAD_XDICTIONARY
360
2D6
102
}
102
{ACAD_REACTORS
330
29
102
}
330
29
100
AcDbVisualStyle
  2
Shaded
 70
    27
 71
     2
 72
     2
 73
     1
 90
        2
 40
-0.6
 41
30.0
 62
     5
 63
     7
 74
     0
 91
        4
 64
     7
 65
   257
 75
     1
175
     1
 42
1.0
 92
        8
 66
   257
 43
1.0
 76
     1
 77
     6
 78
     2
 67
     8
 79
     3
170
     0
171
     0
290
     0
174
     0
 93
        5
 44
0.0
173
     0
291
     0
 45
0.0
1001
ACAD
1000
AcDbSavedByObjectVersion
1070
     0
  0
VISUALSTYLE
  5
3D
102
{ACAD_XDICTIONARY
360
2D4
102
}
102
{ACAD_REACTORS
330
29
102
}
330
29
100
AcDbVisualStyle
  2
Shaded with edges
 70
    26
 71
     2
 72
     2
 73
     1
 90
        2
 40
-0.6
 41
30.0
 62
     5
 63
     7
 74
     1
 91
       10
 64
     7
 65
   257
 75
     2
175
     1
 42
1.0
 92
        8
 66
   257
 43
1.0
 76
     1
 77
     6
 78
     2
 67
     7
 79
     3
170
     0
171
     0
290
     0
174
     0
 93
        5
 44
0.0
173
     0
291
     0
 45
0.0
1001
ACAD
1000
AcDbSavedByObjectVersion
1070
     0
  0
VISUALSTYLE
  5
3A
102
{ACAD_XDICTIONARY
360
2CE
102
}
102
{ACAD_REACTORS
330
29
102
}
330
29
100
AcDbVisualStyle
  2
Shades of Gray
 70
    23
 71
     2
 72
     2
 73
     3
 90
        0
 40
-0.6
 41
-30.0
 62
     5
 63
     7
 74
     2
 91
        2
 64
     7
 65
     7
 75
     1
175
     1
 42
40.0
 92
        8
 66
     7
 43
1.0
 76
     1
 77
     6
 78
     2
 67
     7
 79
     3
170
     0
171
     0
290
     0
174
     0
 93
        1
 44
0.0
173
     0
291
     0
 45
0.0
1001
ACAD
1000
AcDbSavedByObjectVersion
1070
     0
  0
VISUALSTYLE
  5
3B
102
{ACAD_XDICTIONARY
360
2D0
102
}
102
{ACAD_REACTORS
330
29
102
}
330
29
100
AcDbVisualStyle
  2
Sketchy
 70
    24
 71
     1
 72
     2
 73
     2
 90
        0
 40
-0.6
 41
-30.0
 62
     5
 63
     7
 74
     2
 91
        2
 64
     7
 65
     7
 75
     1
175
     1
 42
40.0
 92
       11
 66
     7
 43
1.0
 76
     1
 77
     6
 78
     2
 67
     7
 79
     6
170
     0
171
     0
290
     0
174
     0
 93
        1
 44
0.0
173
     0
291
     0
 45
0.0
1001
ACAD
1000
AcDbSavedByObjectVersion
1070
     0
  0
VISUALSTYLE
  5
36
102
{ACAD_XDICTIONARY
360
2C6
102
}
102
{ACAD_REACTORS
330
29
102
}
330
29
100
AcDbVisualStyle
  2
Thicken
 70
    13
 71
     2
 72
     2
 73
     0
 90
        0
 40
-0.6
 41
-30.0
 62
     5
 63
     7
 74
     1
 91
        4
 64
     7
 65
   257
 75
     1
175
     1
 42
1.0
 92
       12
 66
     7
 43
1.0
 76
     1
 77
     6
 78
     2
 67
     7
 79
     5
170
     0
171
     0
290
     0
174
     0
 93
        1
 44
0.0
173
     0
291
     1
 45
0.0
1001
ACAD
1000
AcDbSavedByObjectVersion
1070
     0
  0
VISUALSTYLE
  5
30
102
{ACAD_XDICTIONARY
360
2BA
102
}
102
{ACAD_REACTORS
330
29
102
}
330
29
100
AcDbVisualStyle
  2
Wireframe
 70
     5
 71
     0
 72
     2
 73
     0
 90
        0
 40
-0.6
 41
-30.0
 62
     5
 63
     7
 74
     1
 91
        4
 64
     7
 65
   257
 75
     1
175
     1
 42
1.0
 92
        0
 66
   257
 43
1.0
 76
     1
 77
     6
 78
     2
 67
     7
 79
     3
170
     0
171
     0
290
     0
174
     0
 93
        1
 44
0.0
173
     0
291
     0
 45
0.0
1001
ACAD
1000
AcDbSavedByObjectVersion
1070
     0
  0
VISUALSTYLE
  5
3C
102
{ACAD_XDICTIONARY
360
2D2
102
}
102
{ACAD_REACTORS
330
29
102
}
330
29
100
AcDbVisualStyle
  2
X-Ray
 70
    25
 71
     2
 72
     2
 73
     1
 90
        1
 40
0.5
 41
-30.0
 62
     5
 63
     7
 74
     1
 91
        0
 64
     7
 65
   257
 75
     1
175
     1
 42
1.0
 92
        8
 66
     7
 43
1.0
 76
     1
 77
     6
 78
     2
 67
     7
 79
     3
170
     0
171
     0
290
     0
174
     0
 93
       13
 44
0.0
173
     0
291
     0
 45
0.0
1001
ACAD
1000
AcDbSavedByObjectVersion
1070
     0
  0
DICTIONARYVAR
  5
23E
102
{ACAD_REACTORS
330
23B
102
}
330
23B
100
DictionaryVariables
280
     0
  1
1:1
  0
DICTIONARYVAR
  5
23D
102
{ACAD_REACTORS
330
23B
102
}
330
23B
100
DictionaryVariables
280
     0
  1
STANDARD
  0
DICTIONARYVAR
  5
23C
102
{ACAD_REACTORS
330
23B
102
}
330
23B
100
DictionaryVariables
280
     0
  1
STANDARD
  0
DICTIONARYVAR
  5
2A1
102
{ACAD_REACTORS
330
23B
102
}
330
23B
100
DictionaryVariables
280
     0
  1
2
  0
DICTIONARYVAR
  5
2A0
102
{ACAD_REACTORS
330
23B
102
}
330
23B
100
DictionaryVariables
280
     0
  1
1
  0
DICTIONARYVAR
  5
29F
102
{ACAD_REACTORS
330
23B
102
}
330
23B
100
DictionaryVariables
280
     0
  1
0
  0
DICTIONARYVAR
  5
2A3
102
{ACAD_REACTORS
330
23B
102
}
330
23B
100
DictionaryVariables
280
     0
  1
0.000000
  0
DICTIONARYVAR
  5
29C
102
{ACAD_REACTORS
330
23B
102
}
330
23B
100
DictionaryVariables
280
     0
  1
0
  0
DICTIONARYVAR
  5
29D
102
{ACAD_REACTORS
330
23B
102
}
330
23B
100
DictionaryVariables
280
     0
  1
0
  0
DICTIONARYVAR
  5
29B
102
{ACAD_REACTORS
330
23B
102
}
330
23B
100
DictionaryVariables
280
     0
  1
2
  0
DICTIONARYVAR
  5
2A4
102
{ACAD_REACTORS
330
23B
102
}
330
23B
100
DictionaryVariables
280
     0
  1
0.000000
  0
DICTIONARYVAR
  5
29A
102
{ACAD_REACTORS
330
23B
102
}
330
23B
100
DictionaryVariables
280
     0
  1
1
  0
DICTIONARYVAR
  5
2A2
102
{ACAD_REACTORS
330
23B
102
}
330
23B
100
DictionaryVariables
280
     0
  1
1
  0
DICTIONARYVAR
  5
29E
102
{ACAD_REACTORS
330
23B
102
}
330
23B
100
DictionaryVariables
280
     0
  1
127
  0
DICTIONARYVAR
  5
2A5
102
{ACAD_REACTORS
330
23B
102
}
330
23B
100
DictionaryVariables
280
     0
  1
0
  0
DICTIONARYVAR
  5
2A6
102
{ACAD_REACTORS
330
23B
102
}
330
23B
100
DictionaryVariables
280
     0
  1
2
  0
XRECORD
  5
239
102
{ACAD_REACTORS
330
235
102
}
330
235
100
AcDbXrecord
280
     1
  1
BUILDING_ID
  1
Sunshade-Linear-Kawneer-Curtain_Wall-Rounded
  1
FLOOR_ID
  1
19153
  0
XRECORD
  5
237
102
{ACAD_REACTORS
330
235
102
}
330
235
100
AcDbXrecord
280
     1
  1
-2000151
  1
Generic Models
  1
-2001354
  1
Structural Stiffeners
  1
-2009030
  1
Structural Connections
  0
XRECORD
  5
238
102
{ACAD_REACTORS
330
235
102
}
330
235
100
AcDbXrecord
280
     1
  1
103689
  1
Blade
  1
141087
  1
Fascias
  1
142059
  1
Outrigger
  1
153703
  1
Bracket
  0
XRECORD
  5
236
102
{ACAD_REACTORS
330
235
102
}
330
235
100
AcDbXrecord
280
     1
  1
139474
  1
Blade-Kawneer-Square : Versoleil
  1
141099
  1
Fascia-Kawneer-Bullnose : Versoleil
  1
142066
  1
Outrigger-Kawneer-Rounded : 5"
  0
DICTIONARY
  5
2E0
330
6B
100
AcDbDictionary
280
     1
281
     1
  3
ACAD_XREC_ROUNDTRIP
360
2E1
  0
DICTIONARY
  5
2E4
330
73
100
AcDbDictionary
280
     1
281
     1
  3
ACAD_XREC_ROUNDTRIP
360
2E5
  0
DICTIONARY
  5
2E2
330
6F
100
AcDbDictionary
280
     1
281
     1
  3
ACAD_XREC_ROUNDTRIP
360
2E3
  0
DICTIONARY
  5
1A
330
19
100
AcDbDictionary
280
     1
281
     1
  3
ACAD_XREC_ROUNDTRIP
360
2AC
  3
BUMPTILE
360
1C
  3
DIFFUSETILE
360
1B
  3
OPACITYTILE
360
1F
  3
REFLECTIONTILE
360
1E
  3
REFRACTIONTILE
360
20
  3
SPECULARTILE
360
1D
  0
DICTIONARY
  5
12
330
11
100
AcDbDictionary
280
     1
281
     1
  3
ACAD_XREC_ROUNDTRIP
360
2AB
  3
BUMPTILE
360
14
  3
DIFFUSETILE
360
13
  3
OPACITYTILE
360
17
  3
REFLECTIONTILE
360
16
  3
REFRACTIONTILE
360
18
  3
SPECULARTILE
360
15
  0
DICTIONARY
  5
22
330
21
100
AcDbDictionary
280
     1
281
     1
  3
ACAD_XREC_ROUNDTRIP
360
2AD
  3
BUMPTILE
360
24
  3
DIFFUSETILE
360
23
  3
FBXASSET
360
246
  3
OPACITYTILE
360
27
  3
REFLECTIONTILE
360
26
  3
REFRACTIONTILE
360
28
  3
SPECULARTILE
360
25
  0
DICTIONARY
  5
233
330
232
100
AcDbDictionary
280
     1
281
     1
  3
ACAD_XREC_ROUNDTRIP
360
2E6
  3
VIZ XML Material Definition
360
234
  0
DICTIONARY
  5
2A7
330
65
100
AcDbDictionary
280
     1
281
     1
  3
ACAD_ROUNDTRIP_2008_TABLESTYLE_CELLSTYLEMAP
360
2A8
  3
ACAD_XREC_ROUNDTRIP
360
2DE
  0
DICTIONARY
  5
2B8
330
2F
100
AcDbDictionary
280
     1
281
     1
  3
ACAD_XREC_ROUNDTRIP
360
2B9
  0
DICTIONARY
  5
2B6
330
2E
100
AcDbDictionary
280
     1
281
     1
  3
ACAD_XREC_ROUNDTRIP
360
2B7
  0
DICTIONARY
  5
2C4
330
35
100
AcDbDictionary
280
     1
281
     1
  3
ACAD_XREC_ROUNDTRIP
360
2C5
  0
DICTIONARY
  5
2CC
330
39
100
AcDbDictionary
280
     1
281
     1
  3
ACAD_XREC_ROUNDTRIP
360
2CD
  0
DICTIONARY
  5
2BE
330
32
100
AcDbDictionary
280
     1
281
     1
  3
ACAD_XREC_ROUNDTRIP
360
2BF
  0
DICTIONARY
  5
2C2
330
34
100
AcDbDictionary
280
     1
281
     1
  3
ACAD_XREC_ROUNDTRIP
360
2C3
  0
DICTIONARY
  5
2DC
330
41
100
AcDbDictionary
280
     1
281
     1
  3
ACAD_XREC_ROUNDTRIP
360
2DD
  0
DICTIONARY
  5
2CA
330
38
100
AcDbDictionary
280
     1
281
     1
  3
ACAD_XREC_ROUNDTRIP
360
2CB
  0
DICTIONARY
  5
2AE
330
2A
100
AcDbDictionary
280
     1
281
     1
  3
ACAD_XREC_ROUNDTRIP
360
2AF
  0
DICTIONARY
  5
2B0
330
2B
100
AcDbDictionary
280
     1
281
     1
  3
ACAD_XREC_ROUNDTRIP
360
2B1
  0
DICTIONARY
  5
2B2
330
2C
100
AcDbDictionary
280
     1
281
     1
  3
ACAD_XREC_ROUNDTRIP
360
2B3
  0
DICTIONARY
  5
2B4
330
2D
100
AcDbDictionary
280
     1
281
     1
  3
ACAD_XREC_ROUNDTRIP
360
2B5
  0
DICTIONARY
  5
2BC
330
31
100
AcDbDictionary
280
     1
281
     1
  3
ACAD_XREC_ROUNDTRIP
360
2BD
  0
DICTIONARY
  5
2D8
330
3F
100
AcDbDictionary
280
     1
281
     1
  3
ACAD_XREC_ROUNDTRIP
360
2D9
  0
DICTIONARY
  5
2C8
330
37
100
AcDbDictionary
280
     1
281
     1
  3
ACAD_XREC_ROUNDTRIP
360
2C9
  0
DICTIONARY
  5
2DA
330
40
100
AcDbDictionary
280
     1
281
     1
  3
ACAD_XREC_ROUNDTRIP
360
2DB
  0
DICTIONARY
  5
2C0
330
33
100
AcDbDictionary
280
     1
281
     1
  3
ACAD_XREC_ROUNDTRIP
360
2C1
  0
DICTIONARY
  5
2D6
330
3E
100
AcDbDictionary
280
     1
281
     1
  3
ACAD_XREC_ROUNDTRIP
360
2D7
  0
DICTIONARY
  5
2D4
330
3D
100
AcDbDictionary
280
     1
281
     1
  3
ACAD_XREC_ROUNDTRIP
360
2D5
  0
DICTIONARY
  5
2CE
330
3A
100
AcDbDictionary
280
     1
281
     1
  3
ACAD_XREC_ROUNDTRIP
360
2CF
  0
DICTIONARY
  5
2D0
330
3B
100
AcDbDictionary
280
     1
281
     1
  3
ACAD_XREC_ROUNDTRIP
360
2D1
  0
DICTIONARY
  5
2C6
330
36
100
AcDbDictionary
280
     1
281
     1
  3
ACAD_XREC_ROUNDTRIP
360
2C7
  0
DICTIONARY
  5
2BA
330
30
100
AcDbDictionary
280
     1
281
     1
  3
ACAD_XREC_ROUNDTRIP
360
2BB
  0
DICTIONARY
  5
2D2
330
3C
100
AcDbDictionary
280
     1
281
     1
  3
ACAD_XREC_ROUNDTRIP
360
2D3
  0
XRECORD
  5
2E1
102
{ACAD_REACTORS
330
2E0
102
}
330
2E0
100
AcDbXrecord
280
     1
102
SHADEPLOT
 70
     0
102
SHADEPLOTRESLEVEL
 70
     2
102
SHADEPLOTCUSTOMDPI
 70
   300
  0
XRECORD
  5
2E5
102
{ACAD_REACTORS
330
2E4
102
}
330
2E4
100
AcDbXrecord
280
     1
102
SHADEPLOT
 70
     0
102
SHADEPLOTRESLEVEL
 70
     2
102
SHADEPLOTCUSTOMDPI
 70
   300
  0
XRECORD
  5
2E3
102
{ACAD_REACTORS
330
2E2
102
}
330
2E2
100
AcDbXrecord
280
     1
102
SHADEPLOT
 70
     0
102
SHADEPLOTRESLEVEL
 70
     2
102
SHADEPLOTCUSTOMDPI
 70
   300
  0
XRECORD
  5
2AC
102
{ACAD_REACTORS
330
1A
102
}
330
1A
100
AcDbXrecord
280
     1
102
MATERIAL
148
0.0
149
0.0
149
0.0
 93
        0
 94
      127
282
     0
 72
     0
 77
     0
171
     0
175
     0
179
     0
273
     0
  0
XRECORD
  5
1C
102
{ACAD_REACTORS
330
1A
102
}
330
1A
100
AcDbXrecord
280
     1
270
     1
271
     1
  0
XRECORD
  5
1B
102
{ACAD_REACTORS
330
1A
102
}
330
1A
100
AcDbXrecord
280
     1
270
     1
271
     1
  0
XRECORD
  5
1F
102
{ACAD_REACTORS
330
1A
102
}
330
1A
100
AcDbXrecord
280
     1
270
     1
271
     1
  0
XRECORD
  5
1E
102
{ACAD_REACTORS
330
1A
102
}
330
1A
100
AcDbXrecord
280
     1
270
     1
271
     1
  0
XRECORD
  5
20
102
{ACAD_REACTORS
330
1A
102
}
330
1A
100
AcDbXrecord
280
     1
270
     1
271
     1
  0
XRECORD
  5
1D
102
{ACAD_REACTORS
330
1A
102
}
330
1A
100
AcDbXrecord
280
     1
270
     1
271
     1
  0
XRECORD
  5
2AB
102
{ACAD_REACTORS
330
12
102
}
330
12
100
AcDbXrecord
280
     1
102
MATERIAL
148
0.0
149
0.0
149
0.0
 93
        0
 94
      127
282
     0
 72
     0
 77
     0
171
     0
175
     0
179
     0
273
     0
  0
XRECORD
  5
14
102
{ACAD_REACTORS
330
12
102
}
330
12
100
AcDbXrecord
280
     1
270
     1
271
     1
  0
XRECORD
  5
13
102
{ACAD_REACTORS
330
12
102
}
330
12
100
AcDbXrecord
280
     1
270
     1
271
     1
  0
XRECORD
  5
17
102
{ACAD_REACTORS
330
12
102
}
330
12
100
AcDbXrecord
280
     1
270
     1
271
     1
  0
XRECORD
  5
16
102
{ACAD_REACTORS
330
12
102
}
330
12
100
AcDbXrecord
280
     1
270
     1
271
     1
  0
XRECORD
  5
18
102
{ACAD_REACTORS
330
12
102
}
330
12
100
AcDbXrecord
280
     1
270
     1
271
     1
  0
XRECORD
  5
15
102
{ACAD_REACTORS
330
12
102
}
330
12
100
AcDbXrecord
280
     1
270
     1
271
     1
  0
XRECORD
  5
2AD
102
{ACAD_REACTORS
330
22
102
}
330
22
100
AcDbXrecord
280
     1
102
MATERIAL
148
0.0
149
0.0
149
0.0
 93
        0
 94
      127
282
     0
 72
     0
 77
     0
171
     0
175
     0
179
     0
273
     0
  0
XRECORD
  5
24
102
{ACAD_REACTORS
330
22
102
}
330
22
100
AcDbXrecord
280
     1
270
     1
271
     1
  0
XRECORD
  5
23
102
{ACAD_REACTORS
330
22
102
}
330
22
100
AcDbXrecord
280
     1
270
     1
271
     1
  0
XRECORD
  5
246
102
{ACAD_REACTORS
330
22
102
}
330
22
100
AcDbXrecord
280
     1
 70
     1
 90
1959938040
 71
     1
  1
13FA443E-730E-491E-AA59-2287F658593D
311
504B03040A00000800002F4B8C403DEE336E79000000790000001B0000006175746F6465736B2D64657369676E2D7061636B6167652E786D6C3C3F786D6C2076657273696F6E3D22312E302220656E636F64696E673D227574662D3822203F3E3C666F726D6174733E3C666F726D61743E687474703A2F2F736368656D612E
311
6175746F6465736B2E636F6D2F64657369676E2D7061636B6167652F323030393C2F666F726D61743E3C2F666F726D6174733E504B03041400060808002F4B8C40D486FD9CA0000000F4000000130000005B436F6E74656E745F54797065735D2E786D6C7D8EC10E82300C865F65E91D8A1E8C310C0EEA1BF002731658846E
311
D98AC1B77784ABF1D8FE5FBFBF75BBCE937A534CCEB38643598122B6FEE978D0B0485F9C41B54DDD7D022595594E1A469170414C76A4D9A4D207E29CF43ECE46F218070CC6BECC4078ACAA135ACF422C856C0E68EA1BF5669944DDD7BCDE7B1F8E415D77AECB980613C2E4AC91FC167A2B244592486606FC29C8FD7F045B9A
311
EF7053A7E60B504B03041400060808002F4B8C409F556216EA0000007C01000008000000636F72652E786D6C8D904D6E83301085AF62CDDEE01FA001194729554ED00B58C62156828DB05DF5F8350991DA5D57337AF3BE99D113C7EFF98EBECC1AAC773DD08200324EFBD1BAA987142FF800E828C5EA7DFC6503E4D46C7AD8
311
6490625A7D5A76497B178D8B59757E34BBA842301190BEE7A687A0AF6656854A313BC2AD5894BEA9C914F4D56538253BA2E7113BE67DF662CD0A72E0675E1FD83BAE69CB71D59E077CAA2B86DF68F5D170D6F0819D44B9C152443BBFEEEBD5A86846908C5086498529FB246DC7EA8E534C9A8E10516EF63F505AC67F42C9BA
311
C8D9FEEE130B20697EE43190A2DCB2C8E51154AE5B6EF207504B03041400060808002F4B8C4055019EA25F0000007C00000007000000636E782E786D6C4DCB3B0E80201045D1AD90E915ED2CF8AC45050C11660C8261F98AB1B07AC9C97D42D718D865D3E909258CFD00CCE24AC6E326A164D74DC0B4128928FF326038472B
311
A13128B1252AC747C6BAB984FC68F0B87FE8960A5C09FE86CFB69FBA01504B03041400060808002F4B8C4096036CDE66010000020300000C0000006662782F636F72652E786D6C8D52ED8E8230107C95A6FF4BA180A7A6D4785E7C827B810A956B84969496F8F8B77C18CF8B3186A434333BBBB3037C776D1B3428D76B6B0A
311
9C443146CA94B6D2A62E70F067B2C66827B8B3D6FF29C3C8C856157884B1E0B5B3A15BA0D21AAF8C07D4D84A2DA0EC7BE5312A1BB814B82F7F542B23193C54F497A893E545D62A4A22A0A14EF0DE3B3080E621E389C5F974E574C6050F41570BAB2B98A6CF5A392C0EE931CDD7EC93E4C92625D9E67820FB3C63E423C9BE56
311
295BA507B6E774140BEE757B73573A25BDAAB06071C2489C91847DC79B2DCBB76942E2D5368E391DCB1F44A1ABDE14056D7CCA16BBB3ACC722012313F16F5B88C8A35E0EE0870A4EC710E13525FC18340402217B796A6E7B5C001A54E9ADCB80A96CB853836C8282A9319A1E4E67163A4F0D60B3A77DD88B3EAF7BC00794A6
311
066BD2C3F514FC389DCF5397283AE5C8E0AFC858D7CAE66E6EB6783FEF839ECA4BDB58F78E9A2EABD2254C3AFEBDE217504B03041400060808002F4B8C4078836E157D0000009D0000000B0000006662782F636E782E786D6C4DCC410E83201404D0AB90BFA762A08D0BC0A0E03D4C45438AD050687AFC62E3A2AB99BC4C86
311
F79FDDA3B74D2F178380F64200D9708F8B0B9B809257DC01EA254F31E6BF19A030EF56C0C120F99662799EB4D8752E3E57F52E3C4E647434FAAA281ECC3460A66A533742306B273612DDB5866A68246F7E4F358F63F905504B03041400060808002F4B8C405B6BBFF02B01000015020000310000006662782F343343454435
311
41332D424546422D344141332D413630302D3431463443304438314533442F636F72652E786D6C8D51CB6EC32010FC15C4293D60838DDD24C244797E417F8000495062B07854F9FCE2DA91DA5B2E2C9A9D991DEDB2CDB37F806FED8371B683A4C010682B9D32F6DAC1142F6809C18633EF5CFC4383C08A5E777084216757EF
311
D23043D2D9A86DCCA8754ACFA008414708E4237F3A18E44DF7A210296646B81783907771D50529723BF3380BD1E700601A32BE90D37A7F3C34DB1AED8EA71DA2DBFCDBB618234A4E748F0F4B72AC0FAC9C849CA564D42C372AC73117A3FDBB26A398B368FA577CE9B5885A415E6152214C11A9BEF06A5D35EB9A20DCAE3166
311
E548FF274A837A53948C8D7535C79D640172C2CAA9C19972E9FC7885D1CFC1F908C6798BA0E507E4B8C0F8B3A9AB66B564E5C4CD1BC8A62D9D4D43743E6F78713F673A6926E79672568E47CAE5F782B98E07E53F504B03041400060808002F4B8C40522C48F64D01000033030000300000006662782F34334345443541332D
311
424546422D344141332D413630302D3431463443304438314533442F636E782E786D6CD593BD6E032110845F05D1DFAF2F566271584A912748919683B54DCCC1899F287EFB2C3676DCB84899069D668799D5278E6DBF6743BEC007EDEC48BBBAA504AC744ADBFD4853DC55CF946C39F3CEC53B1B2556CC30D22C53CEF6DEA5
311
A5480A76229988AAD1F658440FC1252F21A09C6F12E3A4301800B64A28C23C8152A0C8CD885F3BF0B80A8AD389C40390B7D70FE2A64F9031B026A770D6E40ECEF2599AEE4C944823421869900798452D52740AC2B156228ABAABAF5D0F76FA4D22F9C2B532794D72F948F34979D9A8468EACC12167217AA4574CF1B400E562
311
598C962222E4E66CBC78384BDAC6F550BC1AC17B7477EBD53060D879C659D4331487F4202228CAFBB6EBAB76A8BAFEBD7DD9F44F9B5557B5EB4DDBB226DB399B9C33E512C680770B91CE46B091F28E3579FC085FF111A53DB276FEF4079008A0B45EE8DC32FE339FE6FCBE1197C7BF80FF00504B03041400060808002F4B8C
311
40F4D682E9A305000080100000340000006662782F34334345443541332D424546422D344141332D413630302D3431463443304438314533442F6F626A656374732E786D6CAD57DB6EDB3810FD1541FBB2FBE08B6C274D168A0AC74E0AA3485BD468B10F060C4AA2146E285120A9C4D9AFDF43899225D74EBD8BBE5816351C
311
CE9C3973A1FF7E9771E7994AC5447EE37AC3B1EBD03C1231CBD31BB7D4C9E0CA75DE07BE144277C45C272719BD71CDB21BF8A914656197629A9092EB83D5FBDBBF1C15D19CBA4EC4895237AE8A1E694686A4D422A6EA6918134D8669B21B7AC35AB0AF3695A4783C505A1049730D4BB19E438B531BE5F55FC7EE28F047E67B
311
E09B5F2B353D2D35AAFCE99FCF72A5491EFD70D8819AA9375BDE4D2EAE0717B3D97430BB9C7883DBFBDBE5C07B371D2F2E178BEBF9DD350E565A4293B544D2C40D3E001BC9227F547F0AFC92E57A3AB122364023499F9989941B4C1CCF1FD532AD77D6C963E64722CF69546105342AFFACEA9816348F117346152CEB2034EE
311
BF7A06C7CEE7A979B7477697CF43A0BBA3A3A8B1BD79762D15E1DF70419DC320A9A861608DA575B4E6EA788F702804B7DF987232A2A964843B9C8592C8573780A81109FC9E1AC36469B2C178E0068842FDB94F17A4D1CF797ECCCAA4E4DCD0D80DAA2CD82257A8569565EC1F2AF7D67791814D889561C3957548BF16D40DAE
311
6B8A5C1DB0A906D24938491172B869764E27078E2E4C9EAE966EF0F13EDCAD4DEE1E3FBC90A2A0521BFA805A4DE09AA741C9DAE49D1539B3C13D30650FCA5720FF09A9BE370571936C37DBCDEC295A925C254266888D33760663FC8C1DAFFA35FF3BFFFC51BBB91FBD537822D806AA5F8067DF876E2C3B7006FE33082FE4D4
311
BAB68E0847D978603900322471B8C012EA7012EEDC60852A87AA8C5D84071E5C86B9CFF8EB8FAC1A148AEAA4CE3307960765F18C020DD82A46C28C9AFCD6C07D9C7E2867D5C156EC14BC17BF84AEF3E5FAE3BA940989E883CDE9254D58CE345ADC9E375D837A98F73C7AA2AF2F42C670F447BCD75DBC337B9402DA0673037C
311
DAD474F3B23FB97740847DA930E5C6FFC90970C234D68EFE07A622CA39C9A9289B73DFEC1F681B35C426D90D93DB06B36F2C204DFDE52007D1A423C90A0362DBADDAA2393CE1DDB7D5273012F25C8484EF85C27DE98D0417721BBE6EEBAA7414E9EF7D6A5B0846460BD85EE54893FE16F36DCC92A454A8814760FDBE5A7443
311
67AA022A44A3B54E9619DC476E116939DBE845B396048D54E45B86B689B43B7A40573F10B504A8149EB258519E6C19E765B64D184733DA66A43801C7FFB73F2CB3624B3251E6FA84EE9EE9680E7DDB7BE4552F44478F6EB0AE9E835B94DE98C6FB30F7844D2B3982553FB4D3FB3906A7BB01C6A5BBC1ECDABB1BCCE798A626
311
93AB77F797175717D7D36513A75A79E0379DA69BD088123A9B5F4A66C3F76D85F4B135C00D1E88569B0F757636CF6FAB2146617F843D6897EDC679FC8CB18FC63F57B0973CAA6895159C6634D7C4A4D083F9C3BF128C193D63EAF55546527A8696CF1FD607CE60E58C7D5F4CBAD39783BD76756112F2A812FD5866614E183F
311
D898D6480E8B3CB5F83531699F759F695ECD9B0D0C065325388B51066327A522A31AC5F08C1E2433AA40BDEE481FDBABC719BB9FEB01519390D3C692478219992BA405A85546BABFEEFC8699CE8C55372EBAEDF0093FB652B80E3873E36246D72CA26A18A23F9B49A8520E2E750779CCFD244F3946ED7A53FBDEEE32D8F43A
311
722B72CEF864FDAA2BB8750065A4C0D8807908D1A98C09FCCA36FB3DFA4F8E37E63844E36F58EAD697FD42EB4C750C52B476CA5E1630C33CD9A37748D4B7DDF286954C0F91B32E596F92A0D63AD044A6D545C1D8674D9A2FBF8C30A038ABCF4EC1CB14B13C5FD3405290B934090E16811556674134A8BAF873F3450A5C6433
311
E79E8102CEEFBBABCB3F360B916522AF9736737B1D76D68FB8DCC61B14076A6E256A33197B934D751BB017946D48141D92583D61019195AC05BA177EF0B2BE32A20FD51F5AB99109C50143574BC736B619945ABA746BAB010773474E1DE490B9519A8CE90A146F5E084695284C9018E5837F01504B03041400060800002F4B
311
8C40000000000000000000000000350000006662782F34334345443541332D424546422D344141332D413630302D3431463443304438314533442F76657274696365732E62696E504B03041400060808002F4B8C40F270F1330600000004000000360000006662782F34334345443541332D424546422D344141332D413630
311
302D3431463443304438314533442F747269616E676C65732E62696E636660600000504B03041400060800002F4B8C40000000000000000000000000370000006662782F34334345443541332D424546422D344141332D413630302D3431463443304438314533442F617474726962757465732E62696E504B030414000608
311
08002F4B8C40D5987DFC8F00000041010000360000006662782F34334345443541332D424546422D344141332D413630302D3431463443304438314533442F6469726563746F72792E786D6C858F410EC2201045AF4266AF15DDB800BA74E7C21B903225242D6328188F2FA5C4183471359997F9FF81E89FF3C41E1816475E
311
02DF1F80A11FC8386F25A438EECEC07A250251FC3803E6F58C12560C4AD840E95E91C151A72936F496F35732D860FE635F62C8F2DA16B505C545B74125BAA2FA9E05D7CC053D063734D5C7665FD55B6B8D15D5E9BFEAFD8490FFA45E504B03041400060808002F4B8C40F7BF3F27FC000000A00100003B0000006662782F34
311
334345443541332D424546422D344141332D413630302D3431463443304438314533442F7265736F75726365732F636F72652E786D6C8D50596AC33010BD8A997FD95A6C3731B24270C9097A01214F1291580A5A4A8F5F3971A1FDEBCFCCF016E6F1E4E16BB9579F18A2F56E045653A8D0193F5B771921A733D94175503278
311
9F7EC9A0727AC111561894BC049F1F1B64BC4BE852419D9F7103758C98A032F7728C10CD15175DEB9C8A22DEEA8736377DC19AD5852E3A25630A2540F57AB24E5001A3CFC16094CD8B5532673B6F1A3B979FF66C31809AC449743B7E241DDB0BD2EE4F1339762D276FAC7DEF05EFC5C48FB259CD4A26BBFC64340175C21914
311
A78C13DA12C63FE87EE0DD2018A1FD40A96C56F91F537ECCFF3465EB92E05BDC972D826225C89350B259FB2AEB5966D96BB7EA1B504B010214000A00000800002F4B8C403DEE336E79000000790000001B00000000000000000000000000000000006175746F6465736B2D64657369676E2D7061636B6167652E786D6C504B
311
010214001400060808002F4B8C40D486FD9CA0000000F40000001300000000000000000000000000B20000005B436F6E74656E745F54797065735D2E786D6C504B010214001400060808002F4B8C409F556216EA0000007C010000080000000000000000000000000083010000636F72652E786D6C504B0102140014000608
311
08002F4B8C4055019EA25F0000007C000000070000000000000000000000000093020000636E782E786D6C504B010214001400060808002F4B8C4096036CDE66010000020300000C00000000000000000000000000170300006662782F636F72652E786D6C504B010214001400060808002F4B8C4078836E157D0000009D00
311
00000B00000000000000000000000000A70400006662782F636E782E786D6C504B010214001400060808002F4B8C405B6BBFF02B0100001502000031000000000000000000000000004D0500006662782F34334345443541332D424546422D344141332D413630302D3431463443304438314533442F636F72652E786D6C50
311
4B010214001400060808002F4B8C40522C48F64D010000330300003000000000000000000000000000C70600006662782F34334345443541332D424546422D344141332D413630302D3431463443304438314533442F636E782E786D6C504B010214001400060808002F4B8C40F4D682E9A305000080100000340000000000
311
0000000000000000620800006662782F34334345443541332D424546422D344141332D413630302D3431463443304438314533442F6F626A656374732E786D6C504B010214001400060800002F4B8C400000000000000000000000003500000000000000000000000000570E00006662782F34334345443541332D42454642
311
2D344141332D413630302D3431463443304438314533442F76657274696365732E62696E504B010214001400060808002F4B8C40F270F13306000000040000003600000000000000000000000000AA0E00006662782F34334345443541332D424546422D344141332D413630302D3431463443304438314533442F74726961
311
6E676C65732E62696E504B010214001400060800002F4B8C400000000000000000000000003700000000000000000000000000040F00006662782F34334345443541332D424546422D344141332D413630302D3431463443304438314533442F617474726962757465732E62696E504B010214001400060808002F4B8C40D5
311
987DFC8F000000410100003600000000000000000000000000590F00006662782F34334345443541332D424546422D344141332D413630302D3431463443304438314533442F6469726563746F72792E786D6C504B010214001400060808002F4B8C40F7BF3F27FC000000A00100003B000000000000000000000000003C10
311
00006662782F34334345443541332D424546422D344141332D413630302D3431463443304438314533442F7265736F75726365732F636F72652E786D6C504B0506000000000E000E0080040000911100000000
310
504B03040A00000800002F4B8C403DEE336E79000000790000001B0000006175746F6465736B2D64657369676E2D7061636B6167652E786D6C3C3F786D6C2076657273696F6E3D22312E302220656E636F64696E673D227574662D3822203F3E3C666F726D6174733E3C666F726D61743E687474703A2F2F736368656D612E
310
6175746F6465736B2E636F6D2F64657369676E2D7061636B6167652F323030393C2F666F726D61743E3C2F666F726D6174733E504B03041400060808002F4B8C40D486FD9CA0000000F4000000130000005B436F6E74656E745F54797065735D2E786D6C7D8EC10E82300C865F65E91D8A1E8C310C0EEA1BF002731658846E
310
D98AC1B77784ABF1D8FE5FBFBF75BBCE937A534CCEB38643598122B6FEE978D0B0485F9C41B54DDD7D022595594E1A469170414C76A4D9A4D207E29CF43ECE46F218070CC6BECC4078ACAA135ACF422C856C0E68EA1BF5669944DDD7BCDE7B1F8E415D77AECB980613C2E4AC91FC167A2B244592486606FC29C8FD7F045B9A
310
EF7053A7E60B504B03041400060808002F4B8C40F0307024EB0000007C01000008000000636F72652E786D6C8D90416EC3201045AF82668F0D38756A0B13B98973825E0001715062B00C543D7E71E248EDAEAB19FDF96F66F4F9E17BBAA32FB304EB5D07B420808C535E5B377690E205BF033A08BE781F7FD9003939990E56
310
19041F179FE64D52DE45E362569DD766136508260252F7DC7410D4D54CB290296647B815B35437399A82BEBA0CA764357A1EB13AEFB3176B1610F530507A3E36F858D535DE9DFA1E37CD798F3FEA533354673634FB9E972B2C78B4D3EBBE5A8C8C46836084324C7698B24FD2B4ECADAD2826754B082F57FB1F28CDFA9F50B2
310
2E566C7BF7890510343FF218085EAE59E4F2082AD73537F103504B03041400060808002F4B8C4055019EA25F0000007C00000007000000636E782E786D6C4DCB3B0E80201045D1AD90E915ED2CF8AC45050C11660C8261F98AB1B07AC9C97D42D718D865D3E909258CFD00CCE24AC6E326A164D74DC0B4128928FF32603847
310
2BA13128B1252AC747C6BAB984FC68F0B87FE8960A5C09FE86CFB69FBA01504B03041400060808002F4B8C407EE56B8167010000020300000C0000006662782F636F72652E786D6C8D52ED8E8230107C95A6FF4BF9F0F030A5C6537C827B810A956B84969496F8F8B77C18CF8B3186A434333BBBB3036C7B6D1B3448DB2BA3
310
731C0521465297A652BACEB17767F289D196336B8CFB53869116ADCCF10863CE6A6B7CB740A5D14E6A07A836955C40D1F7D261543670C9715FFEC85604C23BA8E82F4127CA8BA865100540431D67BDB36000CD43C613F3F3E9CAE88C73E6BDAA165655304D9D95B498A7451145C77D46F6499A92D561B72359765C93AFF490
310
15C9312EB2F58ED151CC9953EDCD5D69A570B2C23C0EA398842B12C5DF61B6893F364944C27413868C8EE50F22DF556F8ABCD22E8917BBB3ACC73C022313F16F5B88C8A15E0CE0877246C710E13525FC18340402213B716A6E7B5C001A64E98C5D0153197FA706D178095343343D8CCE2C749E1AC0664FFBC42FFABCEE011F
310
50E81AAC0907D79377E374364F5DA2E8A42583BB226D6C2B9ABBB9D9E2FDBC0F7A2A2F4D63EC3B6ABAAC4A9730E9F8F7F25F504B03041400060808002F4B8C401871EBC67D0000009D0000000B0000006662782F636E782E786D6C4DCCD10AC2201886E15B91FFDCB65F1314D4518BDDC7686E484EC334BAFCB6D841471F3C
310
7CBCBAFBAC81BC5D7EF9140DE0A905E2E23D4D3E2E066A99A904D2599D532A7F3720715C9D819DC1EA25A7FA3C6872F35843D934F8F83850F5524AA106CAAF8AD133E3482F285ACA6F9CA94120622FA1B1BAF995B6DDC3F60B504B03041400060808002F4B8C405454D18C2B01000015020000310000006662782F39433838
310
383539462D334239322D343233312D413135302D3344333239463531313143382F636F72652E786D6C8D51CB6E833010FC15CBA7F400F8012944C6519B2A5FD01F20C649AD041BF951E5F3BB2E446A6FB978ADD999D9D1AED8DFA71BFAD63E18677B4C4B8291B6CA8DC65E7A9CE2B96831DA4BE19D8B7F6818D961D23DCE30
310
96E2E25D9A5748391BB58D805A37EA151C42D0112375834F8F83FAD2D3500E2902235CCB7950D7E1A24B5A421B785284E821005A86E417CBEED0B66DD31D0BFEDEB1A2669C166FB42105FFE0AC3B3694D2432BAA4528454A665CE5668438E66CB47FD6248BA588667AC4575E0F518F5832425941EA82B24FD2ED58B3831464
310
BB23445499FE4F94E6F14951323672B6C65D64014B2AAAA521C5E8D2E9F608A3EFB3F311E5799BA0D50B96A424E4B5EB186F1B512D5CD800986EEBD53444E761C39BEB09E87C75DED65254F948507E2F08351F54FE00504B03041400060808002F4B8C40348B87E15401000033030000300000006662782F39433838383539
310
462D334239322D343233312D413135302D3344333239463531313143382F636E782E786D6CBD93CD6EC32010845F0571F76F5C2B8D30917AE813F4D02B864D4283C1025C356FDF2521692E3954AA7A41D6EC30B3FA84D9F66B32E4137CD0CE0EB4296B4AC04AA7B4DD0F7489BB624DC99633EF5CBCB35162C504034D32E56C
310
EFDD326749C14E2C26A26AB43D66D143708B9710504E37897152180C005B2C28C2348252A0C8CD885F3BF0B80A8AE389C40390D79777E2C60F9031B02AA57056A50ECED2999BEE4C944823421868900798442996E8148463A9441465535EBB1EECF49344D2856BE5E23549E5034D27E579A31239B20A879C85E8915E36C5D3
310
0C948B79365A8A8890ABB3F1E2E16CD136F65DF66A04EFD1BD6AFBF51AC3CE33CEA29E203BA407114151DED64D5BD45DD1B46FF5F3A67DDAAC9AA2EE3775CDAA64E76C74CEE44B1803DECD443A1BC146CA1B56A5F1237CD94794F6C8DAF9D32F402280DC7AA173CBF84B3E4DBFEABA7FE4539DDF37E2F2F817F06F504B0304
310
1400060808002F4B8C40719C6C7F60070000991B0000340000006662782F39433838383539462D334239322D343233312D413135302D3344333239463531313143382F6F626A656374732E786D6CED595B73A33614FE2B0C7D691F8C8DED64930EA193FB7876B2BBB3EEEEF4C1338C0C325123042389C4E9AFEFD1050CC424
310
B89BBEED830D08E9E89CEF5C7508FED866D479C45C909C9DB9BE37711DCCE23C212C3D734BB9199DB8CE1F61C0F35C36A6B90E43193E73D5B01B0629CFCBC20E2578834A2A3BA337177F3922C60CBB4E4C911067AE88EF71863C54CA3CC1E2C14B90445EBAD97ABE6726B6C9A61C15F71DA205E29849E014C61950710C537E
310
FB71E28EC360ACDE8781FAB7B3668366CDFB678DB5D46D2E091312B1F8054B1D32B3412CCDFCF9D5F5F4E87474349FCF46F3E3A93FBAB8B9B81AF91F6693CBE3CBCBD3F3EB53606F9DE7D4CA94E002B304F4F7EC867E30566F6AD12D02FBB88E73C670AC8104A8B4585D82040BD8AA01DFA4FDE82B891AAFB5848DE7B97A6F
310
59680CCFDA54FA660D03A2451704B1DB551257D7A67CF9FA6F105C0C314A2EB0046E85E4A05D0B0F07AF70C3493036A361B0DEE982082743127382A843C99A230E4A81A96A4A189805968C720E0EA41C2581D69C79DDB62DF0CCB75D671F979B9252E5196EA81D2B02F7C35268CEC83F98EFB86F22033C81B42561F2C47229
310
9F0BEC86A7C1580F8681BACCA6F6A501D2D950940A8D8879DB11F452B9FEE2CA0D3FDEACB74B150EF66F5EF0BCC05C2AA3537AD47C8121DBAB42C96EEB0FD29C5A00C21850EDCA1D285F01F94F103D76AC80DE38D9CEB7733B5772C4C426E719E8C69938A309FC4D1C5FFFABFBC65D30AE17B7B5D78727B8A982EAE4C7F16C
310
CBA0B1B2FC37E00C834730F89CCFECAB658C28D8F31D610090321287E63004A17DB3DEBAE1020227047A588568E883C8C0EE23DC06634B66A795CABDACD73140D4EE311BA224804D5B24B0D1A3A75BC81E9CC43B353545EC83F7E85DCCF5FC6AF97159F20D8AF19DF5E92BBC218C48C89AFB196A61DE92E8013F3FE53C0141
310
5FE2BD6CE29DD9AD04A0AD3057C0A71508EA61B7736B8318D6A5B90A37C11B3B80102A5737E8DF1111634A11C37959ED5B473765A8B5C7DB9AC10DA706E2D9B463C21C3F12555580D3EC66B41885BC1F73522810DDF0D64856074DAF47BA6F8B4F6091F5FC9E590B06A19721FAA70E5A7B7068597685B405A21678BD0BE771
310
4E731EAD9F2313E95CA825808DB6B77C6F1185586F94A4A8800769BFAB424A6AA48D12B2D99402E2EA1E16BF2F2E9BE630F166FE91D3FCEF38E31CA22DF82EE2D6EF3A7B442443298E3628E9DBAEB95B4D5B68923DA439DE50908B3C12F91C21194D129C1E02CD41C44FDF957A4A732108C302F2D55EF09B684C3C0824469B
310
15CB4AAB1DA08988322C113D040145A6075C9D76748D1B43E9F0368FB5F5BEA6B126D1FFC92238825A32671181521472C89B8CFBDE11C49036BA06E50EBE606D156D2D062DA184889FA3274CD27B7908EA867C0FEE311C494A19E5058AC1AC07907DE12B4AA91DDED7287E50F9238A4BFA5E062230DD4484D2328BE047189C
310
3C86B8761D985E45A141DCC43E893328CA902CF9904D8E8F262FF631354337043636DA100A613BCA50D1837A2B20EA7AC4A9C1B7D47B94BA2EB32242595EB24186E2CDBADE64C977D5AAC80EE457958A503656842DC130204CD659B58AD960EA3AB0821BE940F51C099415D49CC2DE483C7EED4D9A72EF06DCFAE9FB6E9041
310
E1D7A3BD66449D5730581E5B8581784232BE77C3A5BE8E2EA0FE4E70B24BF555ADD9AC00013115C94B4EAC8ABE2DA0BCB1359A1BDE212956B726EB56D76F0B0FBA1FC118D640ED522F5C28A033CC245295C99DBAA15F1184E0160D33BE5039F5102AE749A2AB46446F489F3A5B65446BD38C78C53D6679063FB6222CA66582
310
5728110FD19DA4D19228D6AD945E462A8C5F15F0F3EDB2030F8C0C10E98B2AF0F05367AD1DBD54E5D25E22F2BECCD60C1108822DD152A31BAF60A9D548A5E5FAAACE14507781815915CF7F9E2C9AED889F278BD41AC68F9D2C68BE4674176D1AD93C56667DD029A04E4F8ACA7B9C0274D7A1A65A271193CBADF8D697228889
310
55901F5C8C5531C310ECE3F83F27EDBE2468B6EBF07F58D2F65F141C072595D664D5A4DA53B82E9A29CC9FDD9C4367F67A04FDD8EBD1FCD4BF1E9D9F43BB763A3DF970737C7472743ABBAAD1D47E1A06752CD3A90B9E4D4CAB86D593C5009AB222A72481C37CE2A41842BE8423FD80EE39CFB080DCD9EC7527B6273F60F5A3
310
69734AB4A6B8E2E41E417F980AC8EA805119CBF6B8F30B7426259CB3CF5CE819790FF067ADD27520F19CB9D0299024C6C25B439749F5F33471C8B83AF55B62800F62A9CA886651FD5CAF52D8B4A27F3D654816B072B55A1850B715D0FC6A3528346F96A7F820C12B761C24E1765D4A28D68C2CBB815A18BDCD4EFD46364AD8
310
83DD7A0BAEFBBA58BEA7E7B41019F4C5E0552330544712F154B7BB156396A5F3AB2F6368B3398BCF4E41CB1474399CD2886330E652D553604560159666812498EAE5EFAB2F3C872F3C99A38B22E7D7EDC9F16FABCB3CCB72668656E770284BE03B91B3BC87AF3EC90A6A07AC7AEB62359DF8D395EE69DB367BB446027BAA28
310
8281AA965082744C0EECF2457FCA762FC74A159DE98B2BC70651E805183B7AD1E235DFB81CF021F53545798CF6F34ADA57DBDA633D156C8243433AFC17504B03041400060800002F4B8C40000000000000000000000000350000006662782F39433838383539462D334239322D343233312D413135302D3344333239463531
310
313143382F76657274696365732E62696E504B03041400060808002F4B8C40F270F1330600000004000000360000006662782F39433838383539462D334239322D343233312D413135302D3344333239463531313143382F747269616E676C65732E62696E636660600000504B03041400060800002F4B8C40000000000000
310
000000000000370000006662782F39433838383539462D334239322D343233312D413135302D3344333239463531313143382F617474726962757465732E62696E504B03041400060808002F4B8C40D5987DFC8F00000041010000360000006662782F39433838383539462D334239322D343233312D413135302D33443332
310
39463531313143382F6469726563746F72792E786D6C858F410EC2201045AF4266AF15DDB800BA74E7C21B903225242D6328188F2FA5C4183471359997F9FF81E89FF3C41E1816475E02DF1F80A11FC8386F25A438EECEC07A250251FC3803E6F58C12560C4AD840E95E91C151A72936F496F35732D860FE635F62C8F2DA16
310
B505C545B74125BAA2FA9E05D7CC053D063734D5C7665FD55B6B8D15D5E9BFEAFD8490FFA45E504B03041400060808002F4B8C40E39B5EBCFE000000A00100003B0000006662782F39433838383539462D334239322D343233312D413135302D3344333239463531313143382F7265736F75726365732F636F72652E786D6C
310
8D504B6EC23010BD4A347B27B64303891C230AE104BD80E50CC182D8C89FAAC7AF03A9D4EEBA9919BD8FE6E989FDD77C2F3ED107E36C0FACA450A0D56E3476EA21C50BD941B197C23B177FC9A0B06AC61E1618A498BC4B8F15D2CE46B431A3D68DB8822A048C50E87B3E7A08FA8AB32A558A59116EE543E99B9AB06465A6B3
310
4E8A107D0E50BC9E2C13A4C7E092D71844F562A548C98CABC68CF9A7B918F4209B6160EC7CDC9163DD3464733A1C48DB9EB7E4BD39B5437DE643BB3D886A314B11CDFC93517B541147909C324EE88630FE41DB8EBF753523B4E92815D522FF634A8FF19FA6646CACF91AF7650B20590EF224A4A896BEF27A9699F7D2ADFC06
310
504B010214000A00000800002F4B8C403DEE336E79000000790000001B00000000000000000000000000000000006175746F6465736B2D64657369676E2D7061636B6167652E786D6C504B010214001400060808002F4B8C40D486FD9CA0000000F40000001300000000000000000000000000B20000005B436F6E74656E74
310
5F54797065735D2E786D6C504B010214001400060808002F4B8C40F0307024EB0000007C010000080000000000000000000000000083010000636F72652E786D6C504B010214001400060808002F4B8C4055019EA25F0000007C000000070000000000000000000000000094020000636E782E786D6C504B01021400140006
310
0808002F4B8C407EE56B8167010000020300000C00000000000000000000000000180300006662782F636F72652E786D6C504B010214001400060808002F4B8C401871EBC67D0000009D0000000B00000000000000000000000000A90400006662782F636E782E786D6C504B010214001400060808002F4B8C405454D18C2B
310
0100001502000031000000000000000000000000004F0500006662782F39433838383539462D334239322D343233312D413135302D3344333239463531313143382F636F72652E786D6C504B010214001400060808002F4B8C40348B87E154010000330300003000000000000000000000000000C90600006662782F394338
310
38383539462D334239322D343233312D413135302D3344333239463531313143382F636E782E786D6C504B010214001400060808002F4B8C40719C6C7F60070000991B000034000000000000000000000000006B0800006662782F39433838383539462D334239322D343233312D413135302D334433323946353131314338
310
2F6F626A656374732E786D6C504B010214001400060800002F4B8C4000000000000000000000000035000000000000000000000000001D1000006662782F39433838383539462D334239322D343233312D413135302D3344333239463531313143382F76657274696365732E62696E504B010214001400060808002F4B8C40
310
F270F13306000000040000003600000000000000000000000000701000006662782F39433838383539462D334239322D343233312D413135302D3344333239463531313143382F747269616E676C65732E62696E504B010214001400060800002F4B8C400000000000000000000000003700000000000000000000000000CA
310
1000006662782F39433838383539462D334239322D343233312D413135302D3344333239463531313143382F617474726962757465732E62696E504B010214001400060808002F4B8C40D5987DFC8F0000004101000036000000000000000000000000001F1100006662782F39433838383539462D334239322D343233312D
310
413135302D3344333239463531313143382F6469726563746F72792E786D6C504B010214001400060808002F4B8C40E39B5EBCFE000000A00100003B00000000000000000000000000021200006662782F39433838383539462D334239322D343233312D413135302D3344333239463531313143382F7265736F7572636573
310
2F636F72652E786D6C504B0506000000000E000E0080040000591300000000
  0
XRECORD
  5
27
102
{ACAD_REACTORS
330
22
102
}
330
22
100
AcDbXrecord
280
     1
270
     1
271
     1
  0
XRECORD
  5
26
102
{ACAD_REACTORS
330
22
102
}
330
22
100
AcDbXrecord
280
     1
270
     1
271
     1
  0
XRECORD
  5
28
102
{ACAD_REACTORS
330
22
102
}
330
22
100
AcDbXrecord
280
     1
270
     1
271
     1
  0
XRECORD
  5
25
102
{ACAD_REACTORS
330
22
102
}
330
22
100
AcDbXrecord
280
     1
270
     1
271
     1
  0
XRECORD
  5
2E6
102
{ACAD_REACTORS
330
233
102
}
330
233
100
AcDbXrecord
280
     1
102
MATERIAL
148
0.0
149
0.0
149
0.0
 93
        0
 94
      127
282
     0
 72
     1
 77
     0
171
     1
175
     0
179
     1
273
     0
  0
XRECORD
  5
234
102
{ACAD_REACTORS
330
233
102
}
330
233
100
AcDbXrecord
280
     1
300
<Material id="RevitMaterialDefinition97641" app="REVIT" Background="0" Backlight="1" Sample="0" Tiling="0">^J<LinearUnits unitType="foot" unitScale="1.0"/>^J<ArchitecturalMaterial name="Aluminum - Kawneer - Clear">^J<ArchTemplateParameters name="Aluminum - K
300
awneer - Clear" classid_A="2008828122" classid_B="14503598">^J</ArchTemplateParameters>^J<ArchMatParameters>^J<ArchDiffuseColor>^J<RGBf r="0.8980" g="0.8980" b="0.8980"/>^J</ArchDiffuseColor>^J<ArchIndexOfRefraction>1.5000</ArchIndexOfRefraction>^J<ArchTranspare
300
ncy>0.0000</ArchTransparency>^J<ArchLuminance>0.0000</ArchLuminance>^J</ArchMatParameters>^J</ArchitecturalMaterial>^J</Material>^J
  0
CELLSTYLEMAP
  5
2A8
102
{ACAD_REACTORS
330
2A7
102
}
330
2A7
100
AcDbCellStyleMap
 90
        3
300
CELLSTYLE
  1
TABLEFORMAT_BEGIN
 90
        5
170
     1
 91
        0
 92
    32768
 62
   257
 93
        1
300
CONTENTFORMAT
  1
CONTENTFORMAT_BEGIN
 90
        0
 91
        0
 92
      512
 93
        0
300

 40
0.0
140
1.0
 94
        5
 62
     0
340
55
144
0.25
309
CONTENTFORMAT_END
171
     0
 94
        0
309
TABLEFORMAT_END
  1
CELLSTYLE_BEGIN
 90
        1
 91
        1
300
_TITLE
309
CELLSTYLE_END
300
CELLSTYLE
  1
TABLEFORMAT_BEGIN
 90
        5
170
     1
 91
        0
 92
        0
 62
   257
 93
        1
300
CONTENTFORMAT
  1
CONTENTFORMAT_BEGIN
 90
        0
 91
        0
 92
      512
 93
        0
300

 40
0.0
140
1.0
 94
        5
 62
     0
340
55
144
0.18
309
CONTENTFORMAT_END
171
     0
 94
        0
309
TABLEFORMAT_END
  1
CELLSTYLE_BEGIN
 90
        2
 91
        1
300
_HEADER
309
CELLSTYLE_END
300
CELLSTYLE
  1
TABLEFORMAT_BEGIN
 90
        5
170
     1
 91
        0
 92
        0
 62
   257
 93
        1
300
CONTENTFORMAT
  1
CONTENTFORMAT_BEGIN
 90
        0
 91
        0
 92
      512
 93
        0
300

 40
0.0
140
1.0
 94
        2
 62
     0
340
55
144
0.18
309
CONTENTFORMAT_END
171
     0
 94
        0
309
TABLEFORMAT_END
  1
CELLSTYLE_BEGIN
 90
        3
 91
        2
300
_DATA
309
CELLSTYLE_END
  0
XRECORD
  5
2DE
102
{ACAD_REACTORS
330
2A7
102
}
330
2A7
100
AcDbXrecord
280
     1
102
ACAD_ROUNDTRIP_PRE2007_TABLESTYLE
 90
      512
 91
        0
  1

 92
      512
 93
        0
  2

 94
      512
 95
        0
  3

  0
XRECORD
  5
2B9
102
{ACAD_REACTORS
330
2B8
102
}
330
2B8
100
AcDbXrecord
280
     1
102
RTVSPropertyOp0
 70
     1
102
RTVSPropertyOp1
 70
     1
102
RTVSPropertyOp2
 70
     1
102
RTVSPropertyOp3
 70
     1
102
RTVSPropertyOp4
 70
     1
102
RTVSPropertyOp5
 70
     1
102
RTVSPropertyOp6
 70
     1
102
RTVSPropertyOp7
 70
     1
102
RTVSPropertyOp8
 70
     1
102
RTVSPropertyOp9
 70
     1
102
RTVSPropertyOp10
 70
     1
102
RTVSPropertyOp11
 70
     1
102
RTVSPropertyOp12
 70
     1
102
RTVSPropertyOp13
 70
     1
102
RTVSPropertyOp14
 70
     1
102
RTVSPropertyOp15
 70
     1
102
RTVSPropertyOp16
 70
     1
102
RTVSPropertyOp17
 70
     1
102
RTVSPropertyOp18
 70
     1
102
RTVSPropertyOp19
 70
     1
102
RTVSPropertyOp20
 70
     1
102
RTVSPropertyOp21
 70
     1
102
RTVSPropertyOp22
 70
     1
102
RTVSPropertyOp23
 70
     1
102
RTVSPropertyOp24
 70
     1
102
RTVSPropertyOp25
 70
     1
102
RTVSPropertyOp26
 70
     1
102
RTVSPropertyOp27
 70
     1
102
RTVSPropertyOp28
 70
     1
102
RTVSPropertyOp29
 70
     1
102
RTVSPropertyOp30
 70
     1
102
RTVSPropertyOp31
 70
     1
102
RTVSPropertyOp32
 70
     1
  0
XRECORD
  5
2B7
102
{ACAD_REACTORS
330
2B6
102
}
330
2B6
100
AcDbXrecord
280
     1
102
RTVSPropertyOp0
 70
     1
102
RTVSPropertyOp1
 70
     1
102
RTVSPropertyOp2
 70
     1
102
RTVSPropertyOp3
 70
     1
102
RTVSPropertyOp4
 70
     1
102
RTVSPropertyOp5
 70
     1
102
RTVSPropertyOp6
 70
     1
102
RTVSPropertyOp7
 70
     1
102
RTVSPropertyOp8
 70
     1
102
RTVSPropertyOp9
 70
     1
102
RTVSPropertyOp10
 70
     1
102
RTVSPropertyOp11
 70
     1
102
RTVSPropertyOp12
 70
     1
102
RTVSPropertyOp13
 70
     1
102
RTVSPropertyOp14
 70
     1
102
RTVSPropertyOp15
 70
     1
102
RTVSPropertyOp16
 70
     1
102
RTVSPropertyOp17
 70
     1
102
RTVSPropertyOp18
 70
     1
102
RTVSPropertyOp19
 70
     1
102
RTVSPropertyOp20
 70
     1
102
RTVSPropertyOp21
 70
     1
102
RTVSPropertyOp22
 70
     1
102
RTVSPropertyOp23
 70
     1
102
RTVSPropertyOp24
 70
     1
102
RTVSPropertyOp25
 70
     1
102
RTVSPropertyOp26
 70
     1
102
RTVSPropertyOp27
 70
     1
102
RTVSPropertyOp28
 70
     1
102
RTVSPropertyOp29
 70
     1
102
RTVSPropertyOp30
 70
     1
102
RTVSPropertyOp31
 70
     1
102
RTVSPropertyOp32
 70
     1
  0
XRECORD
  5
2C5
102
{ACAD_REACTORS
330
2C4
102
}
330
2C4
100
AcDbXrecord
280
     1
102
RTVSPropertyOp0
 70
     1
102
RTVSPropertyOp1
 70
     1
102
RTVSPropertyOp2
 70
     1
102
RTVSPropertyOp3
 70
     1
102
RTVSPropertyOp4
 70
     1
102
RTVSPropertyOp5
 70
     1
102
RTVSPropertyOp6
 70
     1
102
RTVSPropertyOp7
 70
     1
102
RTVSPropertyOp8
 70
     1
102
RTVSPropertyOp9
 70
     1
102
RTVSPropertyOp10
 70
     1
102
RTVSPropertyOp11
 70
     1
102
RTVSPropertyOp12
 70
     1
102
RTVSPropertyOp13
 70
     1
102
RTVSPropertyOp14
 70
     1
102
RTVSPropertyOp15
 70
     1
102
RTVSPropertyOp16
 70
     1
102
RTVSPropertyOp17
 70
     1
102
RTVSPropertyOp18
 70
     1
102
RTVSPropertyOp19
 70
     1
102
RTVSPropertyOp20
 70
     1
102
RTVSPropertyOp21
 70
     1
102
RTVSPropertyOp22
 70
     1
102
RTVSPropertyOp23
 70
     1
102
RTVSPropertyOp24
 70
     1
102
RTVSPropertyOp25
 70
     1
102
RTVSPropertyOp26
 70
     1
102
RTVSPropertyOp27
 70
     1
102
RTVSPropertyOp28
 70
     1
102
RTVSPropertyOp29
 70
     1
102
RTVSPropertyOp30
 70
     1
102
RTVSPropertyOp31
 70
     1
102
RTVSPropertyOp32
 70
     1
  0
XRECORD
  5
2CD
102
{ACAD_REACTORS
330
2CC
102
}
330
2CC
100
AcDbXrecord
280
     1
102
RTVSPropertyOp0
 70
     1
102
RTVSPropertyOp1
 70
     1
102
RTVSPropertyOp2
 70
     1
102
RTVSPropertyOp3
 70
     1
102
RTVSPropertyOp4
 70
     1
102
RTVSPropertyOp5
 70
     1
102
RTVSPropertyOp6
 70
     1
102
RTVSPropertyOp7
 70
     1
102
RTVSPropertyOp8
 70
     1
102
RTVSPropertyOp9
 70
     1
102
RTVSPropertyOp10
 70
     1
102
RTVSPropertyOp11
 70
     1
102
RTVSPropertyOp12
 70
     1
102
RTVSPropertyOp13
 70
     1
102
RTVSPropertyOp14
 70
     1
102
RTVSPropertyOp15
 70
     1
102
RTVSPropertyOp16
 70
     1
102
RTVSPropertyOp17
 70
     1
102
RTVSPropertyOp18
 70
     1
102
RTVSPropertyOp19
 70
     1
102
RTVSPropertyOp20
 70
     1
102
RTVSPropertyOp21
 70
     1
102
RTVSPropertyOp22
 70
     1
102
RTVSPropertyOp23
 70
     1
102
RTVSPropertyOp24
 70
     1
102
RTVSPropertyOp25
 70
     1
102
RTVSPropertyOp26
 70
     1
102
RTVSPropertyOp27
 70
     1
102
RTVSPropertyOp28
 70
     1
102
RTVSPropertyOp29
 70
     1
102
RTVSPropertyOp30
 70
     1
102
RTVSPropertyOp31
 70
     1
102
RTVSPropertyOp32
 70
     1
  0
XRECORD
  5
2BF
102
{ACAD_REACTORS
330
2BE
102
}
330
2BE
100
AcDbXrecord
280
     1
102
RTVSPropertyOp0
 70
     1
102
RTVSPropertyOp1
 70
     1
102
RTVSPropertyOp2
 70
     1
102
RTVSPropertyOp3
 70
     1
102
RTVSPropertyOp4
 70
     1
102
RTVSPropertyOp5
 70
     1
102
RTVSPropertyOp6
 70
     1
102
RTVSPropertyOp7
 70
     1
102
RTVSPropertyOp8
 70
     1
102
RTVSPropertyOp9
 70
     1
102
RTVSPropertyOp10
 70
     1
102
RTVSPropertyOp11
 70
     1
102
RTVSPropertyOp12
 70
     1
102
RTVSPropertyOp13
 70
     1
102
RTVSPropertyOp14
 70
     1
102
RTVSPropertyOp15
 70
     1
102
RTVSPropertyOp16
 70
     1
102
RTVSPropertyOp17
 70
     1
102
RTVSPropertyOp18
 70
     1
102
RTVSPropertyOp19
 70
     1
102
RTVSPropertyOp20
 70
     1
102
RTVSPropertyOp21
 70
     1
102
RTVSPropertyOp22
 70
     1
102
RTVSPropertyOp23
 70
     1
102
RTVSPropertyOp24
 70
     1
102
RTVSPropertyOp25
 70
     1
102
RTVSPropertyOp26
 70
     1
102
RTVSPropertyOp27
 70
     1
102
RTVSPropertyOp28
 70
     1
102
RTVSPropertyOp29
 70
     1
102
RTVSPropertyOp30
 70
     1
102
RTVSPropertyOp31
 70
     1
102
RTVSPropertyOp32
 70
     1
  0
XRECORD
  5
2C3
102
{ACAD_REACTORS
330
2C2
102
}
330
2C2
100
AcDbXrecord
280
     1
102
RTVSPropertyOp0
 70
     1
102
RTVSPropertyOp1
 70
     1
102
RTVSPropertyOp2
 70
     1
102
RTVSPropertyOp3
 70
     1
102
RTVSPropertyOp4
 70
     1
102
RTVSPropertyOp5
 70
     1
102
RTVSPropertyOp6
 70
     1
102
RTVSPropertyOp7
 70
     1
102
RTVSPropertyOp8
 70
     1
102
RTVSPropertyOp9
 70
     1
102
RTVSPropertyOp10
 70
     1
102
RTVSPropertyOp11
 70
     1
102
RTVSPropertyOp12
 70
     1
102
RTVSPropertyOp13
 70
     1
102
RTVSPropertyOp14
 70
     1
102
RTVSPropertyOp15
 70
     1
102
RTVSPropertyOp16
 70
     1
102
RTVSPropertyOp17
 70
     1
102
RTVSPropertyOp18
 70
     1
102
RTVSPropertyOp19
 70
     1
102
RTVSPropertyOp20
 70
     1
102
RTVSPropertyOp21
 70
     1
102
RTVSPropertyOp22
 70
     1
102
RTVSPropertyOp23
 70
     1
102
RTVSPropertyOp24
 70
     1
102
RTVSPropertyOp25
 70
     1
102
RTVSPropertyOp26
 70
     1
102
RTVSPropertyOp27
 70
     1
102
RTVSPropertyOp28
 70
     1
102
RTVSPropertyOp29
 70
     1
102
RTVSPropertyOp30
 70
     1
102
RTVSPropertyOp31
 70
     1
102
RTVSPropertyOp32
 70
     1
  0
XRECORD
  5
2DD
102
{ACAD_REACTORS
330
2DC
102
}
330
2DC
100
AcDbXrecord
280
     1
102
RTVSPropertyOp0
 70
     0
102
RTVSPropertyOp1
 70
     0
102
RTVSPropertyOp2
 70
     0
102
RTVSPropertyOp3
 70
     0
102
RTVSPropertyOp4
 70
     0
102
RTVSPropertyOp5
 70
     0
102
RTVSPropertyOp6
 70
     0
102
RTVSPropertyOp7
 70
     0
102
RTVSPropertyOp8
 70
     0
102
RTVSPropertyOp9
 70
     0
102
RTVSPropertyOp10
 70
     0
102
RTVSPropertyOp11
 70
     0
102
RTVSPropertyOp12
 70
     0
102
RTVSPropertyOp13
 70
     0
102
RTVSPropertyOp14
 70
     2
102
RTVSPropertyOp15
 70
     0
102
RTVSPropertyOp16
 70
     0
102
RTVSPropertyOp17
 70
     0
102
RTVSPropertyOp18
 70
     0
102
RTVSPropertyOp19
 70
     0
102
RTVSPropertyOp20
 70
     0
102
RTVSPropertyOp21
 70
     0
102
RTVSPropertyOp22
 70
     0
102
RTVSPropertyOp23
 70
     0
102
RTVSPropertyOp24
 70
     0
102
RTVSPropertyOp25
 70
     0
102
RTVSPropertyOp26
 70
     0
102
RTVSPropertyOp27
 70
     0
102
RTVSPropertyOp28
 70
     1
102
RTVSPropertyOp29
 70
     1
102
RTVSPropertyOp30
 70
     1
102
RTVSPropertyOp31
 70
     1
102
RTVSPropertyOp32
 70
     1
  0
XRECORD
  5
2CB
102
{ACAD_REACTORS
330
2CA
102
}
330
2CA
100
AcDbXrecord
280
     1
102
RTVSPropertyOp0
 70
     1
102
RTVSPropertyOp1
 70
     1
102
RTVSPropertyOp2
 70
     1
102
RTVSPropertyOp3
 70
     1
102
RTVSPropertyOp4
 70
     1
102
RTVSPropertyOp5
 70
     1
102
RTVSPropertyOp6
 70
     1
102
RTVSPropertyOp7
 70
     1
102
RTVSPropertyOp8
 70
     1
102
RTVSPropertyOp9
 70
     1
102
RTVSPropertyOp10
 70
     1
102
RTVSPropertyOp11
 70
     1
102
RTVSPropertyOp12
 70
     1
102
RTVSPropertyOp13
 70
     1
102
RTVSPropertyOp14
 70
     1
102
RTVSPropertyOp15
 70
     1
102
RTVSPropertyOp16
 70
     1
102
RTVSPropertyOp17
 70
     1
102
RTVSPropertyOp18
 70
     1
102
RTVSPropertyOp19
 70
     1
102
RTVSPropertyOp20
 70
     1
102
RTVSPropertyOp21
 70
     1
102
RTVSPropertyOp22
 70
     1
102
RTVSPropertyOp23
 70
     1
102
RTVSPropertyOp24
 70
     1
102
RTVSPropertyOp25
 70
     1
102
RTVSPropertyOp26
 70
     1
102
RTVSPropertyOp27
 70
     1
102
RTVSPropertyOp28
 70
     1
102
RTVSPropertyOp29
 70
     1
102
RTVSPropertyOp30
 70
     1
102
RTVSPropertyOp31
 70
     1
102
RTVSPropertyOp32
 70
     1
  0
XRECORD
  5
2AF
102
{ACAD_REACTORS
330
2AE
102
}
330
2AE
100
AcDbXrecord
280
     1
102
RTVSPropertyOp0
 70
     1
102
RTVSPropertyOp1
 70
     1
102
RTVSPropertyOp2
 70
     1
102
RTVSPropertyOp3
 70
     1
102
RTVSPropertyOp4
 70
     1
102
RTVSPropertyOp5
 70
     1
102
RTVSPropertyOp6
 70
     1
102
RTVSPropertyOp7
 70
     1
102
RTVSPropertyOp8
 70
     1
102
RTVSPropertyOp9
 70
     1
102
RTVSPropertyOp10
 70
     1
102
RTVSPropertyOp11
 70
     1
102
RTVSPropertyOp12
 70
     1
102
RTVSPropertyOp13
 70
     1
102
RTVSPropertyOp14
 70
     1
102
RTVSPropertyOp15
 70
     1
102
RTVSPropertyOp16
 70
     1
102
RTVSPropertyOp17
 70
     1
102
RTVSPropertyOp18
 70
     1
102
RTVSPropertyOp19
 70
     1
102
RTVSPropertyOp20
 70
     1
102
RTVSPropertyOp21
 70
     1
102
RTVSPropertyOp22
 70
     1
102
RTVSPropertyOp23
 70
     1
102
RTVSPropertyOp24
 70
     1
102
RTVSPropertyOp25
 70
     1
102
RTVSPropertyOp26
 70
     1
102
RTVSPropertyOp27
 70
     1
102
RTVSPropertyOp28
 70
     1
102
RTVSPropertyOp29
 70
     1
102
RTVSPropertyOp30
 70
     1
102
RTVSPropertyOp31
 70
     1
102
RTVSPropertyOp32
 70
     1
  0
XRECORD
  5
2B1
102
{ACAD_REACTORS
330
2B0
102
}
330
2B0
100
AcDbXrecord
280
     1
102
RTVSPropertyOp0
 70
     1
102
RTVSPropertyOp1
 70
     1
102
RTVSPropertyOp2
 70
     1
102
RTVSPropertyOp3
 70
     1
102
RTVSPropertyOp4
 70
     1
102
RTVSPropertyOp5
 70
     1
102
RTVSPropertyOp6
 70
     1
102
RTVSPropertyOp7
 70
     1
102
RTVSPropertyOp8
 70
     1
102
RTVSPropertyOp9
 70
     1
102
RTVSPropertyOp10
 70
     1
102
RTVSPropertyOp11
 70
     1
102
RTVSPropertyOp12
 70
     1
102
RTVSPropertyOp13
 70
     1
102
RTVSPropertyOp14
 70
     1
102
RTVSPropertyOp15
 70
     1
102
RTVSPropertyOp16
 70
     1
102
RTVSPropertyOp17
 70
     1
102
RTVSPropertyOp18
 70
     1
102
RTVSPropertyOp19
 70
     1
102
RTVSPropertyOp20
 70
     1
102
RTVSPropertyOp21
 70
     1
102
RTVSPropertyOp22
 70
     1
102
RTVSPropertyOp23
 70
     1
102
RTVSPropertyOp24
 70
     1
102
RTVSPropertyOp25
 70
     1
102
RTVSPropertyOp26
 70
     1
102
RTVSPropertyOp27
 70
     1
102
RTVSPropertyOp28
 70
     1
102
RTVSPropertyOp29
 70
     1
102
RTVSPropertyOp30
 70
     1
102
RTVSPropertyOp31
 70
     1
102
RTVSPropertyOp32
 70
     1
  0
XRECORD
  5
2B3
102
{ACAD_REACTORS
330
2B2
102
}
330
2B2
100
AcDbXrecord
280
     1
102
RTVSPropertyOp0
 70
     1
102
RTVSPropertyOp1
 70
     1
102
RTVSPropertyOp2
 70
     1
102
RTVSPropertyOp3
 70
     1
102
RTVSPropertyOp4
 70
     1
102
RTVSPropertyOp5
 70
     1
102
RTVSPropertyOp6
 70
     1
102
RTVSPropertyOp7
 70
     1
102
RTVSPropertyOp8
 70
     1
102
RTVSPropertyOp9
 70
     1
102
RTVSPropertyOp10
 70
     1
102
RTVSPropertyOp11
 70
     1
102
RTVSPropertyOp12
 70
     1
102
RTVSPropertyOp13
 70
     1
102
RTVSPropertyOp14
 70
     1
102
RTVSPropertyOp15
 70
     1
102
RTVSPropertyOp16
 70
     1
102
RTVSPropertyOp17
 70
     1
102
RTVSPropertyOp18
 70
     1
102
RTVSPropertyOp19
 70
     1
102
RTVSPropertyOp20
 70
     1
102
RTVSPropertyOp21
 70
     1
102
RTVSPropertyOp22
 70
     1
102
RTVSPropertyOp23
 70
     1
102
RTVSPropertyOp24
 70
     1
102
RTVSPropertyOp25
 70
     1
102
RTVSPropertyOp26
 70
     1
102
RTVSPropertyOp27
 70
     1
102
RTVSPropertyOp28
 70
     1
102
RTVSPropertyOp29
 70
     1
102
RTVSPropertyOp30
 70
     1
102
RTVSPropertyOp31
 70
     1
102
RTVSPropertyOp32
 70
     1
  0
XRECORD
  5
2B5
102
{ACAD_REACTORS
330
2B4
102
}
330
2B4
100
AcDbXrecord
280
     1
102
RTVSPropertyOp0
 70
     1
102
RTVSPropertyOp1
 70
     1
102
RTVSPropertyOp2
 70
     1
102
RTVSPropertyOp3
 70
     1
102
RTVSPropertyOp4
 70
     1
102
RTVSPropertyOp5
 70
     1
102
RTVSPropertyOp6
 70
     1
102
RTVSPropertyOp7
 70
     1
102
RTVSPropertyOp8
 70
     1
102
RTVSPropertyOp9
 70
     1
102
RTVSPropertyOp10
 70
     1
102
RTVSPropertyOp11
 70
     1
102
RTVSPropertyOp12
 70
     1
102
RTVSPropertyOp13
 70
     1
102
RTVSPropertyOp14
 70
     1
102
RTVSPropertyOp15
 70
     1
102
RTVSPropertyOp16
 70
     1
102
RTVSPropertyOp17
 70
     1
102
RTVSPropertyOp18
 70
     1
102
RTVSPropertyOp19
 70
     1
102
RTVSPropertyOp20
 70
     1
102
RTVSPropertyOp21
 70
     1
102
RTVSPropertyOp22
 70
     1
102
RTVSPropertyOp23
 70
     1
102
RTVSPropertyOp24
 70
     1
102
RTVSPropertyOp25
 70
     1
102
RTVSPropertyOp26
 70
     1
102
RTVSPropertyOp27
 70
     1
102
RTVSPropertyOp28
 70
     1
102
RTVSPropertyOp29
 70
     1
102
RTVSPropertyOp30
 70
     1
102
RTVSPropertyOp31
 70
     1
102
RTVSPropertyOp32
 70
     1
  0
XRECORD
  5
2BD
102
{ACAD_REACTORS
330
2BC
102
}
330
2BC
100
AcDbXrecord
280
     1
102
RTVSPropertyOp0
 70
     1
102
RTVSPropertyOp1
 70
     1
102
RTVSPropertyOp2
 70
     1
102
RTVSPropertyOp3
 70
     1
102
RTVSPropertyOp4
 70
     1
102
RTVSPropertyOp5
 70
     1
102
RTVSPropertyOp6
 70
     1
102
RTVSPropertyOp7
 70
     1
102
RTVSPropertyOp8
 70
     1
102
RTVSPropertyOp9
 70
     1
102
RTVSPropertyOp10
 70
     1
102
RTVSPropertyOp11
 70
     1
102
RTVSPropertyOp12
 70
     1
102
RTVSPropertyOp13
 70
     1
102
RTVSPropertyOp14
 70
     1
102
RTVSPropertyOp15
 70
     1
102
RTVSPropertyOp16
 70
     1
102
RTVSPropertyOp17
 70
     1
102
RTVSPropertyOp18
 70
     1
102
RTVSPropertyOp19
 70
     1
102
RTVSPropertyOp20
 70
     1
102
RTVSPropertyOp21
 70
     1
102
RTVSPropertyOp22
 70
     1
102
RTVSPropertyOp23
 70
     1
102
RTVSPropertyOp24
 70
     1
102
RTVSPropertyOp25
 70
     1
102
RTVSPropertyOp26
 70
     1
102
RTVSPropertyOp27
 70
     1
102
RTVSPropertyOp28
 70
     1
102
RTVSPropertyOp29
 70
     1
102
RTVSPropertyOp30
 70
     1
102
RTVSPropertyOp31
 70
     1
102
RTVSPropertyOp32
 70
     1
  0
XRECORD
  5
2D9
102
{ACAD_REACTORS
330
2D8
102
}
330
2D8
100
AcDbXrecord
280
     1
102
RTVSPropertyOp0
 70
     0
102
RTVSPropertyOp1
 70
     0
102
RTVSPropertyOp2
 70
     0
102
RTVSPropertyOp3
 70
     0
102
RTVSPropertyOp4
 70
     0
102
RTVSPropertyOp5
 70
     0
102
RTVSPropertyOp6
 70
     0
102
RTVSPropertyOp7
 70
     0
102
RTVSPropertyOp8
 70
     0
102
RTVSPropertyOp9
 70
     0
102
RTVSPropertyOp10
 70
     0
102
RTVSPropertyOp11
 70
     0
102
RTVSPropertyOp12
 70
     0
102
RTVSPropertyOp13
 70
     0
102
RTVSPropertyOp14
 70
     2
102
RTVSPropertyOp15
 70
     0
102
RTVSPropertyOp16
 70
     0
102
RTVSPropertyOp17
 70
     0
102
RTVSPropertyOp18
 70
     0
102
RTVSPropertyOp19
 70
     0
102
RTVSPropertyOp20
 70
     0
102
RTVSPropertyOp21
 70
     0
102
RTVSPropertyOp22
 70
     0
102
RTVSPropertyOp23
 70
     0
102
RTVSPropertyOp24
 70
     0
102
RTVSPropertyOp25
 70
     0
102
RTVSPropertyOp26
 70
     0
102
RTVSPropertyOp27
 70
     0
102
RTVSPropertyOp28
 70
     1
102
RTVSPropertyOp29
 70
     1
102
RTVSPropertyOp30
 70
     1
102
RTVSPropertyOp31
 70
     1
102
RTVSPropertyOp32
 70
     1
  0
XRECORD
  5
2C9
102
{ACAD_REACTORS
330
2C8
102
}
330
2C8
100
AcDbXrecord
280
     1
102
RTVSPropertyOp0
 70
     1
102
RTVSPropertyOp1
 70
     1
102
RTVSPropertyOp2
 70
     1
102
RTVSPropertyOp3
 70
     1
102
RTVSPropertyOp4
 70
     1
102
RTVSPropertyOp5
 70
     1
102
RTVSPropertyOp6
 70
     1
102
RTVSPropertyOp7
 70
     1
102
RTVSPropertyOp8
 70
     1
102
RTVSPropertyOp9
 70
     1
102
RTVSPropertyOp10
 70
     1
102
RTVSPropertyOp11
 70
     1
102
RTVSPropertyOp12
 70
     1
102
RTVSPropertyOp13
 70
     1
102
RTVSPropertyOp14
 70
     1
102
RTVSPropertyOp15
 70
     1
102
RTVSPropertyOp16
 70
     1
102
RTVSPropertyOp17
 70
     1
102
RTVSPropertyOp18
 70
     1
102
RTVSPropertyOp19
 70
     1
102
RTVSPropertyOp20
 70
     1
102
RTVSPropertyOp21
 70
     1
102
RTVSPropertyOp22
 70
     1
102
RTVSPropertyOp23
 70
     1
102
RTVSPropertyOp24
 70
     1
102
RTVSPropertyOp25
 70
     1
102
RTVSPropertyOp26
 70
     1
102
RTVSPropertyOp27
 70
     1
102
RTVSPropertyOp28
 70
     1
102
RTVSPropertyOp29
 70
     1
102
RTVSPropertyOp30
 70
     1
102
RTVSPropertyOp31
 70
     1
102
RTVSPropertyOp32
 70
     1
  0
XRECORD
  5
2DB
102
{ACAD_REACTORS
330
2DA
102
}
330
2DA
100
AcDbXrecord
280
     1
102
RTVSPropertyOp0
 70
     0
102
RTVSPropertyOp1
 70
     0
102
RTVSPropertyOp2
 70
     0
102
RTVSPropertyOp3
 70
     0
102
RTVSPropertyOp4
 70
     0
102
RTVSPropertyOp5
 70
     0
102
RTVSPropertyOp6
 70
     0
102
RTVSPropertyOp7
 70
     0
102
RTVSPropertyOp8
 70
     0
102
RTVSPropertyOp9
 70
     0
102
RTVSPropertyOp10
 70
     0
102
RTVSPropertyOp11
 70
     0
102
RTVSPropertyOp12
 70
     0
102
RTVSPropertyOp13
 70
     0
102
RTVSPropertyOp14
 70
     2
102
RTVSPropertyOp15
 70
     0
102
RTVSPropertyOp16
 70
     0
102
RTVSPropertyOp17
 70
     0
102
RTVSPropertyOp18
 70
     0
102
RTVSPropertyOp19
 70
     0
102
RTVSPropertyOp20
 70
     0
102
RTVSPropertyOp21
 70
     0
102
RTVSPropertyOp22
 70
     0
102
RTVSPropertyOp23
 70
     0
102
RTVSPropertyOp24
 70
     0
102
RTVSPropertyOp25
 70
     0
102
RTVSPropertyOp26
 70
     0
102
RTVSPropertyOp27
 70
     0
102
RTVSPropertyOp28
 70
     1
102
RTVSPropertyOp29
 70
     1
102
RTVSPropertyOp30
 70
     1
102
RTVSPropertyOp31
 70
     1
102
RTVSPropertyOp32
 70
     1
  0
XRECORD
  5
2C1
102
{ACAD_REACTORS
330
2C0
102
}
330
2C0
100
AcDbXrecord
280
     1
102
RTVSPropertyOp0
 70
     1
102
RTVSPropertyOp1
 70
     1
102
RTVSPropertyOp2
 70
     1
102
RTVSPropertyOp3
 70
     1
102
RTVSPropertyOp4
 70
     1
102
RTVSPropertyOp5
 70
     1
102
RTVSPropertyOp6
 70
     1
102
RTVSPropertyOp7
 70
     1
102
RTVSPropertyOp8
 70
     1
102
RTVSPropertyOp9
 70
     1
102
RTVSPropertyOp10
 70
     1
102
RTVSPropertyOp11
 70
     1
102
RTVSPropertyOp12
 70
     1
102
RTVSPropertyOp13
 70
     1
102
RTVSPropertyOp14
 70
     1
102
RTVSPropertyOp15
 70
     1
102
RTVSPropertyOp16
 70
     1
102
RTVSPropertyOp17
 70
     1
102
RTVSPropertyOp18
 70
     1
102
RTVSPropertyOp19
 70
     1
102
RTVSPropertyOp20
 70
     1
102
RTVSPropertyOp21
 70
     1
102
RTVSPropertyOp22
 70
     1
102
RTVSPropertyOp23
 70
     1
102
RTVSPropertyOp24
 70
     1
102
RTVSPropertyOp25
 70
     1
102
RTVSPropertyOp26
 70
     1
102
RTVSPropertyOp27
 70
     1
102
RTVSPropertyOp28
 70
     1
102
RTVSPropertyOp29
 70
     1
102
RTVSPropertyOp30
 70
     1
102
RTVSPropertyOp31
 70
     1
102
RTVSPropertyOp32
 70
     1
  0
XRECORD
  5
2D7
102
{ACAD_REACTORS
330
2D6
102
}
330
2D6
100
AcDbXrecord
280
     1
102
RTVSPropertyOp0
 70
     1
102
RTVSPropertyOp1
 70
     1
102
RTVSPropertyOp2
 70
     1
102
RTVSPropertyOp3
 70
     1
102
RTVSPropertyOp4
 70
     1
102
RTVSPropertyOp5
 70
     1
102
RTVSPropertyOp6
 70
     1
102
RTVSPropertyOp7
 70
     1
102
RTVSPropertyOp8
 70
     1
102
RTVSPropertyOp9
 70
     1
102
RTVSPropertyOp10
 70
     1
102
RTVSPropertyOp11
 70
     1
102
RTVSPropertyOp12
 70
     1
102
RTVSPropertyOp13
 70
     1
102
RTVSPropertyOp14
 70
     1
102
RTVSPropertyOp15
 70
     1
102
RTVSPropertyOp16
 70
     1
102
RTVSPropertyOp17
 70
     1
102
RTVSPropertyOp18
 70
     1
102
RTVSPropertyOp19
 70
     1
102
RTVSPropertyOp20
 70
     1
102
RTVSPropertyOp21
 70
     1
102
RTVSPropertyOp22
 70
     1
102
RTVSPropertyOp23
 70
     1
102
RTVSPropertyOp24
 70
     1
102
RTVSPropertyOp25
 70
     1
102
RTVSPropertyOp26
 70
     1
102
RTVSPropertyOp27
 70
     1
102
RTVSPropertyOp28
 70
     1
102
RTVSPropertyOp29
 70
     1
102
RTVSPropertyOp30
 70
     1
102
RTVSPropertyOp31
 70
     1
102
RTVSPropertyOp32
 70
     1
  0
XRECORD
  5
2D5
102
{ACAD_REACTORS
330
2D4
102
}
330
2D4
100
AcDbXrecord
280
     1
102
RTVSPropertyOp0
 70
     1
102
RTVSPropertyOp1
 70
     1
102
RTVSPropertyOp2
 70
     1
102
RTVSPropertyOp3
 70
     1
102
RTVSPropertyOp4
 70
     1
102
RTVSPropertyOp5
 70
     1
102
RTVSPropertyOp6
 70
     1
102
RTVSPropertyOp7
 70
     1
102
RTVSPropertyOp8
 70
     1
102
RTVSPropertyOp9
 70
     1
102
RTVSPropertyOp10
 70
     1
102
RTVSPropertyOp11
 70
     1
102
RTVSPropertyOp12
 70
     1
102
RTVSPropertyOp13
 70
     1
102
RTVSPropertyOp14
 70
     1
102
RTVSPropertyOp15
 70
     1
102
RTVSPropertyOp16
 70
     1
102
RTVSPropertyOp17
 70
     1
102
RTVSPropertyOp18
 70
     1
102
RTVSPropertyOp19
 70
     1
102
RTVSPropertyOp20
 70
     1
102
RTVSPropertyOp21
 70
     1
102
RTVSPropertyOp22
 70
     1
102
RTVSPropertyOp23
 70
     1
102
RTVSPropertyOp24
 70
     1
102
RTVSPropertyOp25
 70
     1
102
RTVSPropertyOp26
 70
     1
102
RTVSPropertyOp27
 70
     1
102
RTVSPropertyOp28
 70
     1
102
RTVSPropertyOp29
 70
     1
102
RTVSPropertyOp30
 70
     1
102
RTVSPropertyOp31
 70
     1
102
RTVSPropertyOp32
 70
     1
  0
XRECORD
  5
2CF
102
{ACAD_REACTORS
330
2CE
102
}
330
2CE
100
AcDbXrecord
280
     1
102
RTVSPropertyOp0
 70
     1
102
RTVSPropertyOp1
 70
     1
102
RTVSPropertyOp2
 70
     1
102
RTVSPropertyOp3
 70
     1
102
RTVSPropertyOp4
 70
     1
102
RTVSPropertyOp5
 70
     1
102
RTVSPropertyOp6
 70
     1
102
RTVSPropertyOp7
 70
     1
102
RTVSPropertyOp8
 70
     1
102
RTVSPropertyOp9
 70
     1
102
RTVSPropertyOp10
 70
     1
102
RTVSPropertyOp11
 70
     1
102
RTVSPropertyOp12
 70
     1
102
RTVSPropertyOp13
 70
     1
102
RTVSPropertyOp14
 70
     1
102
RTVSPropertyOp15
 70
     1
102
RTVSPropertyOp16
 70
     1
102
RTVSPropertyOp17
 70
     1
102
RTVSPropertyOp18
 70
     1
102
RTVSPropertyOp19
 70
     1
102
RTVSPropertyOp20
 70
     1
102
RTVSPropertyOp21
 70
     1
102
RTVSPropertyOp22
 70
     1
102
RTVSPropertyOp23
 70
     1
102
RTVSPropertyOp24
 70
     1
102
RTVSPropertyOp25
 70
     1
102
RTVSPropertyOp26
 70
     1
102
RTVSPropertyOp27
 70
     1
102
RTVSPropertyOp28
 70
     1
102
RTVSPropertyOp29
 70
     1
102
RTVSPropertyOp30
 70
     1
102
RTVSPropertyOp31
 70
     1
102
RTVSPropertyOp32
 70
     1
  0
XRECORD
  5
2D1
102
{ACAD_REACTORS
330
2D0
102
}
330
2D0
100
AcDbXrecord
280
     1
102
RTVSPropertyOp0
 70
     1
102
RTVSPropertyOp1
 70
     1
102
RTVSPropertyOp2
 70
     1
102
RTVSPropertyOp3
 70
     1
102
RTVSPropertyOp4
 70
     1
102
RTVSPropertyOp5
 70
     1
102
RTVSPropertyOp6
 70
     1
102
RTVSPropertyOp7
 70
     1
102
RTVSPropertyOp8
 70
     1
102
RTVSPropertyOp9
 70
     1
102
RTVSPropertyOp10
 70
     1
102
RTVSPropertyOp11
 70
     1
102
RTVSPropertyOp12
 70
     1
102
RTVSPropertyOp13
 70
     1
102
RTVSPropertyOp14
 70
     1
102
RTVSPropertyOp15
 70
     1
102
RTVSPropertyOp16
 70
     1
102
RTVSPropertyOp17
 70
     1
102
RTVSPropertyOp18
 70
     1
102
RTVSPropertyOp19
 70
     1
102
RTVSPropertyOp20
 70
     1
102
RTVSPropertyOp21
 70
     1
102
RTVSPropertyOp22
 70
     1
102
RTVSPropertyOp23
 70
     1
102
RTVSPropertyOp24
 70
     1
102
RTVSPropertyOp25
 70
     1
102
RTVSPropertyOp26
 70
     1
102
RTVSPropertyOp27
 70
     1
102
RTVSPropertyOp28
 70
     1
102
RTVSPropertyOp29
 70
     1
102
RTVSPropertyOp30
 70
     1
102
RTVSPropertyOp31
 70
     1
102
RTVSPropertyOp32
 70
     1
  0
XRECORD
  5
2C7
102
{ACAD_REACTORS
330
2C6
102
}
330
2C6
100
AcDbXrecord
280
     1
102
RTVSPropertyOp0
 70
     1
102
RTVSPropertyOp1
 70
     1
102
RTVSPropertyOp2
 70
     1
102
RTVSPropertyOp3
 70
     1
102
RTVSPropertyOp4
 70
     1
102
RTVSPropertyOp5
 70
     1
102
RTVSPropertyOp6
 70
     1
102
RTVSPropertyOp7
 70
     1
102
RTVSPropertyOp8
 70
     1
102
RTVSPropertyOp9
 70
     1
102
RTVSPropertyOp10
 70
     1
102
RTVSPropertyOp11
 70
     1
102
RTVSPropertyOp12
 70
     1
102
RTVSPropertyOp13
 70
     1
102
RTVSPropertyOp14
 70
     1
102
RTVSPropertyOp15
 70
     1
102
RTVSPropertyOp16
 70
     1
102
RTVSPropertyOp17
 70
     1
102
RTVSPropertyOp18
 70
     1
102
RTVSPropertyOp19
 70
     1
102
RTVSPropertyOp20
 70
     1
102
RTVSPropertyOp21
 70
     1
102
RTVSPropertyOp22
 70
     1
102
RTVSPropertyOp23
 70
     1
102
RTVSPropertyOp24
 70
     1
102
RTVSPropertyOp25
 70
     1
102
RTVSPropertyOp26
 70
     1
102
RTVSPropertyOp27
 70
     1
102
RTVSPropertyOp28
 70
     1
102
RTVSPropertyOp29
 70
     1
102
RTVSPropertyOp30
 70
     1
102
RTVSPropertyOp31
 70
     1
102
RTVSPropertyOp32
 70
     1
  0
XRECORD
  5
2BB
102
{ACAD_REACTORS
330
2BA
102
}
330
2BA
100
AcDbXrecord
280
     1
102
RTVSPropertyOp0
 70
     1
102
RTVSPropertyOp1
 70
     1
102
RTVSPropertyOp2
 70
     1
102
RTVSPropertyOp3
 70
     1
102
RTVSPropertyOp4
 70
     1
102
RTVSPropertyOp5
 70
     1
102
RTVSPropertyOp6
 70
     1
102
RTVSPropertyOp7
 70
     1
102
RTVSPropertyOp8
 70
     1
102
RTVSPropertyOp9
 70
     1
102
RTVSPropertyOp10
 70
     1
102
RTVSPropertyOp11
 70
     1
102
RTVSPropertyOp12
 70
     1
102
RTVSPropertyOp13
 70
     1
102
RTVSPropertyOp14
 70
     1
102
RTVSPropertyOp15
 70
     1
102
RTVSPropertyOp16
 70
     1
102
RTVSPropertyOp17
 70
     1
102
RTVSPropertyOp18
 70
     1
102
RTVSPropertyOp19
 70
     1
102
RTVSPropertyOp20
 70
     1
102
RTVSPropertyOp21
 70
     1
102
RTVSPropertyOp22
 70
     1
102
RTVSPropertyOp23
 70
     1
102
RTVSPropertyOp24
 70
     1
102
RTVSPropertyOp25
 70
     1
102
RTVSPropertyOp26
 70
     1
102
RTVSPropertyOp27
 70
     1
102
RTVSPropertyOp28
 70
     1
102
RTVSPropertyOp29
 70
     1
102
RTVSPropertyOp30
 70
     1
102
RTVSPropertyOp31
 70
     1
102
RTVSPropertyOp32
 70
     1
  0
XRECORD
  5
2D3
102
{ACAD_REACTORS
330
2D2
102
}
330
2D2
100
AcDbXrecord
280
     1
102
RTVSPropertyOp0
 70
     1
102
RTVSPropertyOp1
 70
     1
102
RTVSPropertyOp2
 70
     1
102
RTVSPropertyOp3
 70
     1
102
RTVSPropertyOp4
 70
     1
102
RTVSPropertyOp5
 70
     1
102
RTVSPropertyOp6
 70
     1
102
RTVSPropertyOp7
 70
     1
102
RTVSPropertyOp8
 70
     1
102
RTVSPropertyOp9
 70
     1
102
RTVSPropertyOp10
 70
     1
102
RTVSPropertyOp11
 70
     1
102
RTVSPropertyOp12
 70
     1
102
RTVSPropertyOp13
 70
     1
102
RTVSPropertyOp14
 70
     1
102
RTVSPropertyOp15
 70
     1
102
RTVSPropertyOp16
 70
     1
102
RTVSPropertyOp17
 70
     1
102
RTVSPropertyOp18
 70
     1
102
RTVSPropertyOp19
 70
     1
102
RTVSPropertyOp20
 70
     1
102
RTVSPropertyOp21
 70
     1
102
RTVSPropertyOp22
 70
     1
102
RTVSPropertyOp23
 70
     1
102
RTVSPropertyOp24
 70
     1
102
RTVSPropertyOp25
 70
     1
102
RTVSPropertyOp26
 70
     1
102
RTVSPropertyOp27
 70
     1
102
RTVSPropertyOp28
 70
     1
102
RTVSPropertyOp29
 70
     1
102
RTVSPropertyOp30
 70
     1
102
RTVSPropertyOp31
 70
     1
102
RTVSPropertyOp32
 70
     1
  0
ENDSEC
  0
EOF
