  0
SECTION
  2
HEADER
  9
$ACADVER
  1
AC1015
  9
$ACADMAINTVER
 70
    20
  9
$DWGCODEPAGE
  3
ANSI_1252
  9
$INSBASE
 10
0.0
 20
0.0
 30
0.0
  9
$EXTMIN
 10
-15.62978165118306
 20
-7.46894860267639
 30
-0.7812499999992878
  9
$EXTMAX
 10
22.24521834880483
 20
7.531051397323607
 30
29.21874999999948
  9
$LIMMIN
 10
0.0
 20
0.0
  9
$LIMMAX
 10
12.0
 20
9.0
  9
$ORTHOMODE
 70
     0
  9
$REGENMODE
 70
     1
  9
$FILLMODE
 70
     1
  9
$QTEXTMODE
 70
     0
  9
$MIRRTEXT
 70
     0
  9
$LTSCALE
 40
1.0
  9
$ATTMODE
 70
     1
  9
$TEXTSIZE
 40
0.2
  9
$TRACEWID
 40
0.05
  9
$TEXTSTYLE
  7
Standard
  9
$CLAYER
  8
0
  9
$CELTYPE
  6
ByLayer
  9
$CECOLOR
 62
   256
  9
$CELTSCALE
 40
1.0
  9
$DISPSILH
 70
     0
  9
$DIMSCALE
 40
1.0
  9
$DIMASZ
 40
0.18
  9
$DIMEXO
 40
0.0625
  9
$DIMDLI
 40
0.38
  9
$DIMRND
 40
0.0
  9
$DIMDLE
 40
0.0
  9
$DIMEXE
 40
0.18
  9
$DIMTP
 40
0.0
  9
$DIMTM
 40
0.0
  9
$DIMTXT
 40
0.18
  9
$DIMCEN
 40
0.09
  9
$DIMTSZ
 40
0.0
  9
$DIMTOL
 70
     0
  9
$DIMLIM
 70
     0
  9
$DIMTIH
 70
     1
  9
$DIMTOH
 70
     1
  9
$DIMSE1
 70
     0
  9
$DIMSE2
 70
     0
  9
$DIMTAD
 70
     0
  9
$DIMZIN
 70
     0
  9
$DIMBLK
  1

  9
$DIMASO
 70
     1
  9
$DIMSHO
 70
     1
  9
$DIMPOST
  1

  9
$DIMAPOST
  1

  9
$DIMALT
 70
     0
  9
$DIMALTD
 70
     2
  9
$DIMALTF
 40
25.4
  9
$DIMLFAC
 40
1.0
  9
$DIMTOFL
 70
     0
  9
$DIMTVP
 40
0.0
  9
$DIMTIX
 70
     0
  9
$DIMSOXD
 70
     0
  9
$DIMSAH
 70
     0
  9
$DIMBLK1
  1

  9
$DIMBLK2
  1

  9
$DIMSTYLE
  2
Standard
  9
$DIMCLRD
 70
     0
  9
$DIMCLRE
 70
     0
  9
$DIMCLRT
 70
     0
  9
$DIMTFAC
 40
1.0
  9
$DIMGAP
 40
0.09
  9
$DIMJUST
 70
     0
  9
$DIMSD1
 70
     0
  9
$DIMSD2
 70
     0
  9
$DIMTOLJ
 70
     1
  9
$DIMTZIN
 70
     0
  9
$DIMALTZ
 70
     0
  9
$DIMALTTZ
 70
     0
  9
$DIMUPT
 70
     0
  9
$DIMDEC
 70
     4
  9
$DIMTDEC
 70
     4
  9
$DIMALTU
 70
     4
  9
$DIMALTTD
 70
     2
  9
$DIMTXSTY
  7
Standard
  9
$DIMAUNIT
 70
     0
  9
$DIMADEC
 70
     0
  9
$DIMALTRND
 40
0.0
  9
$DIMAZIN
 70
     0
  9
$DIMDSEP
 70
    46
  9
$DIMATFIT
 70
     3
  9
$DIMFRAC
 70
     0
  9
$DIMLDRBLK
  1

  9
$DIMLUNIT
 70
     4
  9
$DIMLWD
 70
    -2
  9
$DIMLWE
 70
    -2
  9
$DIMTMOVE
 70
     0
  9
$LUNITS
 70
     4
  9
$LUPREC
 70
     4
  9
$SKETCHINC
 40
0.1
  9
$FILLETRAD
 40
0.0
  9
$AUNITS
 70
     0
  9
$AUPREC
 70
     0
  9
$MENU
  1
.
  9
$ELEVATION
 40
0.0
  9
$PELEVATION
 40
0.0
  9
$THICKNESS
 40
0.0
  9
$LIMCHECK
 70
     0
  9
$CHAMFERA
 40
0.0
  9
$CHAMFERB
 40
0.0
  9
$CHAMFERC
 40
0.0
  9
$CHAMFERD
 40
0.0
  9
$SKPOLY
 70
     0
  9
$TDCREATE
 40
2456030.401118183
  9
$TDUCREATE
 40
2456030.609451516
  9
$TDUPDATE
 40
2456030.401580486
  9
$TDUUPDATE
 40
2456030.609913820
  9
$TDINDWG
 40
0.0002770139
  9
$TDUSRTIMER
 40
0.0002770139
  9
$USRTIMER
 70
     1
  9
$ANGBASE
 50
0.0
  9
$ANGDIR
 70
     0
  9
$PDMODE
 70
     0
  9
$PDSIZE
 40
0.0
  9
$PLINEWID
 40
0.0
  9
$SPLFRAME
 70
     0
  9
$SPLINETYPE
 70
     6
  9
$SPLINESEGS
 70
     8
  9
$HANDSEED
  5
363
  9
$SURFTAB1
 70
     6
  9
$SURFTAB2
 70
     6
  9
$SURFTYPE
 70
     6
  9
$SURFU
 70
     6
  9
$SURFV
 70
     6
  9
$UCSBASE
  2

  9
$UCSNAME
  2

  9
$UCSORG
 10
0.0
 20
0.0
 30
0.0
  9
$UCSXDIR
 10
1.0
 20
0.0
 30
0.0
  9
$UCSYDIR
 10
0.0
 20
1.0
 30
0.0
  9
$UCSORTHOREF
  2

  9
$UCSORTHOVIEW
 70
     0
  9
$UCSORGTOP
 10
0.0
 20
0.0
 30
0.0
  9
$UCSORGBOTTOM
 10
0.0
 20
0.0
 30
0.0
  9
$UCSORGLEFT
 10
0.0
 20
0.0
 30
0.0
  9
$UCSORGRIGHT
 10
0.0
 20
0.0
 30
0.0
  9
$UCSORGFRONT
 10
0.0
 20
0.0
 30
0.0
  9
$UCSORGBACK
 10
0.0
 20
0.0
 30
0.0
  9
$PUCSBASE
  2

  9
$PUCSNAME
  2

  9
$PUCSORG
 10
0.0
 20
0.0
 30
0.0
  9
$PUCSXDIR
 10
1.0
 20
0.0
 30
0.0
  9
$PUCSYDIR
 10
0.0
 20
1.0
 30
0.0
  9
$PUCSORTHOREF
  2

  9
$PUCSORTHOVIEW
 70
     0
  9
$PUCSORGTOP
 10
0.0
 20
0.0
 30
0.0
  9
$PUCSORGBOTTOM
 10
0.0
 20
0.0
 30
0.0
  9
$PUCSORGLEFT
 10
0.0
 20
0.0
 30
0.0
  9
$PUCSORGRIGHT
 10
0.0
 20
0.0
 30
0.0
  9
$PUCSORGFRONT
 10
0.0
 20
0.0
 30
0.0
  9
$PUCSORGBACK
 10
0.0
 20
0.0
 30
0.0
  9
$USERI1
 70
     0
  9
$USERI2
 70
     0
  9
$USERI3
 70
     0
  9
$USERI4
 70
     0
  9
$USERI5
 70
     0
  9
$USERR1
 40
0.0
  9
$USERR2
 40
0.0
  9
$USERR3
 40
0.0
  9
$USERR4
 40
0.0
  9
$USERR5
 40
0.0
  9
$WORLDVIEW
 70
     1
  9
$SHADEDGE
 70
     3
  9
$SHADEDIF
 70
    70
  9
$TILEMODE
 70
     1
  9
$MAXACTVP
 70
    64
  9
$PINSBASE
 10
0.0
 20
0.0
 30
0.0
  9
$PLIMCHECK
 70
     0
  9
$PEXTMIN
 10
1.000000000000000E+20
 20
1.000000000000000E+20
 30
1.000000000000000E+20
  9
$PEXTMAX
 10
-1.000000000000000E+20
 20
-1.000000000000000E+20
 30
-1.000000000000000E+20
  9
$PLIMMIN
 10
0.0
 20
0.0
  9
$PLIMMAX
 10
12.0
 20
9.0
  9
$UNITMODE
 70
     0
  9
$VISRETAIN
 70
     1
  9
$PLINEGEN
 70
     0
  9
$PSLTSCALE
 70
     1
  9
$TREEDEPTH
 70
  3020
  9
$CMLSTYLE
  2
Standard
  9
$CMLJUST
 70
     0
  9
$CMLSCALE
 40
1.0
  9
$PROXYGRAPHICS
 70
     1
  9
$MEASUREMENT
 70
     0
  9
$CELWEIGHT
370
    -1
  9
$ENDCAPS
280
     0
  9
$JOINSTYLE
280
     0
  9
$LWDISPLAY
290
     0
  9
$INSUNITS
 70
     1
  9
$HYPERLINKBASE
  1

  9
$STYLESHEET
  1

  9
$XEDIT
290
     1
  9
$CEPSNTYPE
380
     0
  9
$PSTYLEMODE
290
     1
  9
$FINGERPRINTGUID
  2
{08D51AD4-154A-47F8-AF12-24516E8EDB97}
  9
$VERSIONGUID
  2
{4511A917-F6C8-4E0C-ABC6-F3401634561C}
  9
$EXTNAMES
290
     1
  9
$PSVPSCALE
 40
0.0
  9
$OLESTARTUP
290
     0
  0
ENDSEC
  0
SECTION
  2
CLASSES
  0
CLASS
  1
ACDBDICTIONARYWDFLT
  2
AcDbDictionaryWithDefault
  3
ObjectDBX Classes
 90
        0
280
     0
281
     0
  0
CLASS
  1
MATERIAL
  2
AcDbMaterial
  3
ObjectDBX Classes
 90
     1153
280
     0
281
     0
  0
CLASS
  1
VISUALSTYLE
  2
AcDbVisualStyle
  3
ObjectDBX Classes
 90
     4095
280
     0
281
     0
  0
CLASS
  1
SCALE
  2
AcDbScale
  3
ObjectDBX Classes
 90
     1153
280
     0
281
     0
  0
CLASS
  1
TABLESTYLE
  2
AcDbTableStyle
  3
ObjectDBX Classes
 90
     4095
280
     0
281
     0
  0
CLASS
  1
MLEADERSTYLE
  2
AcDbMLeaderStyle
  3
ACDB_MLEADERSTYLE_CLASS
 90
     4095
280
     0
281
     0
  0
CLASS
  1
RASTERVARIABLES
  2
AcDbRasterVariables
  3
ISM
 90
        0
280
     0
281
     0
  0
CLASS
  1
DICTIONARYVAR
  2
AcDbDictionaryVar
  3
ObjectDBX Classes
 90
        0
280
     0
281
     0
  0
CLASS
  1
SUN
  2
AcDbSun
  3
SCENEOE
 90
     1153
280
     0
281
     0
  0
CLASS
  1
SOLID_BACKGROUND
  2
AcDbSolidBackground
  3
SCENEOE
 90
     4095
280
     0
281
     0
  0
CLASS
  1
NPOCOLLECTION
  2
AcDbImpNonPersistentObjectsCollection
  3
ObjectDBX Classes
 90
     1153
280
     0
281
     0
  0
CLASS
  1
CELLSTYLEMAP
  2
AcDbCellStyleMap
  3
ObjectDBX Classes
 90
     1152
280
     0
281
     0
  0
CLASS
  1
ACDBPLACEHOLDER
  2
AcDbPlaceHolder
  3
ObjectDBX Classes
 90
        0
280
     0
281
     0
  0
CLASS
  1
LAYOUT
  2
AcDbLayout
  3
ObjectDBX Classes
 90
        0
280
     0
281
     0
  0
ENDSEC
  0
SECTION
  2
TABLES
  0
TABLE
  2
VPORT
  5
8
330
0
100
AcDbSymbolTable
 70
     1
  0
VPORT
  5
57
330
8
100
AcDbSymbolTableRecord
100
AcDbViewportTableRecord
  2
*Active
 70
     0
 10
0.0
 20
0.0
 11
1.0
 21
1.0
 12
0.0
 22
0.0
 13
0.0
 23
0.0
 14
1.0
 24
1.0
 15
0.0
 25
0.0
 16
61.64534079852765
 26
-61.64534079852765
 36
61.64534079852767
 17
3.307718348810881
 27
0.0310513973236084
 37
14.21875000000009
 40
50.59165568548838
 41
1.402298850574712
 42
50.0
 43
0.0
 44
0.0
 50
0.0
 51
0.0000000000000111
 71
     0
 72
   100
 73
     1
 74
     1
 75
     0
 76
     0
 77
     0
 78
     0
281
     6
 65
     1
110
0.0
120
0.0
130
0.0
111
1.0
121
0.0
131
0.0
112
0.0
122
1.0
132
0.0
 79
     0
146
0.0
1001
ACAD_NAV_VCDISPLAY
1070
     3
  0
ENDTAB
  0
TABLE
  2
LTYPE
  5
5
330
0
100
AcDbSymbolTable
 70
     1
  0
LTYPE
  5
5B
330
5
100
AcDbSymbolTableRecord
100
AcDbLinetypeTableRecord
  2
ByBlock
 70
     0
  3

 72
    65
 73
     0
 40
0.0
  0
LTYPE
  5
5C
330
5
100
AcDbSymbolTableRecord
100
AcDbLinetypeTableRecord
  2
ByLayer
 70
     0
  3

 72
    65
 73
     0
 40
0.0
  0
LTYPE
  5
5D
330
5
100
AcDbSymbolTableRecord
100
AcDbLinetypeTableRecord
  2
Continuous
 70
     0
  3
Solid line
 72
    65
 73
     0
 40
0.0
  0
ENDTAB
  0
TABLE
  2
LAYER
  5
2
330
0
100
AcDbSymbolTable
 70
     4
  0
LAYER
  5
54
330
2
100
AcDbSymbolTableRecord
100
AcDbLayerTableRecord
  2
0
 70
     0
 62
     7
  6
Continuous
370
    -3
390
F
  0
LAYER
  5
7A
330
2
100
AcDbSymbolTableRecord
100
AcDbLayerTableRecord
  2
3D-S-COLS-ANLY
 70
     0
 62
     2
  6
Continuous
370
    -3
390
F
  0
LAYER
  5
192
330
2
100
AcDbSymbolTableRecord
100
AcDbLayerTableRecord
  2
3D-GENM
 70
     0
 62
     6
  6
Continuous
370
    -3
390
F
  0
LAYER
  5
233
330
2
100
AcDbSymbolTableRecord
100
AcDbLayerTableRecord
  2
3D-S-BEAM
 70
     0
 62
     4
  6
Continuous
370
    -3
390
F
  0
ENDTAB
  0
TABLE
  2
STYLE
  5
3
330
0
100
AcDbSymbolTable
 70
     2
  0
STYLE
  5
55
330
3
100
AcDbSymbolTableRecord
100
AcDbTextStyleTableRecord
  2
Standard
 70
     0
 40
0.0
 41
1.0
 50
0.0
 71
     0
 42
0.2
  3
txt
  4

  0
STYLE
  5
5A
330
3
100
AcDbSymbolTableRecord
100
AcDbTextStyleTableRecord
  2
Annotative
 70
     0
 40
0.0
 41
1.0
 50
0.0
 71
     0
 42
0.2
  3
txt
  4

1001
AcadAnnotative
1000
AnnotativeData
1002
{
1070
     1
1070
     1
1002
}
  0
ENDTAB
  0
TABLE
  2
VIEW
  5
6
330
0
100
AcDbSymbolTable
 70
     1
  0
VIEW
  5
2AC
330
6
100
AcDbSymbolTableRecord
100
AcDbViewTableRecord
  2
Preview
 70
     0
 40
2400.0
 10
0.0
 20
0.0
 41
2400.0
 11
24.73987678945418
 21
-24.70327805297881
 31
3.20896945674676
 12
3.307718348804919
 22
-0.0000000000018079
 32
15.00238810887737
 42
50.0
 43
0.0
 44
0.0
 50
0.0
 71
     0
281
     0
 72
     0
  0
ENDTAB
  0
TABLE
  2
UCS
  5
7
330
0
100
AcDbSymbolTable
 70
     0
  0
ENDTAB
  0
TABLE
  2
APPID
  5
9
330
0
100
AcDbSymbolTable
 70
     5
  0
APPID
  5
56
330
9
100
AcDbSymbolTableRecord
100
AcDbRegAppTableRecord
  2
ACAD
 70
     0
  0
APPID
  5
5E
330
9
100
AcDbSymbolTableRecord
100
AcDbRegAppTableRecord
  2
AcadAnnotative
 70
     0
  0
APPID
  5
74
330
9
100
AcDbSymbolTableRecord
100
AcDbRegAppTableRecord
  2
REVIT
 70
     0
  0
APPID
  5
2C4
330
9
100
AcDbSymbolTableRecord
100
AcDbRegAppTableRecord
  2
ACAD_NAV_VCDISPLAY
 70
     0
  0
APPID
  5
35B
330
9
100
AcDbSymbolTableRecord
100
AcDbRegAppTableRecord
  2
ACAD_MLEADERVER
 70
     0
  0
ENDTAB
  0
TABLE
  2
DIMSTYLE
  5
A
330
0
100
AcDbSymbolTable
 70
     2
100
AcDbDimStyleTable
 71
     0
  0
DIMSTYLE
105
58
330
A
100
AcDbSymbolTableRecord
100
AcDbDimStyleTableRecord
  2
Standard
 70
     0
340
55
  0
DIMSTYLE
105
59
330
A
100
AcDbSymbolTableRecord
100
AcDbDimStyleTableRecord
  2
Annotative
 70
     0
340
55
1001
AcadAnnotative
1000
AnnotativeData
1002
{
1070
     1
1070
     1
1002
}
  0
ENDTAB
  0
TABLE
  2
BLOCK_RECORD
  5
1
330
0
100
AcDbSymbolTable
 70
     4
  0
BLOCK_RECORD
  5
6C
330
1
100
AcDbSymbolTableRecord
100
AcDbBlockTableRecord
  2
*Model_Space
340
6F
  0
BLOCK_RECORD
  5
68
330
1
100
AcDbSymbolTableRecord
100
AcDbBlockTableRecord
  2
*Paper_Space
340
6B
  0
BLOCK_RECORD
  5
70
330
1
100
AcDbSymbolTableRecord
100
AcDbBlockTableRecord
  2
*Paper_Space0
340
73
  0
BLOCK_RECORD
  5
7B
330
1
100
AcDbSymbolTableRecord
100
AcDbBlockTableRecord
  2
Outrigger-Kawneer-Wedge - 5_-142066-Preview
340
0
102
{BLKREFS
331
17B
331
17C
331
17D
331
17E
331
17F
331
180
331
181
331
182
331
183
331
184
331
185
331
186
331
187
331
188
331
189
331
18A
331
18B
331
18C
331
18D
331
18E
331
18F
331
190
331
191
102
}
  0
BLOCK_RECORD
  5
193
330
1
100
AcDbSymbolTableRecord
100
AcDbBlockTableRecord
  2
Blade-Kawneer-Circular - Versoleil-151891-Preview
340
0
102
{BLKREFS
331
232
331
2A9
331
2AA
331
2AB
102
}
  0
BLOCK_RECORD
  5
234
330
1
100
AcDbSymbolTableRecord
100
AcDbBlockTableRecord
  2
Fascia-Kawneer-Angular - Versoleil-151041-Preview
340
0
102
{BLKREFS
331
2A8
102
}
  0
ENDTAB
  0
ENDSEC
  0
SECTION
  2
BLOCKS
  0
BLOCK
  5
6D
330
6C
100
AcDbEntity
  8
0
100
AcDbBlockBegin
  2
*Model_Space
 70
     0
 10
0.0
 20
0.0
 30
0.0
  3
*Model_Space
  1

  0
ENDBLK
  5
6E
330
6C
100
AcDbEntity
  8
0
100
AcDbBlockEnd
  0
BLOCK
  5
69
330
68
100
AcDbEntity
 67
     1
  8
0
100
AcDbBlockBegin
  2
*Paper_Space
 70
     0
 10
0.0
 20
0.0
 30
0.0
  3
*Paper_Space
  1

  0
ENDBLK
  5
6A
330
68
100
AcDbEntity
 67
     1
  8
0
100
AcDbBlockEnd
  0
BLOCK
  5
71
330
70
100
AcDbEntity
 67
     1
  8
0
100
AcDbBlockBegin
  2
*Paper_Space0
 70
     0
 10
0.0
 20
0.0
 30
0.0
  3
*Paper_Space0
  1

  0
ENDBLK
  5
72
330
70
100
AcDbEntity
 67
     1
  8
0
100
AcDbBlockEnd
  0
BLOCK
  5
179
330
7B
100
AcDbEntity
  8
0
100
AcDbBlockBegin
  2
Outrigger-Kawneer-Wedge - 5_-142066-Preview
 70
     0
 10
0.0
 20
0.0
 30
0.0
  3
Outrigger-Kawneer-Wedge - 5_-142066-Preview
  1

  0
POLYLINE
  5
7C
330
7B
100
AcDbEntity
  8
3D-S-COLS-ANLY
370
     9
100
AcDbPolyFaceMesh
 66
     1
 10
0.0
 20
0.0
 30
0.0
 70
    64
 71
    16
 72
     8
1001
REVIT
1002
{
1070
     3
1000
142059
1002
}
  0
VERTEX
  5
7D
330
7C
100
AcDbEntity
  8
3D-S-COLS-ANLY
370
     9
100
AcDbVertex
100
AcDbPolyFaceMeshVertex
 10
0.46875
 20
-2.499999940395354
 30
0.0000000000012337
 70
   192
  0
VERTEX
  5
7E
330
7C
100
AcDbEntity
  8
3D-S-COLS-ANLY
370
     9
100
AcDbVertex
100
AcDbPolyFaceMeshVertex
 10
0.46875
 20
2.499999940395354
 30
0.000000000001303
 70
   192
  0
VERTEX
  5
7F
330
7C
100
AcDbEntity
  8
3D-S-COLS-ANLY
370
     9
100
AcDbVertex
100
AcDbPolyFaceMeshVertex
 10
0.46875
 20
2.500427842140197
 30
2.498102188110351
 70
   192
  0
VERTEX
  5
80
330
7C
100
AcDbEntity
  8
3D-S-COLS-ANLY
370
     9
100
AcDbVertex
100
AcDbPolyFaceMeshVertex
 10
0.46875
 20
-1.754510700702667
 30
29.68298721313476
 70
   192
  0
VERTEX
  5
81
330
7C
100
AcDbEntity
  8
3D-S-COLS-ANLY
370
     9
100
AcDbVertex
100
AcDbPolyFaceMeshVertex
 10
0.46875
 20
-1.778327822685241
 30
29.76797962188721
 70
   192
  0
VERTEX
  5
82
330
7C
100
AcDbEntity
  8
3D-S-COLS-ANLY
370
     9
100
AcDbVertex
100
AcDbPolyFaceMeshVertex
 10
0.46875
 20
-1.82135134935379
 30
29.84504985809326
 70
   192
  0
VERTEX
  5
83
330
7C
100
AcDbEntity
  8
3D-S-COLS-ANLY
370
     9
100
AcDbVertex
100
AcDbPolyFaceMeshVertex
 10
0.46875
 20
-1.88119751214981
 30
29.90992927551269
 70
   192
  0
VERTEX
  5
84
330
7C
100
AcDbEntity
  8
3D-S-COLS-ANLY
370
     9
100
AcDbVertex
100
AcDbPolyFaceMeshVertex
 10
0.46875
 20
-1.954550743103027
 30
29.95902442932129
 70
   192
  0
VERTEX
  5
85
330
7C
100
AcDbEntity
  8
3D-S-COLS-ANLY
370
     9
100
AcDbVertex
100
AcDbPolyFaceMeshVertex
 10
0.46875
 20
-2.037347316741942
 30
29.98961162567138
 70
   192
  0
VERTEX
  5
86
330
7C
100
AcDbEntity
  8
3D-S-COLS-ANLY
370
     9
100
AcDbVertex
100
AcDbPolyFaceMeshVertex
 10
0.46875
 20
-2.124999940395354
 30
30.0
 70
   192
  0
VERTEX
  5
87
330
7C
100
AcDbEntity
  8
3D-S-COLS-ANLY
370
     9
100
AcDbVertex
100
AcDbPolyFaceMeshVertex
 10
0.46875
 20
-2.222057104110717
 30
29.98722267150879
 70
   192
  0
VERTEX
  5
88
330
7C
100
AcDbEntity
  8
3D-S-COLS-ANLY
370
     9
100
AcDbVertex
100
AcDbPolyFaceMeshVertex
 10
0.46875
 20
-2.312499940395354
 30
29.94976043701172
 70
   192
  0
VERTEX
  5
89
330
7C
100
AcDbEntity
  8
3D-S-COLS-ANLY
370
     9
100
AcDbVertex
100
AcDbPolyFaceMeshVertex
 10
0.46875
 20
-2.390165090560912
 30
29.89016532897949
 70
   192
  0
VERTEX
  5
8A
330
7C
100
AcDbEntity
  8
3D-S-COLS-ANLY
370
     9
100
AcDbVertex
100
AcDbPolyFaceMeshVertex
 10
0.46875
 20
-2.449759483337401
 30
29.8125
 70
   192
  0
VERTEX
  5
8B
330
7C
100
AcDbEntity
  8
3D-S-COLS-ANLY
370
     9
100
AcDbVertex
100
AcDbPolyFaceMeshVertex
 10
0.46875
 20
-2.487222254276275
 30
29.72205734252929
 70
   192
  0
VERTEX
  5
8C
330
7C
100
AcDbEntity
  8
3D-S-COLS-ANLY
370
     9
100
AcDbVertex
100
AcDbPolyFaceMeshVertex
 10
0.46875
 20
-2.499999940395354
 30
29.625
 70
   192
  0
VERTEX
  5
8D
330
7C
100
AcDbEntity
  8
3D-S-COLS-ANLY
370
     9
100
AcDbFaceRecord
 10
0.0
 20
0.0
 30
0.0
 70
   128
 71
     4
 72
    -5
 73
   -16
 74
     3
  0
VERTEX
  5
8E
330
7C
100
AcDbEntity
  8
3D-S-COLS-ANLY
370
     9
100
AcDbFaceRecord
 10
0.0
 20
0.0
 30
0.0
 70
   128
 71
     5
 72
    -6
 73
   -13
 74
   -16
  0
VERTEX
  5
8F
330
7C
100
AcDbEntity
  8
3D-S-COLS-ANLY
370
     9
100
AcDbFaceRecord
 10
0.0
 20
0.0
 30
0.0
 70
   128
 71
     6
 72
     7
 73
    -8
 74
   -10
  0
VERTEX
  5
90
330
7C
100
AcDbEntity
  8
3D-S-COLS-ANLY
370
     9
100
AcDbFaceRecord
 10
0.0
 20
0.0
 30
0.0
 70
   128
 71
     9
 72
   -10
 73
     8
  0
VERTEX
  5
91
330
7C
100
AcDbEntity
  8
3D-S-COLS-ANLY
370
     9
100
AcDbFaceRecord
 10
0.0
 20
0.0
 30
0.0
 70
   128
 71
     1
 72
     2
 73
    -3
 74
    16
  0
VERTEX
  5
92
330
7C
100
AcDbEntity
  8
3D-S-COLS-ANLY
370
     9
100
AcDbFaceRecord
 10
0.0
 20
0.0
 30
0.0
 70
   128
 71
    14
 72
    15
 73
   -16
 74
    13
  0
VERTEX
  5
93
330
7C
100
AcDbEntity
  8
3D-S-COLS-ANLY
370
     9
100
AcDbFaceRecord
 10
0.0
 20
0.0
 30
0.0
 70
   128
 71
   -13
 72
    10
 73
    11
 74
    12
  0
VERTEX
  5
94
330
7C
100
AcDbEntity
  8
3D-S-COLS-ANLY
370
     9
100
AcDbFaceRecord
 10
0.0
 20
0.0
 30
0.0
 70
   128
 71
   -10
 72
   -13
 73
    -6
  0
SEQEND
  5
95
330
7C
100
AcDbEntity
  8
3D-S-COLS-ANLY
370
     9
  0
POLYLINE
  5
96
330
7B
100
AcDbEntity
  8
3D-S-COLS-ANLY
370
     9
100
AcDbPolyFaceMesh
 66
     1
 10
0.0
 20
0.0
 30
0.0
 70
    64
 71
    16
 72
     9
1001
REVIT
1002
{
1070
     3
1000
142059
1002
}
  0
VERTEX
  5
97
330
96
100
AcDbEntity
  8
3D-S-COLS-ANLY
370
     9
100
AcDbVertex
100
AcDbPolyFaceMeshVertex
 10
-0.46875
 20
-2.499999940395354
 30
0.000000000001231
 70
   192
  0
VERTEX
  5
98
330
96
100
AcDbEntity
  8
3D-S-COLS-ANLY
370
     9
100
AcDbVertex
100
AcDbPolyFaceMeshVertex
 10
-0.46875
 20
-2.499999940395354
 30
29.625
 70
   192
  0
VERTEX
  5
99
330
96
100
AcDbEntity
  8
3D-S-COLS-ANLY
370
     9
100
AcDbVertex
100
AcDbPolyFaceMeshVertex
 10
-0.46875
 20
-2.487222254276275
 30
29.72205734252929
 70
   192
  0
VERTEX
  5
9A
330
96
100
AcDbEntity
  8
3D-S-COLS-ANLY
370
     9
100
AcDbVertex
100
AcDbPolyFaceMeshVertex
 10
-0.46875
 20
-2.449759483337401
 30
29.8125
 70
   192
  0
VERTEX
  5
9B
330
96
100
AcDbEntity
  8
3D-S-COLS-ANLY
370
     9
100
AcDbVertex
100
AcDbPolyFaceMeshVertex
 10
-0.46875
 20
-2.390165090560912
 30
29.89016532897949
 70
   192
  0
VERTEX
  5
9C
330
96
100
AcDbEntity
  8
3D-S-COLS-ANLY
370
     9
100
AcDbVertex
100
AcDbPolyFaceMeshVertex
 10
-0.46875
 20
-2.312499940395354
 30
29.94976043701172
 70
   192
  0
VERTEX
  5
9D
330
96
100
AcDbEntity
  8
3D-S-COLS-ANLY
370
     9
100
AcDbVertex
100
AcDbPolyFaceMeshVertex
 10
-0.46875
 20
-2.222057104110717
 30
29.98722267150879
 70
   192
  0
VERTEX
  5
9E
330
96
100
AcDbEntity
  8
3D-S-COLS-ANLY
370
     9
100
AcDbVertex
100
AcDbPolyFaceMeshVertex
 10
-0.46875
 20
-2.124999940395354
 30
30.0
 70
   192
  0
VERTEX
  5
9F
330
96
100
AcDbEntity
  8
3D-S-COLS-ANLY
370
     9
100
AcDbVertex
100
AcDbPolyFaceMeshVertex
 10
-0.46875
 20
-2.037347316741942
 30
29.98961162567138
 70
   192
  0
VERTEX
  5
A0
330
96
100
AcDbEntity
  8
3D-S-COLS-ANLY
370
     9
100
AcDbVertex
100
AcDbPolyFaceMeshVertex
 10
-0.46875
 20
-1.954550743103027
 30
29.95902442932129
 70
   192
  0
VERTEX
  5
A1
330
96
100
AcDbEntity
  8
3D-S-COLS-ANLY
370
     9
100
AcDbVertex
100
AcDbPolyFaceMeshVertex
 10
-0.46875
 20
-1.88119751214981
 30
29.90992927551269
 70
   192
  0
VERTEX
  5
A2
330
96
100
AcDbEntity
  8
3D-S-COLS-ANLY
370
     9
100
AcDbVertex
100
AcDbPolyFaceMeshVertex
 10
-0.46875
 20
-1.82135134935379
 30
29.84504985809326
 70
   192
  0
VERTEX
  5
A3
330
96
100
AcDbEntity
  8
3D-S-COLS-ANLY
370
     9
100
AcDbVertex
100
AcDbPolyFaceMeshVertex
 10
-0.46875
 20
-1.778327822685241
 30
29.76797962188721
 70
   192
  0
VERTEX
  5
A4
330
96
100
AcDbEntity
  8
3D-S-COLS-ANLY
370
     9
100
AcDbVertex
100
AcDbPolyFaceMeshVertex
 10
-0.46875
 20
-1.754510700702667
 30
29.68298721313476
 70
   192
  0
VERTEX
  5
A5
330
96
100
AcDbEntity
  8
3D-S-COLS-ANLY
370
     9
100
AcDbVertex
100
AcDbPolyFaceMeshVertex
 10
-0.46875
 20
2.499999940395354
 30
2.498035311698913
 70
   192
  0
VERTEX
  5
A6
330
96
100
AcDbEntity
  8
3D-S-COLS-ANLY
370
     9
100
AcDbVertex
100
AcDbPolyFaceMeshVertex
 10
-0.46875
 20
2.499999940395354
 30
0.000000000001303
 70
   192
  0
VERTEX
  5
A7
330
96
100
AcDbEntity
  8
3D-S-COLS-ANLY
370
     9
100
AcDbFaceRecord
 10
0.0
 20
0.0
 30
0.0
 70
   128
 71
   -14
 72
    -8
 73
    10
 74
   -11
  0
VERTEX
  5
A8
330
96
100
AcDbEntity
  8
3D-S-COLS-ANLY
370
     9
100
AcDbFaceRecord
 10
0.0
 20
0.0
 30
0.0
 70
   128
 71
    12
 72
    13
 73
   -14
 74
    11
  0
VERTEX
  5
A9
330
96
100
AcDbEntity
  8
3D-S-COLS-ANLY
370
     9
100
AcDbFaceRecord
 10
0.0
 20
0.0
 30
0.0
 70
   128
 71
    -2
 72
    14
 73
   -15
 74
     1
  0
VERTEX
  5
AA
330
96
100
AcDbEntity
  8
3D-S-COLS-ANLY
370
     9
100
AcDbFaceRecord
 10
0.0
 20
0.0
 30
0.0
 70
   128
 71
   -10
 72
     8
 73
     9
  0
VERTEX
  5
AB
330
96
100
AcDbEntity
  8
3D-S-COLS-ANLY
370
     9
100
AcDbFaceRecord
 10
0.0
 20
0.0
 30
0.0
 70
   128
 71
    15
 72
    16
 73
    -1
  0
VERTEX
  5
AC
330
96
100
AcDbEntity
  8
3D-S-COLS-ANLY
370
     9
100
AcDbFaceRecord
 10
0.0
 20
0.0
 30
0.0
 70
   128
 71
     2
 72
    -3
 73
    -5
 74
   -14
  0
VERTEX
  5
AD
330
96
100
AcDbEntity
  8
3D-S-COLS-ANLY
370
     9
100
AcDbFaceRecord
 10
0.0
 20
0.0
 30
0.0
 70
   128
 71
    -5
 72
     3
 73
     4
  0
VERTEX
  5
AE
330
96
100
AcDbEntity
  8
3D-S-COLS-ANLY
370
     9
100
AcDbFaceRecord
 10
0.0
 20
0.0
 30
0.0
 70
   128
 71
     7
 72
    -8
 73
     5
 74
     6
  0
VERTEX
  5
AF
330
96
100
AcDbEntity
  8
3D-S-COLS-ANLY
370
     9
100
AcDbFaceRecord
 10
0.0
 20
0.0
 30
0.0
 70
   128
 71
   -14
 72
    -5
 73
    -8
  0
SEQEND
  5
B0
330
96
100
AcDbEntity
  8
3D-S-COLS-ANLY
370
     9
  0
POLYLINE
  5
B1
330
7B
100
AcDbEntity
  8
3D-S-COLS-ANLY
370
     9
100
AcDbPolyFaceMesh
 66
     1
 10
0.0
 20
0.0
 30
0.0
 70
    64
 71
    14
 72
     6
1001
REVIT
1002
{
1070
     3
1000
142059
1002
}
  0
VERTEX
  5
B2
330
B1
100
AcDbEntity
  8
3D-S-COLS-ANLY
370
     9
100
AcDbVertex
100
AcDbPolyFaceMeshVertex
 10
0.46875
 20
-2.499999940395354
 30
29.625
 70
   192
  0
VERTEX
  5
B3
330
B1
100
AcDbEntity
  8
3D-S-COLS-ANLY
370
     9
100
AcDbVertex
100
AcDbPolyFaceMeshVertex
 10
0.46875
 20
-2.487222254276275
 30
29.72205734252929
 70
   192
  0
VERTEX
  5
B4
330
B1
100
AcDbEntity
  8
3D-S-COLS-ANLY
370
     9
100
AcDbVertex
100
AcDbPolyFaceMeshVertex
 10
0.46875
 20
-2.449759483337401
 30
29.8125
 70
   192
  0
VERTEX
  5
B5
330
B1
100
AcDbEntity
  8
3D-S-COLS-ANLY
370
     9
100
AcDbVertex
100
AcDbPolyFaceMeshVertex
 10
0.46875
 20
-2.390165090560912
 30
29.89016532897949
 70
   192
  0
VERTEX
  5
B6
330
B1
100
AcDbEntity
  8
3D-S-COLS-ANLY
370
     9
100
AcDbVertex
100
AcDbPolyFaceMeshVertex
 10
0.46875
 20
-2.312499940395354
 30
29.94976043701172
 70
   192
  0
VERTEX
  5
B7
330
B1
100
AcDbEntity
  8
3D-S-COLS-ANLY
370
     9
100
AcDbVertex
100
AcDbPolyFaceMeshVertex
 10
0.46875
 20
-2.222057104110717
 30
29.98722267150879
 70
   192
  0
VERTEX
  5
B8
330
B1
100
AcDbEntity
  8
3D-S-COLS-ANLY
370
     9
100
AcDbVertex
100
AcDbPolyFaceMeshVertex
 10
0.46875
 20
-2.124999940395354
 30
30.0
 70
   192
  0
VERTEX
  5
B9
330
B1
100
AcDbEntity
  8
3D-S-COLS-ANLY
370
     9
100
AcDbVertex
100
AcDbPolyFaceMeshVertex
 10
-0.46875
 20
-2.124999940395354
 30
30.0
 70
   192
  0
VERTEX
  5
BA
330
B1
100
AcDbEntity
  8
3D-S-COLS-ANLY
370
     9
100
AcDbVertex
100
AcDbPolyFaceMeshVertex
 10
-0.46875
 20
-2.222057104110717
 30
29.98722267150879
 70
   192
  0
VERTEX
  5
BB
330
B1
100
AcDbEntity
  8
3D-S-COLS-ANLY
370
     9
100
AcDbVertex
100
AcDbPolyFaceMeshVertex
 10
-0.46875
 20
-2.312499940395354
 30
29.94976043701172
 70
   192
  0
VERTEX
  5
BC
330
B1
100
AcDbEntity
  8
3D-S-COLS-ANLY
370
     9
100
AcDbVertex
100
AcDbPolyFaceMeshVertex
 10
-0.46875
 20
-2.390165090560912
 30
29.89016532897949
 70
   192
  0
VERTEX
  5
BD
330
B1
100
AcDbEntity
  8
3D-S-COLS-ANLY
370
     9
100
AcDbVertex
100
AcDbPolyFaceMeshVertex
 10
-0.46875
 20
-2.449759483337401
 30
29.8125
 70
   192
  0
VERTEX
  5
BE
330
B1
100
AcDbEntity
  8
3D-S-COLS-ANLY
370
     9
100
AcDbVertex
100
AcDbPolyFaceMeshVertex
 10
-0.46875
 20
-2.487222254276275
 30
29.72205734252929
 70
   192
  0
VERTEX
  5
BF
330
B1
100
AcDbEntity
  8
3D-S-COLS-ANLY
370
     9
100
AcDbVertex
100
AcDbPolyFaceMeshVertex
 10
-0.46875
 20
-2.499999940395354
 30
29.625
 70
   192
  0
VERTEX
  5
C0
330
B1
100
AcDbEntity
  8
3D-S-COLS-ANLY
370
     9
100
AcDbFaceRecord
 10
0.0
 20
0.0
 30
0.0
 70
   128
 71
     7
 72
     8
 73
    -9
 74
     6
  0
VERTEX
  5
C1
330
B1
100
AcDbEntity
  8
3D-S-COLS-ANLY
370
     9
100
AcDbFaceRecord
 10
0.0
 20
0.0
 30
0.0
 70
   128
 71
    -6
 72
     9
 73
   -10
 74
     5
  0
VERTEX
  5
C2
330
B1
100
AcDbEntity
  8
3D-S-COLS-ANLY
370
     9
100
AcDbFaceRecord
 10
0.0
 20
0.0
 30
0.0
 70
   128
 71
   -11
 72
     4
 73
    -5
 74
    10
  0
VERTEX
  5
C3
330
B1
100
AcDbEntity
  8
3D-S-COLS-ANLY
370
     9
100
AcDbFaceRecord
 10
0.0
 20
0.0
 30
0.0
 70
   128
 71
    -3
 72
    12
 73
   -13
 74
     2
  0
VERTEX
  5
C4
330
B1
100
AcDbEntity
  8
3D-S-COLS-ANLY
370
     9
100
AcDbFaceRecord
 10
0.0
 20
0.0
 30
0.0
 70
   128
 71
    -2
 72
    13
 73
    14
 74
     1
  0
VERTEX
  5
C5
330
B1
100
AcDbEntity
  8
3D-S-COLS-ANLY
370
     9
100
AcDbFaceRecord
 10
0.0
 20
0.0
 30
0.0
 70
   128
 71
   -12
 72
     3
 73
    -4
 74
    11
  0
SEQEND
  5
C6
330
B1
100
AcDbEntity
  8
3D-S-COLS-ANLY
370
     9
  0
POLYLINE
  5
C7
330
7B
100
AcDbEntity
  8
3D-S-COLS-ANLY
370
     9
100
AcDbPolyFaceMesh
 66
     1
 10
0.0
 20
0.0
 30
0.0
 70
    64
 71
     4
 72
     1
1001
REVIT
1002
{
1070
     3
1000
142059
1002
}
  0
VERTEX
  5
C8
330
C7
100
AcDbEntity
  8
3D-S-COLS-ANLY
370
     9
100
AcDbVertex
100
AcDbPolyFaceMeshVertex
 10
0.46875
 20
2.499999940395354
 30
0.000000000001303
 70
   192
  0
VERTEX
  5
C9
330
C7
100
AcDbEntity
  8
3D-S-COLS-ANLY
370
     9
100
AcDbVertex
100
AcDbPolyFaceMeshVertex
 10
0.46875
 20
-2.499999940395354
 30
0.0000000000012337
 70
   192
  0
VERTEX
  5
CA
330
C7
100
AcDbEntity
  8
3D-S-COLS-ANLY
370
     9
100
AcDbVertex
100
AcDbPolyFaceMeshVertex
 10
-0.46875
 20
-2.499999940395354
 30
0.0000000000012337
 70
   192
  0
VERTEX
  5
CB
330
C7
100
AcDbEntity
  8
3D-S-COLS-ANLY
370
     9
100
AcDbVertex
100
AcDbPolyFaceMeshVertex
 10
-0.46875
 20
2.499999940395354
 30
0.000000000001303
 70
   192
  0
VERTEX
  5
CC
330
C7
100
AcDbEntity
  8
3D-S-COLS-ANLY
370
     9
100
AcDbFaceRecord
 10
0.0
 20
0.0
 30
0.0
 70
   128
 71
     1
 72
     2
 73
     3
 74
     4
  0
SEQEND
  5
CD
330
C7
100
AcDbEntity
  8
3D-S-COLS-ANLY
370
     9
  0
POLYLINE
  5
CE
330
7B
100
AcDbEntity
  8
3D-S-COLS-ANLY
370
     9
100
AcDbPolyFaceMesh
 66
     1
 10
0.0
 20
0.0
 30
0.0
 70
    64
 71
     4
 72
     1
1001
REVIT
1002
{
1070
     3
1000
142059
1002
}
  0
VERTEX
  5
CF
330
CE
100
AcDbEntity
  8
3D-S-COLS-ANLY
370
     9
100
AcDbVertex
100
AcDbPolyFaceMeshVertex
 10
0.46875
 20
2.499999940395354
 30
2.498035311698913
 70
   192
  0
VERTEX
  5
D0
330
CE
100
AcDbEntity
  8
3D-S-COLS-ANLY
370
     9
100
AcDbVertex
100
AcDbPolyFaceMeshVertex
 10
0.46875
 20
2.499999940395354
 30
0.000000000001303
 70
   192
  0
VERTEX
  5
D1
330
CE
100
AcDbEntity
  8
3D-S-COLS-ANLY
370
     9
100
AcDbVertex
100
AcDbPolyFaceMeshVertex
 10
-0.46875
 20
2.499999940395354
 30
0.000000000001303
 70
   192
  0
VERTEX
  5
D2
330
CE
100
AcDbEntity
  8
3D-S-COLS-ANLY
370
     9
100
AcDbVertex
100
AcDbPolyFaceMeshVertex
 10
-0.46875
 20
2.499999940395354
 30
2.498035311698913
 70
   192
  0
VERTEX
  5
D3
330
CE
100
AcDbEntity
  8
3D-S-COLS-ANLY
370
     9
100
AcDbFaceRecord
 10
0.0
 20
0.0
 30
0.0
 70
   128
 71
     1
 72
     2
 73
     3
 74
     4
  0
SEQEND
  5
D4
330
CE
100
AcDbEntity
  8
3D-S-COLS-ANLY
370
     9
  0
POLYLINE
  5
D5
330
7B
100
AcDbEntity
  8
3D-S-COLS-ANLY
370
     9
100
AcDbPolyFaceMesh
 66
     1
 10
0.0
 20
0.0
 30
0.0
 70
    64
 71
     4
 72
     1
1001
REVIT
1002
{
1070
     3
1000
142059
1002
}
  0
VERTEX
  5
D6
330
D5
100
AcDbEntity
  8
3D-S-COLS-ANLY
370
     9
100
AcDbVertex
100
AcDbPolyFaceMeshVertex
 10
0.46875
 20
2.500427842140197
 30
2.498102188110351
 70
   192
  0
VERTEX
  5
D7
330
D5
100
AcDbEntity
  8
3D-S-COLS-ANLY
370
     9
100
AcDbVertex
100
AcDbPolyFaceMeshVertex
 10
-0.46875
 20
2.500427842140197
 30
2.498102188110351
 70
   192
  0
VERTEX
  5
D8
330
D5
100
AcDbEntity
  8
3D-S-COLS-ANLY
370
     9
100
AcDbVertex
100
AcDbPolyFaceMeshVertex
 10
-0.46875
 20
-1.754510700702667
 30
29.68298721313476
 70
   192
  0
VERTEX
  5
D9
330
D5
100
AcDbEntity
  8
3D-S-COLS-ANLY
370
     9
100
AcDbVertex
100
AcDbPolyFaceMeshVertex
 10
0.46875
 20
-1.754510700702667
 30
29.68298721313476
 70
   192
  0
VERTEX
  5
DA
330
D5
100
AcDbEntity
  8
3D-S-COLS-ANLY
370
     9
100
AcDbFaceRecord
 10
0.0
 20
0.0
 30
0.0
 70
   128
 71
     4
 72
     1
 73
     2
 74
     3
  0
SEQEND
  5
DB
330
D5
100
AcDbEntity
  8
3D-S-COLS-ANLY
370
     9
  0
POLYLINE
  5
DC
330
7B
100
AcDbEntity
  8
3D-S-COLS-ANLY
370
     9
100
AcDbPolyFaceMesh
 66
     1
 10
0.0
 20
0.0
 30
0.0
 70
    64
 71
    14
 72
     6
1001
REVIT
1002
{
1070
     3
1000
142059
1002
}
  0
VERTEX
  5
DD
330
DC
100
AcDbEntity
  8
3D-S-COLS-ANLY
370
     9
100
AcDbVertex
100
AcDbPolyFaceMeshVertex
 10
0.46875
 20
-2.124999940395354
 30
30.0
 70
   192
  0
VERTEX
  5
DE
330
DC
100
AcDbEntity
  8
3D-S-COLS-ANLY
370
     9
100
AcDbVertex
100
AcDbPolyFaceMeshVertex
 10
0.46875
 20
-2.037347316741942
 30
29.98961162567138
 70
   192
  0
VERTEX
  5
DF
330
DC
100
AcDbEntity
  8
3D-S-COLS-ANLY
370
     9
100
AcDbVertex
100
AcDbPolyFaceMeshVertex
 10
0.46875
 20
-1.954550743103027
 30
29.95902442932129
 70
   192
  0
VERTEX
  5
E0
330
DC
100
AcDbEntity
  8
3D-S-COLS-ANLY
370
     9
100
AcDbVertex
100
AcDbPolyFaceMeshVertex
 10
0.46875
 20
-1.88119751214981
 30
29.90992927551269
 70
   192
  0
VERTEX
  5
E1
330
DC
100
AcDbEntity
  8
3D-S-COLS-ANLY
370
     9
100
AcDbVertex
100
AcDbPolyFaceMeshVertex
 10
0.46875
 20
-1.82135134935379
 30
29.84504985809326
 70
   192
  0
VERTEX
  5
E2
330
DC
100
AcDbEntity
  8
3D-S-COLS-ANLY
370
     9
100
AcDbVertex
100
AcDbPolyFaceMeshVertex
 10
0.46875
 20
-1.778327822685241
 30
29.76797962188721
 70
   192
  0
VERTEX
  5
E3
330
DC
100
AcDbEntity
  8
3D-S-COLS-ANLY
370
     9
100
AcDbVertex
100
AcDbPolyFaceMeshVertex
 10
0.46875
 20
-1.754510700702667
 30
29.68298721313476
 70
   192
  0
VERTEX
  5
E4
330
DC
100
AcDbEntity
  8
3D-S-COLS-ANLY
370
     9
100
AcDbVertex
100
AcDbPolyFaceMeshVertex
 10
-0.46875
 20
-1.754510700702667
 30
29.68298721313476
 70
   192
  0
VERTEX
  5
E5
330
DC
100
AcDbEntity
  8
3D-S-COLS-ANLY
370
     9
100
AcDbVertex
100
AcDbPolyFaceMeshVertex
 10
-0.46875
 20
-1.778327822685241
 30
29.76797962188721
 70
   192
  0
VERTEX
  5
E6
330
DC
100
AcDbEntity
  8
3D-S-COLS-ANLY
370
     9
100
AcDbVertex
100
AcDbPolyFaceMeshVertex
 10
-0.46875
 20
-1.82135134935379
 30
29.84504985809326
 70
   192
  0
VERTEX
  5
E7
330
DC
100
AcDbEntity
  8
3D-S-COLS-ANLY
370
     9
100
AcDbVertex
100
AcDbPolyFaceMeshVertex
 10
-0.46875
 20
-1.88119751214981
 30
29.90992927551269
 70
   192
  0
VERTEX
  5
E8
330
DC
100
AcDbEntity
  8
3D-S-COLS-ANLY
370
     9
100
AcDbVertex
100
AcDbPolyFaceMeshVertex
 10
-0.46875
 20
-1.954550743103027
 30
29.95902442932129
 70
   192
  0
VERTEX
  5
E9
330
DC
100
AcDbEntity
  8
3D-S-COLS-ANLY
370
     9
100
AcDbVertex
100
AcDbPolyFaceMeshVertex
 10
-0.46875
 20
-2.037347316741942
 30
29.98961162567138
 70
   192
  0
VERTEX
  5
EA
330
DC
100
AcDbEntity
  8
3D-S-COLS-ANLY
370
     9
100
AcDbVertex
100
AcDbPolyFaceMeshVertex
 10
-0.46875
 20
-2.124999940395354
 30
30.0
 70
   192
  0
VERTEX
  5
EB
330
DC
100
AcDbEntity
  8
3D-S-COLS-ANLY
370
     9
100
AcDbFaceRecord
 10
0.0
 20
0.0
 30
0.0
 70
   128
 71
     7
 72
     8
 73
    -9
 74
     6
  0
VERTEX
  5
EC
330
DC
100
AcDbEntity
  8
3D-S-COLS-ANLY
370
     9
100
AcDbFaceRecord
 10
0.0
 20
0.0
 30
0.0
 70
   128
 71
    -6
 72
     9
 73
   -10
 74
     5
  0
VERTEX
  5
ED
330
DC
100
AcDbEntity
  8
3D-S-COLS-ANLY
370
     9
100
AcDbFaceRecord
 10
0.0
 20
0.0
 30
0.0
 70
   128
 71
   -11
 72
     4
 73
    -5
 74
    10
  0
VERTEX
  5
EE
330
DC
100
AcDbEntity
  8
3D-S-COLS-ANLY
370
     9
100
AcDbFaceRecord
 10
0.0
 20
0.0
 30
0.0
 70
   128
 71
    -3
 72
    12
 73
   -13
 74
     2
  0
VERTEX
  5
EF
330
DC
100
AcDbEntity
  8
3D-S-COLS-ANLY
370
     9
100
AcDbFaceRecord
 10
0.0
 20
0.0
 30
0.0
 70
   128
 71
    -2
 72
    13
 73
    14
 74
     1
  0
VERTEX
  5
F0
330
DC
100
AcDbEntity
  8
3D-S-COLS-ANLY
370
     9
100
AcDbFaceRecord
 10
0.0
 20
0.0
 30
0.0
 70
   128
 71
   -12
 72
     3
 73
    -4
 74
    11
  0
SEQEND
  5
F1
330
DC
100
AcDbEntity
  8
3D-S-COLS-ANLY
370
     9
  0
POLYLINE
  5
F2
330
7B
100
AcDbEntity
  8
3D-S-COLS-ANLY
370
     9
100
AcDbPolyFaceMesh
 66
     1
 10
0.0
 20
0.0
 30
0.0
 70
    64
 71
     4
 72
     1
1001
REVIT
1002
{
1070
     3
1000
142059
1002
}
  0
VERTEX
  5
F3
330
F2
100
AcDbEntity
  8
3D-S-COLS-ANLY
370
     9
100
AcDbVertex
100
AcDbPolyFaceMeshVertex
 10
0.46875
 20
-2.499999940395354
 30
0.000000000001231
 70
   192
  0
VERTEX
  5
F4
330
F2
100
AcDbEntity
  8
3D-S-COLS-ANLY
370
     9
100
AcDbVertex
100
AcDbPolyFaceMeshVertex
 10
0.46875
 20
-2.499999940395354
 30
29.625
 70
   192
  0
VERTEX
  5
F5
330
F2
100
AcDbEntity
  8
3D-S-COLS-ANLY
370
     9
100
AcDbVertex
100
AcDbPolyFaceMeshVertex
 10
-0.46875
 20
-2.499999940395354
 30
29.625
 70
   192
  0
VERTEX
  5
F6
330
F2
100
AcDbEntity
  8
3D-S-COLS-ANLY
370
     9
100
AcDbVertex
100
AcDbPolyFaceMeshVertex
 10
-0.46875
 20
-2.499999940395354
 30
0.000000000001231
 70
   192
  0
VERTEX
  5
F7
330
F2
100
AcDbEntity
  8
3D-S-COLS-ANLY
370
     9
100
AcDbFaceRecord
 10
0.0
 20
0.0
 30
0.0
 70
   128
 71
     1
 72
     2
 73
     3
 74
     4
  0
SEQEND
  5
F8
330
F2
100
AcDbEntity
  8
3D-S-COLS-ANLY
370
     9
  0
POLYLINE
  5
F9
330
7B
100
AcDbEntity
  8
3D-S-COLS-ANLY
370
     9
100
AcDbPolyFaceMesh
 66
     1
 10
0.0
 20
0.0
 30
0.0
 70
    64
 71
    14
 72
     7
1001
REVIT
1002
{
1070
     3
1000
144120
1002
}
  0
VERTEX
  5
FA
330
F9
100
AcDbEntity
  8
3D-S-COLS-ANLY
370
     9
100
AcDbVertex
100
AcDbPolyFaceMeshVertex
 10
0.46875
 20
-4.722607970237731
 30
0.9839555919170377
 70
   192
  0
VERTEX
  5
FB
330
F9
100
AcDbEntity
  8
3D-S-COLS-ANLY
370
     9
100
AcDbVertex
100
AcDbPolyFaceMeshVertex
 10
0.46875
 20
-4.91659641265869
 30
0.8563673794269559
 70
   192
  0
VERTEX
  5
FC
330
F9
100
AcDbEntity
  8
3D-S-COLS-ANLY
370
     9
100
AcDbVertex
100
AcDbPolyFaceMeshVertex
 10
0.46875
 20
-5.134779453277587
 30
0.7769551277160644
 70
   192
  0
VERTEX
  5
FD
330
F9
100
AcDbEntity
  8
3D-S-COLS-ANLY
370
     9
100
AcDbVertex
100
AcDbPolyFaceMeshVertex
 10
0.46875
 20
-5.365395426750182
 30
0.75
 70
   192
  0
VERTEX
  5
FE
330
F9
100
AcDbEntity
  8
3D-S-COLS-ANLY
370
     9
100
AcDbVertex
100
AcDbPolyFaceMeshVertex
 10
0.46875
 20
-7.46894860267639
 30
0.75
 70
   192
  0
VERTEX
  5
FF
330
F9
100
AcDbEntity
  8
3D-S-COLS-ANLY
370
     9
100
AcDbVertex
100
AcDbPolyFaceMeshVertex
 10
0.46875
 20
-7.46894860267639
 30
0.000000000001247
 70
   192
  0
VERTEX
  5
100
330
F9
100
AcDbEntity
  8
3D-S-COLS-ANLY
370
     9
100
AcDbVertex
100
AcDbPolyFaceMeshVertex
 10
0.46875
 20
7.531051397323607
 30
0.0000000000012736
 70
   192
  0
VERTEX
  5
101
330
F9
100
AcDbEntity
  8
3D-S-COLS-ANLY
370
     9
100
AcDbVertex
100
AcDbPolyFaceMeshVertex
 10
0.46875
 20
7.531051397323607
 30
0.75
 70
   192
  0
VERTEX
  5
102
330
F9
100
AcDbEntity
  8
3D-S-COLS-ANLY
370
     9
100
AcDbVertex
100
AcDbPolyFaceMeshVertex
 10
0.46875
 20
5.42749786376953
 30
0.75
 70
   192
  0
VERTEX
  5
103
330
F9
100
AcDbEntity
  8
3D-S-COLS-ANLY
370
     9
100
AcDbVertex
100
AcDbPolyFaceMeshVertex
 10
0.46875
 20
5.196881890296935
 30
0.7769551277160644
 70
   192
  0
VERTEX
  5
104
330
F9
100
AcDbEntity
  8
3D-S-COLS-ANLY
370
     9
100
AcDbVertex
100
AcDbPolyFaceMeshVertex
 10
0.46875
 20
4.97869849205017
 30
0.8563673794269559
 70
   192
  0
VERTEX
  5
105
330
F9
100
AcDbEntity
  8
3D-S-COLS-ANLY
370
     9
100
AcDbVertex
100
AcDbPolyFaceMeshVertex
 10
0.46875
 20
4.78471004962921
 30
0.9839555919170377
 70
   192
  0
VERTEX
  5
106
330
F9
100
AcDbEntity
  8
3D-S-COLS-ANLY
370
     9
100
AcDbVertex
100
AcDbPolyFaceMeshVertex
 10
0.46875
 20
2.501257359981536
 30
2.899999916553496
 70
   192
  0
VERTEX
  5
107
330
F9
100
AcDbEntity
  8
3D-S-COLS-ANLY
370
     9
100
AcDbVertex
100
AcDbPolyFaceMeshVertex
 10
0.46875
 20
-2.439154922962188
 30
2.899999916553496
 70
   192
  0
VERTEX
  5
108
330
F9
100
AcDbEntity
  8
3D-S-COLS-ANLY
370
     9
100
AcDbFaceRecord
 10
0.0
 20
0.0
 30
0.0
 70
   128
 71
     8
 72
    -9
 73
     7
  0
VERTEX
  5
109
330
F9
100
AcDbEntity
  8
3D-S-COLS-ANLY
370
     9
100
AcDbFaceRecord
 10
0.0
 20
0.0
 30
0.0
 70
   128
 71
    -7
 72
     9
 73
   -10
 74
    -3
  0
VERTEX
  5
10A
330
F9
100
AcDbEntity
  8
3D-S-COLS-ANLY
370
     9
100
AcDbFaceRecord
 10
0.0
 20
0.0
 30
0.0
 70
   128
 71
    10
 72
   -11
 73
     2
 74
    -3
  0
VERTEX
  5
10B
330
F9
100
AcDbEntity
  8
3D-S-COLS-ANLY
370
     9
100
AcDbFaceRecord
 10
0.0
 20
0.0
 30
0.0
 70
   128
 71
    -1
 72
    12
 73
    13
 74
    14
  0
VERTEX
  5
10C
330
F9
100
AcDbEntity
  8
3D-S-COLS-ANLY
370
     9
100
AcDbFaceRecord
 10
0.0
 20
0.0
 30
0.0
 70
   128
 71
    -2
 72
    11
 73
   -12
 74
     1
  0
VERTEX
  5
10D
330
F9
100
AcDbEntity
  8
3D-S-COLS-ANLY
370
     9
100
AcDbFaceRecord
 10
0.0
 20
0.0
 30
0.0
 70
   128
 71
     5
 72
    -6
 73
     4
  0
VERTEX
  5
10E
330
F9
100
AcDbEntity
  8
3D-S-COLS-ANLY
370
     9
100
AcDbFaceRecord
 10
0.0
 20
0.0
 30
0.0
 70
   128
 71
     3
 72
    -4
 73
     6
 74
    -7
  0
SEQEND
  5
10F
330
F9
100
AcDbEntity
  8
3D-S-COLS-ANLY
370
     9
  0
POLYLINE
  5
110
330
7B
100
AcDbEntity
  8
3D-S-COLS-ANLY
370
     9
100
AcDbPolyFaceMesh
 66
     1
 10
0.0
 20
0.0
 30
0.0
 70
    64
 71
    14
 72
     7
1001
REVIT
1002
{
1070
     3
1000
144120
1002
}
  0
VERTEX
  5
111
330
110
100
AcDbEntity
  8
3D-S-COLS-ANLY
370
     9
100
AcDbVertex
100
AcDbPolyFaceMeshVertex
 10
-0.46875
 20
-4.722607970237731
 30
0.9839555919170377
 70
   192
  0
VERTEX
  5
112
330
110
100
AcDbEntity
  8
3D-S-COLS-ANLY
370
     9
100
AcDbVertex
100
AcDbPolyFaceMeshVertex
 10
-0.46875
 20
-2.439154922962188
 30
2.899999916553496
 70
   192
  0
VERTEX
  5
113
330
110
100
AcDbEntity
  8
3D-S-COLS-ANLY
370
     9
100
AcDbVertex
100
AcDbPolyFaceMeshVertex
 10
-0.46875
 20
2.501257359981536
 30
2.899999916553496
 70
   192
  0
VERTEX
  5
114
330
110
100
AcDbEntity
  8
3D-S-COLS-ANLY
370
     9
100
AcDbVertex
100
AcDbPolyFaceMeshVertex
 10
-0.46875
 20
4.78471004962921
 30
0.9839555919170377
 70
   192
  0
VERTEX
  5
115
330
110
100
AcDbEntity
  8
3D-S-COLS-ANLY
370
     9
100
AcDbVertex
100
AcDbPolyFaceMeshVertex
 10
-0.46875
 20
4.97869849205017
 30
0.8563673794269559
 70
   192
  0
VERTEX
  5
116
330
110
100
AcDbEntity
  8
3D-S-COLS-ANLY
370
     9
100
AcDbVertex
100
AcDbPolyFaceMeshVertex
 10
-0.46875
 20
5.196881890296935
 30
0.7769551277160644
 70
   192
  0
VERTEX
  5
117
330
110
100
AcDbEntity
  8
3D-S-COLS-ANLY
370
     9
100
AcDbVertex
100
AcDbPolyFaceMeshVertex
 10
-0.46875
 20
5.42749786376953
 30
0.75
 70
   192
  0
VERTEX
  5
118
330
110
100
AcDbEntity
  8
3D-S-COLS-ANLY
370
     9
100
AcDbVertex
100
AcDbPolyFaceMeshVertex
 10
-0.46875
 20
7.531051397323607
 30
0.75
 70
   192
  0
VERTEX
  5
119
330
110
100
AcDbEntity
  8
3D-S-COLS-ANLY
370
     9
100
AcDbVertex
100
AcDbPolyFaceMeshVertex
 10
-0.46875
 20
7.531051397323607
 30
0.0000000000012736
 70
   192
  0
VERTEX
  5
11A
330
110
100
AcDbEntity
  8
3D-S-COLS-ANLY
370
     9
100
AcDbVertex
100
AcDbPolyFaceMeshVertex
 10
-0.46875
 20
-7.46894860267639
 30
0.000000000001247
 70
   192
  0
VERTEX
  5
11B
330
110
100
AcDbEntity
  8
3D-S-COLS-ANLY
370
     9
100
AcDbVertex
100
AcDbPolyFaceMeshVertex
 10
-0.46875
 20
-7.46894860267639
 30
0.75
 70
   192
  0
VERTEX
  5
11C
330
110
100
AcDbEntity
  8
3D-S-COLS-ANLY
370
     9
100
AcDbVertex
100
AcDbPolyFaceMeshVertex
 10
-0.46875
 20
-5.365395426750182
 30
0.75
 70
   192
  0
VERTEX
  5
11D
330
110
100
AcDbEntity
  8
3D-S-COLS-ANLY
370
     9
100
AcDbVertex
100
AcDbPolyFaceMeshVertex
 10
-0.46875
 20
-5.134779453277587
 30
0.7769551277160644
 70
   192
  0
VERTEX
  5
11E
330
110
100
AcDbEntity
  8
3D-S-COLS-ANLY
370
     9
100
AcDbVertex
100
AcDbPolyFaceMeshVertex
 10
-0.46875
 20
-4.91659641265869
 30
0.8563673794269559
 70
   192
  0
VERTEX
  5
11F
330
110
100
AcDbEntity
  8
3D-S-COLS-ANLY
370
     9
100
AcDbFaceRecord
 10
0.0
 20
0.0
 30
0.0
 70
   128
 71
    -9
 72
     7
 73
     8
  0
VERTEX
  5
120
330
110
100
AcDbEntity
  8
3D-S-COLS-ANLY
370
     9
100
AcDbFaceRecord
 10
0.0
 20
0.0
 30
0.0
 70
   128
 71
     6
 72
    -7
 73
    -9
 74
   -13
  0
VERTEX
  5
121
330
110
100
AcDbEntity
  8
3D-S-COLS-ANLY
370
     9
100
AcDbFaceRecord
 10
0.0
 20
0.0
 30
0.0
 70
   128
 71
   -14
 72
     5
 73
    -6
 74
    13
  0
VERTEX
  5
122
330
110
100
AcDbEntity
  8
3D-S-COLS-ANLY
370
     9
100
AcDbFaceRecord
 10
0.0
 20
0.0
 30
0.0
 70
   128
 71
     3
 72
    -4
 73
     1
 74
     2
  0
VERTEX
  5
123
330
110
100
AcDbEntity
  8
3D-S-COLS-ANLY
370
     9
100
AcDbFaceRecord
 10
0.0
 20
0.0
 30
0.0
 70
   128
 71
     4
 72
    -5
 73
    14
 74
    -1
  0
VERTEX
  5
124
330
110
100
AcDbEntity
  8
3D-S-COLS-ANLY
370
     9
100
AcDbFaceRecord
 10
0.0
 20
0.0
 30
0.0
 70
   128
 71
   -12
 72
    10
 73
    11
  0
VERTEX
  5
125
330
110
100
AcDbEntity
  8
3D-S-COLS-ANLY
370
     9
100
AcDbFaceRecord
 10
0.0
 20
0.0
 30
0.0
 70
   128
 71
   -10
 72
    12
 73
   -13
 74
     9
  0
SEQEND
  5
126
330
110
100
AcDbEntity
  8
3D-S-COLS-ANLY
370
     9
  0
POLYLINE
  5
127
330
7B
100
AcDbEntity
  8
3D-S-COLS-ANLY
370
     9
100
AcDbPolyFaceMesh
 66
     1
 10
0.0
 20
0.0
 30
0.0
 70
    64
 71
     8
 72
     3
1001
REVIT
1002
{
1070
     3
1000
144120
1002
}
  0
VERTEX
  5
128
330
127
100
AcDbEntity
  8
3D-S-COLS-ANLY
370
     9
100
AcDbVertex
100
AcDbPolyFaceMeshVertex
 10
0.46875
 20
-5.365395426750182
 30
0.75
 70
   192
  0
VERTEX
  5
129
330
127
100
AcDbEntity
  8
3D-S-COLS-ANLY
370
     9
100
AcDbVertex
100
AcDbPolyFaceMeshVertex
 10
0.46875
 20
-5.134779453277587
 30
0.7769551277160644
 70
   192
  0
VERTEX
  5
12A
330
127
100
AcDbEntity
  8
3D-S-COLS-ANLY
370
     9
100
AcDbVertex
100
AcDbPolyFaceMeshVertex
 10
0.46875
 20
-4.91659641265869
 30
0.8563673794269559
 70
   192
  0
VERTEX
  5
12B
330
127
100
AcDbEntity
  8
3D-S-COLS-ANLY
370
     9
100
AcDbVertex
100
AcDbPolyFaceMeshVertex
 10
0.46875
 20
-4.722607970237731
 30
0.9839555919170377
 70
   192
  0
VERTEX
  5
12C
330
127
100
AcDbEntity
  8
3D-S-COLS-ANLY
370
     9
100
AcDbVertex
100
AcDbPolyFaceMeshVertex
 10
-0.46875
 20
-4.722607970237731
 30
0.9839555919170377
 70
   192
  0
VERTEX
  5
12D
330
127
100
AcDbEntity
  8
3D-S-COLS-ANLY
370
     9
100
AcDbVertex
100
AcDbPolyFaceMeshVertex
 10
-0.46875
 20
-4.91659641265869
 30
0.8563673794269559
 70
   192
  0
VERTEX
  5
12E
330
127
100
AcDbEntity
  8
3D-S-COLS-ANLY
370
     9
100
AcDbVertex
100
AcDbPolyFaceMeshVertex
 10
-0.46875
 20
-5.134779453277587
 30
0.7769551277160644
 70
   192
  0
VERTEX
  5
12F
330
127
100
AcDbEntity
  8
3D-S-COLS-ANLY
370
     9
100
AcDbVertex
100
AcDbPolyFaceMeshVertex
 10
-0.46875
 20
-5.365395426750182
 30
0.75
 70
   192
  0
VERTEX
  5
130
330
127
100
AcDbEntity
  8
3D-S-COLS-ANLY
370
     9
100
AcDbFaceRecord
 10
0.0
 20
0.0
 30
0.0
 70
   128
 71
    -6
 72
     3
 73
     4
 74
     5
  0
VERTEX
  5
131
330
127
100
AcDbEntity
  8
3D-S-COLS-ANLY
370
     9
100
AcDbFaceRecord
 10
0.0
 20
0.0
 30
0.0
 70
   128
 71
    -3
 72
     6
 73
    -7
 74
     2
  0
VERTEX
  5
132
330
127
100
AcDbEntity
  8
3D-S-COLS-ANLY
370
     9
100
AcDbFaceRecord
 10
0.0
 20
0.0
 30
0.0
 70
   128
 71
     8
 72
     1
 73
    -2
 74
     7
  0
SEQEND
  5
133
330
127
100
AcDbEntity
  8
3D-S-COLS-ANLY
370
     9
  0
POLYLINE
  5
134
330
7B
100
AcDbEntity
  8
3D-S-COLS-ANLY
370
     9
100
AcDbPolyFaceMesh
 66
     1
 10
0.0
 20
0.0
 30
0.0
 70
    64
 71
     4
 72
     1
1001
REVIT
1002
{
1070
     3
1000
144120
1002
}
  0
VERTEX
  5
135
330
134
100
AcDbEntity
  8
3D-S-COLS-ANLY
370
     9
100
AcDbVertex
100
AcDbPolyFaceMeshVertex
 10
0.46875
 20
-7.46894860267639
 30
0.75
 70
   192
  0
VERTEX
  5
136
330
134
100
AcDbEntity
  8
3D-S-COLS-ANLY
370
     9
100
AcDbVertex
100
AcDbPolyFaceMeshVertex
 10
0.46875
 20
-5.365395426750182
 30
0.75
 70
   192
  0
VERTEX
  5
137
330
134
100
AcDbEntity
  8
3D-S-COLS-ANLY
370
     9
100
AcDbVertex
100
AcDbPolyFaceMeshVertex
 10
-0.46875
 20
-5.365395426750182
 30
0.75
 70
   192
  0
VERTEX
  5
138
330
134
100
AcDbEntity
  8
3D-S-COLS-ANLY
370
     9
100
AcDbVertex
100
AcDbPolyFaceMeshVertex
 10
-0.46875
 20
-7.46894860267639
 30
0.75
 70
   192
  0
VERTEX
  5
139
330
134
100
AcDbEntity
  8
3D-S-COLS-ANLY
370
     9
100
AcDbFaceRecord
 10
0.0
 20
0.0
 30
0.0
 70
   128
 71
     1
 72
     2
 73
     3
 74
     4
  0
SEQEND
  5
13A
330
134
100
AcDbEntity
  8
3D-S-COLS-ANLY
370
     9
  0
POLYLINE
  5
13B
330
7B
100
AcDbEntity
  8
3D-S-COLS-ANLY
370
     9
100
AcDbPolyFaceMesh
 66
     1
 10
0.0
 20
0.0
 30
0.0
 70
    64
 71
     4
 72
     1
1001
REVIT
1002
{
1070
     3
1000
144120
1002
}
  0
VERTEX
  5
13C
330
13B
100
AcDbEntity
  8
3D-S-COLS-ANLY
370
     9
100
AcDbVertex
100
AcDbPolyFaceMeshVertex
 10
0.46875
 20
-7.46894860267639
 30
0.000000000001245
 70
   192
  0
VERTEX
  5
13D
330
13B
100
AcDbEntity
  8
3D-S-COLS-ANLY
370
     9
100
AcDbVertex
100
AcDbPolyFaceMeshVertex
 10
0.46875
 20
-7.46894860267639
 30
0.75
 70
   192
  0
VERTEX
  5
13E
330
13B
100
AcDbEntity
  8
3D-S-COLS-ANLY
370
     9
100
AcDbVertex
100
AcDbPolyFaceMeshVertex
 10
-0.46875
 20
-7.46894860267639
 30
0.75
 70
   192
  0
VERTEX
  5
13F
330
13B
100
AcDbEntity
  8
3D-S-COLS-ANLY
370
     9
100
AcDbVertex
100
AcDbPolyFaceMeshVertex
 10
-0.46875
 20
-7.46894860267639
 30
0.000000000001245
 70
   192
  0
VERTEX
  5
140
330
13B
100
AcDbEntity
  8
3D-S-COLS-ANLY
370
     9
100
AcDbFaceRecord
 10
0.0
 20
0.0
 30
0.0
 70
   128
 71
     1
 72
     2
 73
     3
 74
     4
  0
SEQEND
  5
141
330
13B
100
AcDbEntity
  8
3D-S-COLS-ANLY
370
     9
  0
POLYLINE
  5
142
330
7B
100
AcDbEntity
  8
3D-S-COLS-ANLY
370
     9
100
AcDbPolyFaceMesh
 66
     1
 10
0.0
 20
0.0
 30
0.0
 70
    64
 71
     4
 72
     1
1001
REVIT
1002
{
1070
     3
1000
144120
1002
}
  0
VERTEX
  5
143
330
142
100
AcDbEntity
  8
3D-S-COLS-ANLY
370
     9
100
AcDbVertex
100
AcDbPolyFaceMeshVertex
 10
0.46875
 20
7.531051397323607
 30
0.0000000000012733
 70
   192
  0
VERTEX
  5
144
330
142
100
AcDbEntity
  8
3D-S-COLS-ANLY
370
     9
100
AcDbVertex
100
AcDbPolyFaceMeshVertex
 10
0.46875
 20
-7.46894860267639
 30
0.000000000001245
 70
   192
  0
VERTEX
  5
145
330
142
100
AcDbEntity
  8
3D-S-COLS-ANLY
370
     9
100
AcDbVertex
100
AcDbPolyFaceMeshVertex
 10
-0.46875
 20
-7.46894860267639
 30
0.000000000001245
 70
   192
  0
VERTEX
  5
146
330
142
100
AcDbEntity
  8
3D-S-COLS-ANLY
370
     9
100
AcDbVertex
100
AcDbPolyFaceMeshVertex
 10
-0.46875
 20
7.531051397323607
 30
0.0000000000012733
 70
   192
  0
VERTEX
  5
147
330
142
100
AcDbEntity
  8
3D-S-COLS-ANLY
370
     9
100
AcDbFaceRecord
 10
0.0
 20
0.0
 30
0.0
 70
   128
 71
     1
 72
     2
 73
     3
 74
     4
  0
SEQEND
  5
148
330
142
100
AcDbEntity
  8
3D-S-COLS-ANLY
370
     9
  0
POLYLINE
  5
149
330
7B
100
AcDbEntity
  8
3D-S-COLS-ANLY
370
     9
100
AcDbPolyFaceMesh
 66
     1
 10
0.0
 20
0.0
 30
0.0
 70
    64
 71
     4
 72
     1
1001
REVIT
1002
{
1070
     3
1000
144120
1002
}
  0
VERTEX
  5
14A
330
149
100
AcDbEntity
  8
3D-S-COLS-ANLY
370
     9
100
AcDbVertex
100
AcDbPolyFaceMeshVertex
 10
0.46875
 20
7.531051397323607
 30
0.75
 70
   192
  0
VERTEX
  5
14B
330
149
100
AcDbEntity
  8
3D-S-COLS-ANLY
370
     9
100
AcDbVertex
100
AcDbPolyFaceMeshVertex
 10
0.46875
 20
7.531051397323607
 30
0.0000000000012733
 70
   192
  0
VERTEX
  5
14C
330
149
100
AcDbEntity
  8
3D-S-COLS-ANLY
370
     9
100
AcDbVertex
100
AcDbPolyFaceMeshVertex
 10
-0.46875
 20
7.531051397323607
 30
0.0000000000012733
 70
   192
  0
VERTEX
  5
14D
330
149
100
AcDbEntity
  8
3D-S-COLS-ANLY
370
     9
100
AcDbVertex
100
AcDbPolyFaceMeshVertex
 10
-0.46875
 20
7.531051397323607
 30
0.75
 70
   192
  0
VERTEX
  5
14E
330
149
100
AcDbEntity
  8
3D-S-COLS-ANLY
370
     9
100
AcDbFaceRecord
 10
0.0
 20
0.0
 30
0.0
 70
   128
 71
     1
 72
     2
 73
     3
 74
     4
  0
SEQEND
  5
14F
330
149
100
AcDbEntity
  8
3D-S-COLS-ANLY
370
     9
  0
POLYLINE
  5
150
330
7B
100
AcDbEntity
  8
3D-S-COLS-ANLY
370
     9
100
AcDbPolyFaceMesh
 66
     1
 10
0.0
 20
0.0
 30
0.0
 70
    64
 71
     4
 72
     1
1001
REVIT
1002
{
1070
     3
1000
144120
1002
}
  0
VERTEX
  5
151
330
150
100
AcDbEntity
  8
3D-S-COLS-ANLY
370
     9
100
AcDbVertex
100
AcDbPolyFaceMeshVertex
 10
0.46875
 20
5.42749786376953
 30
0.75
 70
   192
  0
VERTEX
  5
152
330
150
100
AcDbEntity
  8
3D-S-COLS-ANLY
370
     9
100
AcDbVertex
100
AcDbPolyFaceMeshVertex
 10
0.46875
 20
7.531051397323607
 30
0.75
 70
   192
  0
VERTEX
  5
153
330
150
100
AcDbEntity
  8
3D-S-COLS-ANLY
370
     9
100
AcDbVertex
100
AcDbPolyFaceMeshVertex
 10
-0.46875
 20
7.531051397323607
 30
0.75
 70
   192
  0
VERTEX
  5
154
330
150
100
AcDbEntity
  8
3D-S-COLS-ANLY
370
     9
100
AcDbVertex
100
AcDbPolyFaceMeshVertex
 10
-0.46875
 20
5.42749786376953
 30
0.75
 70
   192
  0
VERTEX
  5
155
330
150
100
AcDbEntity
  8
3D-S-COLS-ANLY
370
     9
100
AcDbFaceRecord
 10
0.0
 20
0.0
 30
0.0
 70
   128
 71
     4
 72
     1
 73
     2
 74
     3
  0
SEQEND
  5
156
330
150
100
AcDbEntity
  8
3D-S-COLS-ANLY
370
     9
  0
POLYLINE
  5
157
330
7B
100
AcDbEntity
  8
3D-S-COLS-ANLY
370
     9
100
AcDbPolyFaceMesh
 66
     1
 10
0.0
 20
0.0
 30
0.0
 70
    64
 71
     8
 72
     3
1001
REVIT
1002
{
1070
     3
1000
144120
1002
}
  0
VERTEX
  5
158
330
157
100
AcDbEntity
  8
3D-S-COLS-ANLY
370
     9
100
AcDbVertex
100
AcDbPolyFaceMeshVertex
 10
0.46875
 20
4.78471004962921
 30
0.9839555919170377
 70
   192
  0
VERTEX
  5
159
330
157
100
AcDbEntity
  8
3D-S-COLS-ANLY
370
     9
100
AcDbVertex
100
AcDbPolyFaceMeshVertex
 10
0.46875
 20
4.97869849205017
 30
0.8563673794269559
 70
   192
  0
VERTEX
  5
15A
330
157
100
AcDbEntity
  8
3D-S-COLS-ANLY
370
     9
100
AcDbVertex
100
AcDbPolyFaceMeshVertex
 10
0.46875
 20
5.196881890296935
 30
0.7769551277160644
 70
   192
  0
VERTEX
  5
15B
330
157
100
AcDbEntity
  8
3D-S-COLS-ANLY
370
     9
100
AcDbVertex
100
AcDbPolyFaceMeshVertex
 10
0.46875
 20
5.42749786376953
 30
0.75
 70
   192
  0
VERTEX
  5
15C
330
157
100
AcDbEntity
  8
3D-S-COLS-ANLY
370
     9
100
AcDbVertex
100
AcDbPolyFaceMeshVertex
 10
-0.46875
 20
5.42749786376953
 30
0.75
 70
   192
  0
VERTEX
  5
15D
330
157
100
AcDbEntity
  8
3D-S-COLS-ANLY
370
     9
100
AcDbVertex
100
AcDbPolyFaceMeshVertex
 10
-0.46875
 20
5.196881890296935
 30
0.7769551277160644
 70
   192
  0
VERTEX
  5
15E
330
157
100
AcDbEntity
  8
3D-S-COLS-ANLY
370
     9
100
AcDbVertex
100
AcDbPolyFaceMeshVertex
 10
-0.46875
 20
4.97869849205017
 30
0.8563673794269559
 70
   192
  0
VERTEX
  5
15F
330
157
100
AcDbEntity
  8
3D-S-COLS-ANLY
370
     9
100
AcDbVertex
100
AcDbPolyFaceMeshVertex
 10
-0.46875
 20
4.78471004962921
 30
0.9839555919170377
 70
   192
  0
VERTEX
  5
160
330
157
100
AcDbEntity
  8
3D-S-COLS-ANLY
370
     9
100
AcDbFaceRecord
 10
0.0
 20
0.0
 30
0.0
 70
   128
 71
    -6
 72
     3
 73
     4
 74
     5
  0
VERTEX
  5
161
330
157
100
AcDbEntity
  8
3D-S-COLS-ANLY
370
     9
100
AcDbFaceRecord
 10
0.0
 20
0.0
 30
0.0
 70
   128
 71
    -3
 72
     6
 73
    -7
 74
     2
  0
VERTEX
  5
162
330
157
100
AcDbEntity
  8
3D-S-COLS-ANLY
370
     9
100
AcDbFaceRecord
 10
0.0
 20
0.0
 30
0.0
 70
   128
 71
     8
 72
     1
 73
    -2
 74
     7
  0
SEQEND
  5
163
330
157
100
AcDbEntity
  8
3D-S-COLS-ANLY
370
     9
  0
POLYLINE
  5
164
330
7B
100
AcDbEntity
  8
3D-S-COLS-ANLY
370
     9
100
AcDbPolyFaceMesh
 66
     1
 10
0.0
 20
0.0
 30
0.0
 70
    64
 71
     4
 72
     1
1001
REVIT
1002
{
1070
     3
1000
144120
1002
}
  0
VERTEX
  5
165
330
164
100
AcDbEntity
  8
3D-S-COLS-ANLY
370
     9
100
AcDbVertex
100
AcDbPolyFaceMeshVertex
 10
0.46875
 20
2.501257359981536
 30
2.899999916553496
 70
   192
  0
VERTEX
  5
166
330
164
100
AcDbEntity
  8
3D-S-COLS-ANLY
370
     9
100
AcDbVertex
100
AcDbPolyFaceMeshVertex
 10
0.46875
 20
4.78471004962921
 30
0.9839555919170377
 70
   192
  0
VERTEX
  5
167
330
164
100
AcDbEntity
  8
3D-S-COLS-ANLY
370
     9
100
AcDbVertex
100
AcDbPolyFaceMeshVertex
 10
-0.46875
 20
4.78471004962921
 30
0.9839555919170377
 70
   192
  0
VERTEX
  5
168
330
164
100
AcDbEntity
  8
3D-S-COLS-ANLY
370
     9
100
AcDbVertex
100
AcDbPolyFaceMeshVertex
 10
-0.46875
 20
2.501257359981536
 30
2.899999916553496
 70
   192
  0
VERTEX
  5
169
330
164
100
AcDbEntity
  8
3D-S-COLS-ANLY
370
     9
100
AcDbFaceRecord
 10
0.0
 20
0.0
 30
0.0
 70
   128
 71
     4
 72
     1
 73
     2
 74
     3
  0
SEQEND
  5
16A
330
164
100
AcDbEntity
  8
3D-S-COLS-ANLY
370
     9
  0
POLYLINE
  5
16B
330
7B
100
AcDbEntity
  8
3D-S-COLS-ANLY
370
     9
100
AcDbPolyFaceMesh
 66
     1
 10
0.0
 20
0.0
 30
0.0
 70
    64
 71
     4
 72
     1
1001
REVIT
1002
{
1070
     3
1000
144120
1002
}
  0
VERTEX
  5
16C
330
16B
100
AcDbEntity
  8
3D-S-COLS-ANLY
370
     9
100
AcDbVertex
100
AcDbPolyFaceMeshVertex
 10
0.46875
 20
-2.439154922962188
 30
2.899999916553496
 70
   192
  0
VERTEX
  5
16D
330
16B
100
AcDbEntity
  8
3D-S-COLS-ANLY
370
     9
100
AcDbVertex
100
AcDbPolyFaceMeshVertex
 10
0.46875
 20
2.501257359981536
 30
2.899999916553496
 70
   192
  0
VERTEX
  5
16E
330
16B
100
AcDbEntity
  8
3D-S-COLS-ANLY
370
     9
100
AcDbVertex
100
AcDbPolyFaceMeshVertex
 10
-0.46875
 20
2.501257359981536
 30
2.899999916553496
 70
   192
  0
VERTEX
  5
16F
330
16B
100
AcDbEntity
  8
3D-S-COLS-ANLY
370
     9
100
AcDbVertex
100
AcDbPolyFaceMeshVertex
 10
-0.46875
 20
-2.439154922962188
 30
2.899999916553496
 70
   192
  0
VERTEX
  5
170
330
16B
100
AcDbEntity
  8
3D-S-COLS-ANLY
370
     9
100
AcDbFaceRecord
 10
0.0
 20
0.0
 30
0.0
 70
   128
 71
     1
 72
     2
 73
     3
 74
     4
  0
SEQEND
  5
171
330
16B
100
AcDbEntity
  8
3D-S-COLS-ANLY
370
     9
  0
POLYLINE
  5
172
330
7B
100
AcDbEntity
  8
3D-S-COLS-ANLY
370
     9
100
AcDbPolyFaceMesh
 66
     1
 10
0.0
 20
0.0
 30
0.0
 70
    64
 71
     4
 72
     1
1001
REVIT
1002
{
1070
     3
1000
144120
1002
}
  0
VERTEX
  5
173
330
172
100
AcDbEntity
  8
3D-S-COLS-ANLY
370
     9
100
AcDbVertex
100
AcDbPolyFaceMeshVertex
 10
0.46875
 20
-4.722607970237731
 30
0.9839555919170377
 70
   192
  0
VERTEX
  5
174
330
172
100
AcDbEntity
  8
3D-S-COLS-ANLY
370
     9
100
AcDbVertex
100
AcDbPolyFaceMeshVertex
 10
0.46875
 20
-2.439154922962188
 30
2.899999916553496
 70
   192
  0
VERTEX
  5
175
330
172
100
AcDbEntity
  8
3D-S-COLS-ANLY
370
     9
100
AcDbVertex
100
AcDbPolyFaceMeshVertex
 10
-0.46875
 20
-2.439154922962188
 30
2.899999916553496
 70
   192
  0
VERTEX
  5
176
330
172
100
AcDbEntity
  8
3D-S-COLS-ANLY
370
     9
100
AcDbVertex
100
AcDbPolyFaceMeshVertex
 10
-0.46875
 20
-4.722607970237731
 30
0.9839555919170377
 70
   192
  0
VERTEX
  5
177
330
172
100
AcDbEntity
  8
3D-S-COLS-ANLY
370
     9
100
AcDbFaceRecord
 10
0.0
 20
0.0
 30
0.0
 70
   128
 71
     4
 72
     1
 73
     2
 74
     3
  0
SEQEND
  5
178
330
172
100
AcDbEntity
  8
3D-S-COLS-ANLY
370
     9
  0
ENDBLK
  5
17A
330
7B
100
AcDbEntity
  8
0
100
AcDbBlockEnd
  0
BLOCK
  5
230
330
193
100
AcDbEntity
  8
0
100
AcDbBlockBegin
  2
Blade-Kawneer-Circular - Versoleil-151891-Preview
 70
     0
 10
0.0
 20
0.0
 30
0.0
  3
Blade-Kawneer-Circular - Versoleil-151891-Preview
  1

  0
POLYLINE
  5
194
330
193
100
AcDbEntity
  8
3D-GENM
370
     9
100
AcDbPolyFaceMesh
 66
     1
 10
0.0
 20
0.0
 30
0.0
 70
    64
 71
    24
 72
    12
1001
REVIT
1002
{
1070
     3
1000
103689
1002
}
  0
VERTEX
  5
195
330
194
100
AcDbEntity
  8
3D-GENM
370
     9
100
AcDbVertex
100
AcDbPolyFaceMeshVertex
 10
18.0
 20
1.264111876487731
 30
1.263370156288146
 70
   192
  0
VERTEX
  5
196
330
194
100
AcDbEntity
  8
3D-GENM
370
     9
100
AcDbVertex
100
AcDbPolyFaceMeshVertex
 10
18.0
 20
1.221519112586974
 30
1.586893916130065
 70
   192
  0
VERTEX
  5
197
330
194
100
AcDbEntity
  8
3D-GENM
370
     9
100
AcDbVertex
100
AcDbPolyFaceMeshVertex
 10
18.0
 20
1.096643596887588
 30
1.888370275497436
 70
   192
  0
VERTEX
  5
198
330
194
100
AcDbEntity
  8
3D-GENM
370
     9
100
AcDbVertex
100
AcDbPolyFaceMeshVertex
 10
18.0
 20
0.8979953527450559
 30
2.147253692150115
 70
   192
  0
VERTEX
  5
199
330
194
100
AcDbEntity
  8
3D-GENM
370
     9
100
AcDbVertex
100
AcDbPolyFaceMeshVertex
 10
18.0
 20
0.6391118466854095
 30
2.345902025699615
 70
   192
  0
VERTEX
  5
19A
330
194
100
AcDbEntity
  8
3D-GENM
370
     9
100
AcDbVertex
100
AcDbPolyFaceMeshVertex
 10
18.0
 20
0.3376356661319732
 30
2.470777451992034
 70
   192
  0
VERTEX
  5
19B
330
194
100
AcDbEntity
  8
3D-GENM
370
     9
100
AcDbVertex
100
AcDbPolyFaceMeshVertex
 10
18.0
 20
0.014111849013716
 30
2.513370215892791
 70
   192
  0
VERTEX
  5
19C
330
194
100
AcDbEntity
  8
3D-GENM
370
     9
100
AcDbVertex
100
AcDbPolyFaceMeshVertex
 10
18.0
 20
-0.3094119653105735
 30
2.470777451992034
 70
   192
  0
VERTEX
  5
19D
330
194
100
AcDbEntity
  8
3D-GENM
370
     9
100
AcDbVertex
100
AcDbPolyFaceMeshVertex
 10
18.0
 20
-0.6108881682157516
 30
2.345902025699615
 70
   192
  0
VERTEX
  5
19E
330
194
100
AcDbEntity
  8
3D-GENM
370
     9
100
AcDbVertex
100
AcDbPolyFaceMeshVertex
 10
18.0
 20
-0.8697716295719144
 30
2.147253692150115
 70
   192
  0
VERTEX
  5
19F
330
194
100
AcDbEntity
  8
3D-GENM
370
     9
100
AcDbVertex
100
AcDbPolyFaceMeshVertex
 10
18.0
 20
-1.068419873714446
 30
1.888370275497436
 70
   192
  0
VERTEX
  5
1A0
330
194
100
AcDbEntity
  8
3D-GENM
370
     9
100
AcDbVertex
100
AcDbPolyFaceMeshVertex
 10
18.0
 20
-1.193295389413833
 30
1.586893916130065
 70
   192
  0
VERTEX
  5
1A1
330
194
100
AcDbEntity
  8
3D-GENM
370
     9
100
AcDbVertex
100
AcDbPolyFaceMeshVertex
 10
18.0
 20
-1.23588815331459
 30
1.263370156288146
 70
   192
  0
VERTEX
  5
1A2
330
194
100
AcDbEntity
  8
3D-GENM
370
     9
100
AcDbVertex
100
AcDbPolyFaceMeshVertex
 10
18.0
 20
-1.193295389413833
 30
0.9398463964462278
 70
   192
  0
VERTEX
  5
1A3
330
194
100
AcDbEntity
  8
3D-GENM
370
     9
100
AcDbVertex
100
AcDbPolyFaceMeshVertex
 10
18.0
 20
-1.068419873714446
 30
0.6383702158927917
 70
   192
  0
VERTEX
  5
1A4
330
194
100
AcDbEntity
  8
3D-GENM
370
     9
100
AcDbVertex
100
AcDbPolyFaceMeshVertex
 10
18.0
 20
-0.8697716295719144
 30
0.3794867098331451
 70
   192
  0
VERTEX
  5
1A5
330
194
100
AcDbEntity
  8
3D-GENM
370
     9
100
AcDbVertex
100
AcDbPolyFaceMeshVertex
 10
18.0
 20
-0.6108881682157516
 30
0.180838443338871
 70
   192
  0
VERTEX
  5
1A6
330
194
100
AcDbEntity
  8
3D-GENM
370
     9
100
AcDbVertex
100
AcDbPolyFaceMeshVertex
 10
18.0
 20
-0.3094119653105735
 30
0.0559629108756781
 70
   192
  0
VERTEX
  5
1A7
330
194
100
AcDbEntity
  8
3D-GENM
370
     9
100
AcDbVertex
100
AcDbPolyFaceMeshVertex
 10
18.0
 20
0.014111849013716
 30
0.0133701958693564
 70
   192
  0
VERTEX
  5
1A8
330
194
100
AcDbEntity
  8
3D-GENM
370
     9
100
AcDbVertex
100
AcDbPolyFaceMeshVertex
 10
18.0
 20
0.3376356661319732
 30
0.0559629108756781
 70
   192
  0
VERTEX
  5
1A9
330
194
100
AcDbEntity
  8
3D-GENM
370
     9
100
AcDbVertex
100
AcDbPolyFaceMeshVertex
 10
18.0
 20
0.6391118466854095
 30
0.180838443338871
 70
   192
  0
VERTEX
  5
1AA
330
194
100
AcDbEntity
  8
3D-GENM
370
     9
100
AcDbVertex
100
AcDbPolyFaceMeshVertex
 10
18.0
 20
0.8979953527450559
 30
0.3794867098331451
 70
   192
  0
VERTEX
  5
1AB
330
194
100
AcDbEntity
  8
3D-GENM
370
     9
100
AcDbVertex
100
AcDbPolyFaceMeshVertex
 10
18.0
 20
1.096643596887588
 30
0.6383702158927917
 70
   192
  0
VERTEX
  5
1AC
330
194
100
AcDbEntity
  8
3D-GENM
370
     9
100
AcDbVertex
100
AcDbPolyFaceMeshVertex
 10
18.0
 20
1.221519112586974
 30
0.9398463964462278
 70
   192
  0
VERTEX
  5
1AD
330
194
100
AcDbEntity
  8
3D-GENM
370
     9
100
AcDbFaceRecord
 10
0.0
 20
0.0
 30
0.0
 70
   128
 71
    23
 72
    24
 73
    -1
 74
    -3
  0
VERTEX
  5
1AE
330
194
100
AcDbEntity
  8
3D-GENM
370
     9
100
AcDbFaceRecord
 10
0.0
 20
0.0
 30
0.0
 70
   128
 71
    20
 72
    21
 73
   -22
 74
    19
  0
VERTEX
  5
1AF
330
194
100
AcDbEntity
  8
3D-GENM
370
     9
100
AcDbFaceRecord
 10
0.0
 20
0.0
 30
0.0
 70
   128
 71
   -19
 72
    22
 73
   -23
 74
    -3
  0
VERTEX
  5
1B0
330
194
100
AcDbEntity
  8
3D-GENM
370
     9
100
AcDbFaceRecord
 10
0.0
 20
0.0
 30
0.0
 70
   128
 71
    -6
 72
     3
 73
     4
 74
     5
  0
VERTEX
  5
1B1
330
194
100
AcDbEntity
  8
3D-GENM
370
     9
100
AcDbFaceRecord
 10
0.0
 20
0.0
 30
0.0
 70
   128
 71
     1
 72
     2
 73
    -3
  0
VERTEX
  5
1B2
330
194
100
AcDbEntity
  8
3D-GENM
370
     9
100
AcDbFaceRecord
 10
0.0
 20
0.0
 30
0.0
 70
   128
 71
    -8
 72
    -3
 73
     6
 74
     7
  0
VERTEX
  5
1B3
330
194
100
AcDbEntity
  8
3D-GENM
370
     9
100
AcDbFaceRecord
 10
0.0
 20
0.0
 30
0.0
 70
   128
 71
    17
 72
    18
 73
   -19
 74
   -15
  0
VERTEX
  5
1B4
330
194
100
AcDbEntity
  8
3D-GENM
370
     9
100
AcDbFaceRecord
 10
0.0
 20
0.0
 30
0.0
 70
   128
 71
   -15
 72
   -19
 73
    11
 74
   -12
  0
VERTEX
  5
1B5
330
194
100
AcDbEntity
  8
3D-GENM
370
     9
100
AcDbFaceRecord
 10
0.0
 20
0.0
 30
0.0
 70
   128
 71
    16
 72
   -17
 73
    15
  0
VERTEX
  5
1B6
330
194
100
AcDbEntity
  8
3D-GENM
370
     9
100
AcDbFaceRecord
 10
0.0
 20
0.0
 30
0.0
 70
   128
 71
    13
 72
    14
 73
   -15
 74
    12
  0
VERTEX
  5
1B7
330
194
100
AcDbEntity
  8
3D-GENM
370
     9
100
AcDbFaceRecord
 10
0.0
 20
0.0
 30
0.0
 70
   128
 71
     8
 72
     9
 73
    10
 74
   -11
  0
VERTEX
  5
1B8
330
194
100
AcDbEntity
  8
3D-GENM
370
     9
100
AcDbFaceRecord
 10
0.0
 20
0.0
 30
0.0
 70
   128
 71
    -3
 72
    -8
 73
   -11
 74
   -19
  0
SEQEND
  5
1B9
330
194
100
AcDbEntity
  8
3D-GENM
370
     9
  0
POLYLINE
  5
1BA
330
193
100
AcDbEntity
  8
3D-GENM
370
     9
100
AcDbPolyFaceMesh
 66
     1
 10
0.0
 20
0.0
 30
0.0
 70
    64
 71
    24
 72
    12
1001
REVIT
1002
{
1070
     3
1000
103689
1002
}
  0
VERTEX
  5
1BB
330
1BA
100
AcDbEntity
  8
3D-GENM
370
     9
100
AcDbVertex
100
AcDbPolyFaceMeshVertex
 10
-18.0
 20
1.264111876487731
 30
1.263370156288146
 70
   192
  0
VERTEX
  5
1BC
330
1BA
100
AcDbEntity
  8
3D-GENM
370
     9
100
AcDbVertex
100
AcDbPolyFaceMeshVertex
 10
-18.0
 20
1.221519112586974
 30
0.9398463964462278
 70
   192
  0
VERTEX
  5
1BD
330
1BA
100
AcDbEntity
  8
3D-GENM
370
     9
100
AcDbVertex
100
AcDbPolyFaceMeshVertex
 10
-18.0
 20
1.096643596887588
 30
0.6383702158927917
 70
   192
  0
VERTEX
  5
1BE
330
1BA
100
AcDbEntity
  8
3D-GENM
370
     9
100
AcDbVertex
100
AcDbPolyFaceMeshVertex
 10
-18.0
 20
0.8979953527450559
 30
0.3794867098331451
 70
   192
  0
VERTEX
  5
1BF
330
1BA
100
AcDbEntity
  8
3D-GENM
370
     9
100
AcDbVertex
100
AcDbPolyFaceMeshVertex
 10
-18.0
 20
0.6391118466854095
 30
0.180838443338871
 70
   192
  0
VERTEX
  5
1C0
330
1BA
100
AcDbEntity
  8
3D-GENM
370
     9
100
AcDbVertex
100
AcDbPolyFaceMeshVertex
 10
-18.0
 20
0.3376356661319732
 30
0.0559629108756781
 70
   192
  0
VERTEX
  5
1C1
330
1BA
100
AcDbEntity
  8
3D-GENM
370
     9
100
AcDbVertex
100
AcDbPolyFaceMeshVertex
 10
-18.0
 20
0.014111849013716
 30
0.0133701958693564
 70
   192
  0
VERTEX
  5
1C2
330
1BA
100
AcDbEntity
  8
3D-GENM
370
     9
100
AcDbVertex
100
AcDbPolyFaceMeshVertex
 10
-18.0
 20
-0.3094119653105735
 30
0.0559629108756781
 70
   192
  0
VERTEX
  5
1C3
330
1BA
100
AcDbEntity
  8
3D-GENM
370
     9
100
AcDbVertex
100
AcDbPolyFaceMeshVertex
 10
-18.0
 20
-0.6108881682157516
 30
0.180838443338871
 70
   192
  0
VERTEX
  5
1C4
330
1BA
100
AcDbEntity
  8
3D-GENM
370
     9
100
AcDbVertex
100
AcDbPolyFaceMeshVertex
 10
-18.0
 20
-0.8697716295719144
 30
0.3794867098331451
 70
   192
  0
VERTEX
  5
1C5
330
1BA
100
AcDbEntity
  8
3D-GENM
370
     9
100
AcDbVertex
100
AcDbPolyFaceMeshVertex
 10
-18.0
 20
-1.068419873714446
 30
0.6383702158927917
 70
   192
  0
VERTEX
  5
1C6
330
1BA
100
AcDbEntity
  8
3D-GENM
370
     9
100
AcDbVertex
100
AcDbPolyFaceMeshVertex
 10
-18.0
 20
-1.193295389413833
 30
0.9398463964462278
 70
   192
  0
VERTEX
  5
1C7
330
1BA
100
AcDbEntity
  8
3D-GENM
370
     9
100
AcDbVertex
100
AcDbPolyFaceMeshVertex
 10
-18.0
 20
-1.23588815331459
 30
1.263370156288146
 70
   192
  0
VERTEX
  5
1C8
330
1BA
100
AcDbEntity
  8
3D-GENM
370
     9
100
AcDbVertex
100
AcDbPolyFaceMeshVertex
 10
-18.0
 20
-1.193295389413833
 30
1.586893916130065
 70
   192
  0
VERTEX
  5
1C9
330
1BA
100
AcDbEntity
  8
3D-GENM
370
     9
100
AcDbVertex
100
AcDbPolyFaceMeshVertex
 10
-18.0
 20
-1.068419873714446
 30
1.888370275497436
 70
   192
  0
VERTEX
  5
1CA
330
1BA
100
AcDbEntity
  8
3D-GENM
370
     9
100
AcDbVertex
100
AcDbPolyFaceMeshVertex
 10
-18.0
 20
-0.8697716295719144
 30
2.147253692150115
 70
   192
  0
VERTEX
  5
1CB
330
1BA
100
AcDbEntity
  8
3D-GENM
370
     9
100
AcDbVertex
100
AcDbPolyFaceMeshVertex
 10
-18.0
 20
-0.6108881682157516
 30
2.345902025699615
 70
   192
  0
VERTEX
  5
1CC
330
1BA
100
AcDbEntity
  8
3D-GENM
370
     9
100
AcDbVertex
100
AcDbPolyFaceMeshVertex
 10
-18.0
 20
-0.3094119653105735
 30
2.470777451992034
 70
   192
  0
VERTEX
  5
1CD
330
1BA
100
AcDbEntity
  8
3D-GENM
370
     9
100
AcDbVertex
100
AcDbPolyFaceMeshVertex
 10
-18.0
 20
0.014111849013716
 30
2.513370215892791
 70
   192
  0
VERTEX
  5
1CE
330
1BA
100
AcDbEntity
  8
3D-GENM
370
     9
100
AcDbVertex
100
AcDbPolyFaceMeshVertex
 10
-18.0
 20
0.3376356661319732
 30
2.470777451992034
 70
   192
  0
VERTEX
  5
1CF
330
1BA
100
AcDbEntity
  8
3D-GENM
370
     9
100
AcDbVertex
100
AcDbPolyFaceMeshVertex
 10
-18.0
 20
0.6391118466854095
 30
2.345902025699615
 70
   192
  0
VERTEX
  5
1D0
330
1BA
100
AcDbEntity
  8
3D-GENM
370
     9
100
AcDbVertex
100
AcDbPolyFaceMeshVertex
 10
-18.0
 20
0.8979953527450559
 30
2.147253692150115
 70
   192
  0
VERTEX
  5
1D1
330
1BA
100
AcDbEntity
  8
3D-GENM
370
     9
100
AcDbVertex
100
AcDbPolyFaceMeshVertex
 10
-18.0
 20
1.096643596887588
 30
1.888370275497436
 70
   192
  0
VERTEX
  5
1D2
330
1BA
100
AcDbEntity
  8
3D-GENM
370
     9
100
AcDbVertex
100
AcDbPolyFaceMeshVertex
 10
-18.0
 20
1.221519112586974
 30
1.586893916130065
 70
   192
  0
VERTEX
  5
1D3
330
1BA
100
AcDbEntity
  8
3D-GENM
370
     9
100
AcDbFaceRecord
 10
0.0
 20
0.0
 30
0.0
 70
   128
 71
     1
 72
     2
 73
    -3
 74
   -23
  0
VERTEX
  5
1D4
330
1BA
100
AcDbEntity
  8
3D-GENM
370
     9
100
AcDbFaceRecord
 10
0.0
 20
0.0
 30
0.0
 70
   128
 71
     4
 72
     5
 73
     6
 74
    -7
  0
VERTEX
  5
1D5
330
1BA
100
AcDbEntity
  8
3D-GENM
370
     9
100
AcDbFaceRecord
 10
0.0
 20
0.0
 30
0.0
 70
   128
 71
     3
 72
    -4
 73
    -7
 74
   -23
  0
VERTEX
  5
1D6
330
1BA
100
AcDbEntity
  8
3D-GENM
370
     9
100
AcDbFaceRecord
 10
0.0
 20
0.0
 30
0.0
 70
   128
 71
    22
 72
   -23
 73
    20
 74
    21
  0
VERTEX
  5
1D7
330
1BA
100
AcDbEntity
  8
3D-GENM
370
     9
100
AcDbFaceRecord
 10
0.0
 20
0.0
 30
0.0
 70
   128
 71
    23
 72
    24
 73
    -1
  0
VERTEX
  5
1D8
330
1BA
100
AcDbEntity
  8
3D-GENM
370
     9
100
AcDbFaceRecord
 10
0.0
 20
0.0
 30
0.0
 70
   128
 71
   -20
 72
   -23
 73
    18
 74
    19
  0
VERTEX
  5
1D9
330
1BA
100
AcDbEntity
  8
3D-GENM
370
     9
100
AcDbFaceRecord
 10
0.0
 20
0.0
 30
0.0
 70
   128
 71
     7
 72
     8
 73
    -9
 74
   -11
  0
VERTEX
  5
1DA
330
1BA
100
AcDbEntity
  8
3D-GENM
370
     9
100
AcDbFaceRecord
 10
0.0
 20
0.0
 30
0.0
 70
   128
 71
   -15
 72
    -7
 73
   -11
 74
    14
  0
VERTEX
  5
1DB
330
1BA
100
AcDbEntity
  8
3D-GENM
370
     9
100
AcDbFaceRecord
 10
0.0
 20
0.0
 30
0.0
 70
   128
 71
   -11
 72
     9
 73
    10
  0
VERTEX
  5
1DC
330
1BA
100
AcDbEntity
  8
3D-GENM
370
     9
100
AcDbFaceRecord
 10
0.0
 20
0.0
 30
0.0
 70
   128
 71
    11
 72
    12
 73
    13
 74
   -14
  0
VERTEX
  5
1DD
330
1BA
100
AcDbEntity
  8
3D-GENM
370
     9
100
AcDbFaceRecord
 10
0.0
 20
0.0
 30
0.0
 70
   128
 71
    16
 72
    17
 73
   -18
 74
    15
  0
VERTEX
  5
1DE
330
1BA
100
AcDbEntity
  8
3D-GENM
370
     9
100
AcDbFaceRecord
 10
0.0
 20
0.0
 30
0.0
 70
   128
 71
   -15
 72
   -18
 73
   -23
 74
    -7
  0
SEQEND
  5
1DF
330
1BA
100
AcDbEntity
  8
3D-GENM
370
     9
  0
POLYLINE
  5
1E0
330
193
100
AcDbEntity
  8
3D-GENM
370
     9
100
AcDbPolyFaceMesh
 66
     1
 10
0.0
 20
0.0
 30
0.0
 70
    64
 71
    26
 72
    12
1001
REVIT
1002
{
1070
     3
1000
103689
1002
}
  0
VERTEX
  5
1E1
330
1E0
100
AcDbEntity
  8
3D-GENM
370
     9
100
AcDbVertex
100
AcDbPolyFaceMeshVertex
 10
18.0
 20
-1.23588815331459
 30
1.263370156288146
 70
   192
  0
VERTEX
  5
1E2
330
1E0
100
AcDbEntity
  8
3D-GENM
370
     9
100
AcDbVertex
100
AcDbPolyFaceMeshVertex
 10
18.0
 20
-1.193295389413833
 30
1.586893916130065
 70
   192
  0
VERTEX
  5
1E3
330
1E0
100
AcDbEntity
  8
3D-GENM
370
     9
100
AcDbVertex
100
AcDbPolyFaceMeshVertex
 10
18.0
 20
-1.068419873714446
 30
1.888370275497436
 70
   192
  0
VERTEX
  5
1E4
330
1E0
100
AcDbEntity
  8
3D-GENM
370
     9
100
AcDbVertex
100
AcDbPolyFaceMeshVertex
 10
18.0
 20
-0.8697716295719144
 30
2.147253692150115
 70
   192
  0
VERTEX
  5
1E5
330
1E0
100
AcDbEntity
  8
3D-GENM
370
     9
100
AcDbVertex
100
AcDbPolyFaceMeshVertex
 10
18.0
 20
-0.6108881682157516
 30
2.345902025699615
 70
   192
  0
VERTEX
  5
1E6
330
1E0
100
AcDbEntity
  8
3D-GENM
370
     9
100
AcDbVertex
100
AcDbPolyFaceMeshVertex
 10
18.0
 20
-0.3094119653105735
 30
2.470777451992034
 70
   192
  0
VERTEX
  5
1E7
330
1E0
100
AcDbEntity
  8
3D-GENM
370
     9
100
AcDbVertex
100
AcDbPolyFaceMeshVertex
 10
18.0
 20
0.014111849013716
 30
2.513370215892791
 70
   192
  0
VERTEX
  5
1E8
330
1E0
100
AcDbEntity
  8
3D-GENM
370
     9
100
AcDbVertex
100
AcDbPolyFaceMeshVertex
 10
18.0
 20
0.3376356661319732
 30
2.470777451992034
 70
   192
  0
VERTEX
  5
1E9
330
1E0
100
AcDbEntity
  8
3D-GENM
370
     9
100
AcDbVertex
100
AcDbPolyFaceMeshVertex
 10
18.0
 20
0.6391118466854095
 30
2.345902025699615
 70
   192
  0
VERTEX
  5
1EA
330
1E0
100
AcDbEntity
  8
3D-GENM
370
     9
100
AcDbVertex
100
AcDbPolyFaceMeshVertex
 10
18.0
 20
0.8979953527450559
 30
2.147253692150115
 70
   192
  0
VERTEX
  5
1EB
330
1E0
100
AcDbEntity
  8
3D-GENM
370
     9
100
AcDbVertex
100
AcDbPolyFaceMeshVertex
 10
18.0
 20
1.096643596887588
 30
1.888370275497436
 70
   192
  0
VERTEX
  5
1EC
330
1E0
100
AcDbEntity
  8
3D-GENM
370
     9
100
AcDbVertex
100
AcDbPolyFaceMeshVertex
 10
18.0
 20
1.221519112586974
 30
1.586893916130065
 70
   192
  0
VERTEX
  5
1ED
330
1E0
100
AcDbEntity
  8
3D-GENM
370
     9
100
AcDbVertex
100
AcDbPolyFaceMeshVertex
 10
18.0
 20
1.264111876487731
 30
1.263370156288146
 70
   192
  0
VERTEX
  5
1EE
330
1E0
100
AcDbEntity
  8
3D-GENM
370
     9
100
AcDbVertex
100
AcDbPolyFaceMeshVertex
 10
-18.0
 20
1.264111876487731
 30
1.263370156288146
 70
   192
  0
VERTEX
  5
1EF
330
1E0
100
AcDbEntity
  8
3D-GENM
370
     9
100
AcDbVertex
100
AcDbPolyFaceMeshVertex
 10
-18.0
 20
1.221519112586974
 30
1.586893916130065
 70
   192
  0
VERTEX
  5
1F0
330
1E0
100
AcDbEntity
  8
3D-GENM
370
     9
100
AcDbVertex
100
AcDbPolyFaceMeshVertex
 10
-18.0
 20
1.096643596887588
 30
1.888370275497436
 70
   192
  0
VERTEX
  5
1F1
330
1E0
100
AcDbEntity
  8
3D-GENM
370
     9
100
AcDbVertex
100
AcDbPolyFaceMeshVertex
 10
-18.0
 20
0.8979953527450559
 30
2.147253692150115
 70
   192
  0
VERTEX
  5
1F2
330
1E0
100
AcDbEntity
  8
3D-GENM
370
     9
100
AcDbVertex
100
AcDbPolyFaceMeshVertex
 10
-18.0
 20
0.6391118466854095
 30
2.345902025699615
 70
   192
  0
VERTEX
  5
1F3
330
1E0
100
AcDbEntity
  8
3D-GENM
370
     9
100
AcDbVertex
100
AcDbPolyFaceMeshVertex
 10
-18.0
 20
0.3376356661319732
 30
2.470777451992034
 70
   192
  0
VERTEX
  5
1F4
330
1E0
100
AcDbEntity
  8
3D-GENM
370
     9
100
AcDbVertex
100
AcDbPolyFaceMeshVertex
 10
-18.0
 20
0.014111849013716
 30
2.513370215892791
 70
   192
  0
VERTEX
  5
1F5
330
1E0
100
AcDbEntity
  8
3D-GENM
370
     9
100
AcDbVertex
100
AcDbPolyFaceMeshVertex
 10
-18.0
 20
-0.3094119653105735
 30
2.470777451992034
 70
   192
  0
VERTEX
  5
1F6
330
1E0
100
AcDbEntity
  8
3D-GENM
370
     9
100
AcDbVertex
100
AcDbPolyFaceMeshVertex
 10
-18.0
 20
-0.6108881682157516
 30
2.345902025699615
 70
   192
  0
VERTEX
  5
1F7
330
1E0
100
AcDbEntity
  8
3D-GENM
370
     9
100
AcDbVertex
100
AcDbPolyFaceMeshVertex
 10
-18.0
 20
-0.8697716295719144
 30
2.147253692150115
 70
   192
  0
VERTEX
  5
1F8
330
1E0
100
AcDbEntity
  8
3D-GENM
370
     9
100
AcDbVertex
100
AcDbPolyFaceMeshVertex
 10
-18.0
 20
-1.068419873714446
 30
1.888370275497436
 70
   192
  0
VERTEX
  5
1F9
330
1E0
100
AcDbEntity
  8
3D-GENM
370
     9
100
AcDbVertex
100
AcDbPolyFaceMeshVertex
 10
-18.0
 20
-1.193295389413833
 30
1.586893916130065
 70
   192
  0
VERTEX
  5
1FA
330
1E0
100
AcDbEntity
  8
3D-GENM
370
     9
100
AcDbVertex
100
AcDbPolyFaceMeshVertex
 10
-18.0
 20
-1.23588815331459
 30
1.263370156288146
 70
   192
  0
VERTEX
  5
1FB
330
1E0
100
AcDbEntity
  8
3D-GENM
370
     9
100
AcDbFaceRecord
 10
0.0
 20
0.0
 30
0.0
 70
   128
 71
    14
 72
   -15
 73
    12
 74
    13
  0
VERTEX
  5
1FC
330
1E0
100
AcDbEntity
  8
3D-GENM
370
     9
100
AcDbFaceRecord
 10
0.0
 20
0.0
 30
0.0
 70
   128
 71
    15
 72
   -16
 73
    11
 74
   -12
  0
VERTEX
  5
1FD
330
1E0
100
AcDbEntity
  8
3D-GENM
370
     9
100
AcDbFaceRecord
 10
0.0
 20
0.0
 30
0.0
 70
   128
 71
    17
 72
   -18
 73
     9
 74
   -10
  0
VERTEX
  5
1FE
330
1E0
100
AcDbEntity
  8
3D-GENM
370
     9
100
AcDbFaceRecord
 10
0.0
 20
0.0
 30
0.0
 70
   128
 71
    16
 72
   -17
 73
    10
 74
   -11
  0
VERTEX
  5
1FF
330
1E0
100
AcDbEntity
  8
3D-GENM
370
     9
100
AcDbFaceRecord
 10
0.0
 20
0.0
 30
0.0
 70
   128
 71
    18
 72
   -19
 73
     8
 74
    -9
  0
VERTEX
  5
200
330
1E0
100
AcDbEntity
  8
3D-GENM
370
     9
100
AcDbFaceRecord
 10
0.0
 20
0.0
 30
0.0
 70
   128
 71
     7
 72
    -8
 73
    19
 74
   -20
  0
VERTEX
  5
201
330
1E0
100
AcDbEntity
  8
3D-GENM
370
     9
100
AcDbFaceRecord
 10
0.0
 20
0.0
 30
0.0
 70
   128
 71
    21
 72
   -22
 73
     5
 74
    -6
  0
VERTEX
  5
202
330
1E0
100
AcDbEntity
  8
3D-GENM
370
     9
100
AcDbFaceRecord
 10
0.0
 20
0.0
 30
0.0
 70
   128
 71
    22
 72
   -23
 73
     4
 74
    -5
  0
VERTEX
  5
203
330
1E0
100
AcDbEntity
  8
3D-GENM
370
     9
100
AcDbFaceRecord
 10
0.0
 20
0.0
 30
0.0
 70
   128
 71
    24
 72
   -25
 73
     2
 74
    -3
  0
VERTEX
  5
204
330
1E0
100
AcDbEntity
  8
3D-GENM
370
     9
100
AcDbFaceRecord
 10
0.0
 20
0.0
 30
0.0
 70
   128
 71
    23
 72
   -24
 73
     3
 74
    -4
  0
VERTEX
  5
205
330
1E0
100
AcDbEntity
  8
3D-GENM
370
     9
100
AcDbFaceRecord
 10
0.0
 20
0.0
 30
0.0
 70
   128
 71
    25
 72
    26
 73
     1
 74
    -2
  0
VERTEX
  5
206
330
1E0
100
AcDbEntity
  8
3D-GENM
370
     9
100
AcDbFaceRecord
 10
0.0
 20
0.0
 30
0.0
 70
   128
 71
    20
 72
   -21
 73
     6
 74
    -7
  0
SEQEND
  5
207
330
1E0
100
AcDbEntity
  8
3D-GENM
370
     9
  0
POLYLINE
  5
208
330
193
100
AcDbEntity
  8
3D-GENM
370
     9
100
AcDbPolyFaceMesh
 66
     1
 10
0.0
 20
0.0
 30
0.0
 70
    64
 71
    26
 72
    12
1001
REVIT
1002
{
1070
     3
1000
103689
1002
}
  0
VERTEX
  5
209
330
208
100
AcDbEntity
  8
3D-GENM
370
     9
100
AcDbVertex
100
AcDbPolyFaceMeshVertex
 10
18.0
 20
1.264111876487731
 30
1.263370156288146
 70
   192
  0
VERTEX
  5
20A
330
208
100
AcDbEntity
  8
3D-GENM
370
     9
100
AcDbVertex
100
AcDbPolyFaceMeshVertex
 10
18.0
 20
1.221519112586974
 30
0.9398463964462278
 70
   192
  0
VERTEX
  5
20B
330
208
100
AcDbEntity
  8
3D-GENM
370
     9
100
AcDbVertex
100
AcDbPolyFaceMeshVertex
 10
18.0
 20
1.096643596887588
 30
0.6383702158927917
 70
   192
  0
VERTEX
  5
20C
330
208
100
AcDbEntity
  8
3D-GENM
370
     9
100
AcDbVertex
100
AcDbPolyFaceMeshVertex
 10
18.0
 20
0.8979953527450559
 30
0.3794867098331451
 70
   192
  0
VERTEX
  5
20D
330
208
100
AcDbEntity
  8
3D-GENM
370
     9
100
AcDbVertex
100
AcDbPolyFaceMeshVertex
 10
18.0
 20
0.6391118466854095
 30
0.180838443338871
 70
   192
  0
VERTEX
  5
20E
330
208
100
AcDbEntity
  8
3D-GENM
370
     9
100
AcDbVertex
100
AcDbPolyFaceMeshVertex
 10
18.0
 20
0.3376356661319732
 30
0.0559629108756781
 70
   192
  0
VERTEX
  5
20F
330
208
100
AcDbEntity
  8
3D-GENM
370
     9
100
AcDbVertex
100
AcDbPolyFaceMeshVertex
 10
18.0
 20
0.014111849013716
 30
0.0133701958693564
 70
   192
  0
VERTEX
  5
210
330
208
100
AcDbEntity
  8
3D-GENM
370
     9
100
AcDbVertex
100
AcDbPolyFaceMeshVertex
 10
18.0
 20
-0.3094119653105735
 30
0.0559629108756781
 70
   192
  0
VERTEX
  5
211
330
208
100
AcDbEntity
  8
3D-GENM
370
     9
100
AcDbVertex
100
AcDbPolyFaceMeshVertex
 10
18.0
 20
-0.6108881682157516
 30
0.180838443338871
 70
   192
  0
VERTEX
  5
212
330
208
100
AcDbEntity
  8
3D-GENM
370
     9
100
AcDbVertex
100
AcDbPolyFaceMeshVertex
 10
18.0
 20
-0.8697716295719144
 30
0.3794867098331451
 70
   192
  0
VERTEX
  5
213
330
208
100
AcDbEntity
  8
3D-GENM
370
     9
100
AcDbVertex
100
AcDbPolyFaceMeshVertex
 10
18.0
 20
-1.068419873714446
 30
0.6383702158927917
 70
   192
  0
VERTEX
  5
214
330
208
100
AcDbEntity
  8
3D-GENM
370
     9
100
AcDbVertex
100
AcDbPolyFaceMeshVertex
 10
18.0
 20
-1.193295389413833
 30
0.9398463964462278
 70
   192
  0
VERTEX
  5
215
330
208
100
AcDbEntity
  8
3D-GENM
370
     9
100
AcDbVertex
100
AcDbPolyFaceMeshVertex
 10
18.0
 20
-1.23588815331459
 30
1.263370156288146
 70
   192
  0
VERTEX
  5
216
330
208
100
AcDbEntity
  8
3D-GENM
370
     9
100
AcDbVertex
100
AcDbPolyFaceMeshVertex
 10
-18.0
 20
-1.23588815331459
 30
1.263370156288146
 70
   192
  0
VERTEX
  5
217
330
208
100
AcDbEntity
  8
3D-GENM
370
     9
100
AcDbVertex
100
AcDbPolyFaceMeshVertex
 10
-18.0
 20
-1.193295389413833
 30
0.9398463964462278
 70
   192
  0
VERTEX
  5
218
330
208
100
AcDbEntity
  8
3D-GENM
370
     9
100
AcDbVertex
100
AcDbPolyFaceMeshVertex
 10
-18.0
 20
-1.068419873714446
 30
0.6383702158927917
 70
   192
  0
VERTEX
  5
219
330
208
100
AcDbEntity
  8
3D-GENM
370
     9
100
AcDbVertex
100
AcDbPolyFaceMeshVertex
 10
-18.0
 20
-0.8697716295719144
 30
0.3794867098331451
 70
   192
  0
VERTEX
  5
21A
330
208
100
AcDbEntity
  8
3D-GENM
370
     9
100
AcDbVertex
100
AcDbPolyFaceMeshVertex
 10
-18.0
 20
-0.6108881682157516
 30
0.180838443338871
 70
   192
  0
VERTEX
  5
21B
330
208
100
AcDbEntity
  8
3D-GENM
370
     9
100
AcDbVertex
100
AcDbPolyFaceMeshVertex
 10
-18.0
 20
-0.3094119653105735
 30
0.0559629108756781
 70
   192
  0
VERTEX
  5
21C
330
208
100
AcDbEntity
  8
3D-GENM
370
     9
100
AcDbVertex
100
AcDbPolyFaceMeshVertex
 10
-18.0
 20
0.014111849013716
 30
0.0133701958693564
 70
   192
  0
VERTEX
  5
21D
330
208
100
AcDbEntity
  8
3D-GENM
370
     9
100
AcDbVertex
100
AcDbPolyFaceMeshVertex
 10
-18.0
 20
0.3376356661319732
 30
0.0559629108756781
 70
   192
  0
VERTEX
  5
21E
330
208
100
AcDbEntity
  8
3D-GENM
370
     9
100
AcDbVertex
100
AcDbPolyFaceMeshVertex
 10
-18.0
 20
0.6391118466854095
 30
0.180838443338871
 70
   192
  0
VERTEX
  5
21F
330
208
100
AcDbEntity
  8
3D-GENM
370
     9
100
AcDbVertex
100
AcDbPolyFaceMeshVertex
 10
-18.0
 20
0.8979953527450559
 30
0.3794867098331451
 70
   192
  0
VERTEX
  5
220
330
208
100
AcDbEntity
  8
3D-GENM
370
     9
100
AcDbVertex
100
AcDbPolyFaceMeshVertex
 10
-18.0
 20
1.096643596887588
 30
0.6383702158927917
 70
   192
  0
VERTEX
  5
221
330
208
100
AcDbEntity
  8
3D-GENM
370
     9
100
AcDbVertex
100
AcDbPolyFaceMeshVertex
 10
-18.0
 20
1.221519112586974
 30
0.9398463964462278
 70
   192
  0
VERTEX
  5
222
330
208
100
AcDbEntity
  8
3D-GENM
370
     9
100
AcDbVertex
100
AcDbPolyFaceMeshVertex
 10
-18.0
 20
1.264111876487731
 30
1.263370156288146
 70
   192
  0
VERTEX
  5
223
330
208
100
AcDbEntity
  8
3D-GENM
370
     9
100
AcDbFaceRecord
 10
0.0
 20
0.0
 30
0.0
 70
   128
 71
    14
 72
   -15
 73
    12
 74
    13
  0
VERTEX
  5
224
330
208
100
AcDbEntity
  8
3D-GENM
370
     9
100
AcDbFaceRecord
 10
0.0
 20
0.0
 30
0.0
 70
   128
 71
    15
 72
   -16
 73
    11
 74
   -12
  0
VERTEX
  5
225
330
208
100
AcDbEntity
  8
3D-GENM
370
     9
100
AcDbFaceRecord
 10
0.0
 20
0.0
 30
0.0
 70
   128
 71
    17
 72
   -18
 73
     9
 74
   -10
  0
VERTEX
  5
226
330
208
100
AcDbEntity
  8
3D-GENM
370
     9
100
AcDbFaceRecord
 10
0.0
 20
0.0
 30
0.0
 70
   128
 71
    16
 72
   -17
 73
    10
 74
   -11
  0
VERTEX
  5
227
330
208
100
AcDbEntity
  8
3D-GENM
370
     9
100
AcDbFaceRecord
 10
0.0
 20
0.0
 30
0.0
 70
   128
 71
    18
 72
   -19
 73
     8
 74
    -9
  0
VERTEX
  5
228
330
208
100
AcDbEntity
  8
3D-GENM
370
     9
100
AcDbFaceRecord
 10
0.0
 20
0.0
 30
0.0
 70
   128
 71
     7
 72
    -8
 73
    19
 74
   -20
  0
VERTEX
  5
229
330
208
100
AcDbEntity
  8
3D-GENM
370
     9
100
AcDbFaceRecord
 10
0.0
 20
0.0
 30
0.0
 70
   128
 71
    21
 72
   -22
 73
     5
 74
    -6
  0
VERTEX
  5
22A
330
208
100
AcDbEntity
  8
3D-GENM
370
     9
100
AcDbFaceRecord
 10
0.0
 20
0.0
 30
0.0
 70
   128
 71
    22
 72
   -23
 73
     4
 74
    -5
  0
VERTEX
  5
22B
330
208
100
AcDbEntity
  8
3D-GENM
370
     9
100
AcDbFaceRecord
 10
0.0
 20
0.0
 30
0.0
 70
   128
 71
    24
 72
   -25
 73
     2
 74
    -3
  0
VERTEX
  5
22C
330
208
100
AcDbEntity
  8
3D-GENM
370
     9
100
AcDbFaceRecord
 10
0.0
 20
0.0
 30
0.0
 70
   128
 71
    23
 72
   -24
 73
     3
 74
    -4
  0
VERTEX
  5
22D
330
208
100
AcDbEntity
  8
3D-GENM
370
     9
100
AcDbFaceRecord
 10
0.0
 20
0.0
 30
0.0
 70
   128
 71
    25
 72
    26
 73
     1
 74
    -2
  0
VERTEX
  5
22E
330
208
100
AcDbEntity
  8
3D-GENM
370
     9
100
AcDbFaceRecord
 10
0.0
 20
0.0
 30
0.0
 70
   128
 71
    20
 72
   -21
 73
     6
 74
    -7
  0
SEQEND
  5
22F
330
208
100
AcDbEntity
  8
3D-GENM
370
     9
  0
ENDBLK
  5
231
330
193
100
AcDbEntity
  8
0
100
AcDbBlockEnd
  0
BLOCK
  5
2A6
330
234
100
AcDbEntity
  8
0
100
AcDbBlockBegin
  2
Fascia-Kawneer-Angular - Versoleil-151041-Preview
 70
     0
 10
0.0
 20
0.0
 30
0.0
  3
Fascia-Kawneer-Angular - Versoleil-151041-Preview
  1

  0
POLYLINE
  5
235
330
234
100
AcDbEntity
  8
3D-S-BEAM
370
     9
100
AcDbPolyFaceMesh
 66
     1
 10
0.0
 20
0.0
 30
0.0
 70
    64
 71
    15
 72
     7
1001
REVIT
1002
{
1070
     3
1000
141087
1002
}
  0
VERTEX
  5
236
330
235
100
AcDbEntity
  8
3D-S-BEAM
370
     9
100
AcDbVertex
100
AcDbPolyFaceMeshVertex
 10
18.0
 20
-0.871883153915405
 30
6.320023298263548
 70
   192
  0
VERTEX
  5
237
330
235
100
AcDbEntity
  8
3D-S-BEAM
370
     9
100
AcDbVertex
100
AcDbPolyFaceMeshVertex
 10
18.0
 20
-0.871883153915405
 30
0.0000000000012257
 70
   192
  0
VERTEX
  5
238
330
235
100
AcDbEntity
  8
3D-S-BEAM
370
     9
100
AcDbVertex
100
AcDbPolyFaceMeshVertex
 10
18.0
 20
0.871883153915405
 30
0.0000000000012297
 70
   192
  0
VERTEX
  5
239
330
235
100
AcDbEntity
  8
3D-S-BEAM
370
     9
100
AcDbVertex
100
AcDbPolyFaceMeshVertex
 10
18.0
 20
-0.1263938583433628
 30
6.378011941909789
 70
   192
  0
VERTEX
  5
23A
330
235
100
AcDbEntity
  8
3D-S-BEAM
370
     9
100
AcDbVertex
100
AcDbPolyFaceMeshVertex
 10
18.0
 20
-0.1520899012684822
 30
6.467476844787596
 70
   192
  0
VERTEX
  5
23B
330
235
100
AcDbEntity
  8
3D-S-BEAM
370
     9
100
AcDbVertex
100
AcDbPolyFaceMeshVertex
 10
18.0
 20
-0.19902965426445
 30
6.547857284545897
 70
   192
  0
VERTEX
  5
23C
330
235
100
AcDbEntity
  8
3D-S-BEAM
370
     9
100
AcDbVertex
100
AcDbPolyFaceMeshVertex
 10
18.0
 20
-0.2643210142850875
 30
6.614200115203856
 70
   192
  0
VERTEX
  5
23D
330
235
100
AcDbEntity
  8
3D-S-BEAM
370
     9
100
AcDbVertex
100
AcDbPolyFaceMeshVertex
 10
18.0
 20
-0.3439412266016006
 30
6.662417650222777
 70
   192
  0
VERTEX
  5
23E
330
235
100
AcDbEntity
  8
3D-S-BEAM
370
     9
100
AcDbVertex
100
AcDbPolyFaceMeshVertex
 10
18.0
 20
-0.4329846203327178
 30
6.689539432525633
 70
   192
  0
VERTEX
  5
23F
330
235
100
AcDbEntity
  8
3D-S-BEAM
370
     9
100
AcDbVertex
100
AcDbPolyFaceMeshVertex
 10
18.0
 20
-0.525965005159378
 30
6.693893909454344
 70
   192
  0
VERTEX
  5
240
330
235
100
AcDbEntity
  8
3D-S-BEAM
370
     9
100
AcDbVertex
100
AcDbPolyFaceMeshVertex
 10
18.0
 20
-0.6171535402536392
 30
6.675213575363158
 70
   192
  0
VERTEX
  5
241
330
235
100
AcDbEntity
  8
3D-S-BEAM
370
     9
100
AcDbVertex
100
AcDbPolyFaceMeshVertex
 10
18.0
 20
-0.700931891798973
 30
6.63464856147766
 70
   192
  0
VERTEX
  5
242
330
235
100
AcDbEntity
  8
3D-S-BEAM
370
     9
100
AcDbVertex
100
AcDbPolyFaceMeshVertex
 10
18.0
 20
-0.772138237953186
 30
6.57469868659973
 70
   192
  0
VERTEX
  5
243
330
235
100
AcDbEntity
  8
3D-S-BEAM
370
     9
100
AcDbVertex
100
AcDbPolyFaceMeshVertex
 10
18.0
 20
-0.8263852894306181
 30
6.499058246612547
 70
   192
  0
VERTEX
  5
244
330
235
100
AcDbEntity
  8
3D-S-BEAM
370
     9
100
AcDbVertex
100
AcDbPolyFaceMeshVertex
 10
18.0
 20
-0.8603307902812955
 30
6.412386417388915
 70
   192
  0
VERTEX
  5
245
330
235
100
AcDbEntity
  8
3D-S-BEAM
370
     9
100
AcDbFaceRecord
 10
0.0
 20
0.0
 30
0.0
 70
   128
 71
     5
 72
    -6
 73
    -1
 74
     4
  0
VERTEX
  5
246
330
235
100
AcDbEntity
  8
3D-S-BEAM
370
     9
100
AcDbFaceRecord
 10
0.0
 20
0.0
 30
0.0
 70
   128
 71
    -1
 72
     6
 73
     7
 74
    -8
  0
VERTEX
  5
247
330
235
100
AcDbEntity
  8
3D-S-BEAM
370
     9
100
AcDbFaceRecord
 10
0.0
 20
0.0
 30
0.0
 70
   128
 71
    -1
 72
     8
 73
     9
 74
   -10
  0
VERTEX
  5
248
330
235
100
AcDbEntity
  8
3D-S-BEAM
370
     9
100
AcDbFaceRecord
 10
0.0
 20
0.0
 30
0.0
 70
   128
 71
     2
 72
     3
 73
    -4
 74
     1
  0
VERTEX
  5
249
330
235
100
AcDbEntity
  8
3D-S-BEAM
370
     9
100
AcDbFaceRecord
 10
0.0
 20
0.0
 30
0.0
 70
   128
 71
    14
 72
    15
 73
    -1
 74
    13
  0
VERTEX
  5
24A
330
235
100
AcDbEntity
  8
3D-S-BEAM
370
     9
100
AcDbFaceRecord
 10
0.0
 20
0.0
 30
0.0
 70
   128
 71
    -1
 72
    10
 73
    11
 74
   -12
  0
VERTEX
  5
24B
330
235
100
AcDbEntity
  8
3D-S-BEAM
370
     9
100
AcDbFaceRecord
 10
0.0
 20
0.0
 30
0.0
 70
   128
 71
    12
 72
   -13
 73
    -1
  0
SEQEND
  5
24C
330
235
100
AcDbEntity
  8
3D-S-BEAM
370
     9
  0
POLYLINE
  5
24D
330
234
100
AcDbEntity
  8
3D-S-BEAM
370
     9
100
AcDbPolyFaceMesh
 66
     1
 10
0.0
 20
0.0
 30
0.0
 70
    64
 71
    15
 72
     7
1001
REVIT
1002
{
1070
     3
1000
141087
1002
}
  0
VERTEX
  5
24E
330
24D
100
AcDbEntity
  8
3D-S-BEAM
370
     9
100
AcDbVertex
100
AcDbPolyFaceMeshVertex
 10
-18.0
 20
-0.871883153915405
 30
6.320023298263548
 70
   192
  0
VERTEX
  5
24F
330
24D
100
AcDbEntity
  8
3D-S-BEAM
370
     9
100
AcDbVertex
100
AcDbPolyFaceMeshVertex
 10
-18.0
 20
-0.8603307902812955
 30
6.412386417388915
 70
   192
  0
VERTEX
  5
250
330
24D
100
AcDbEntity
  8
3D-S-BEAM
370
     9
100
AcDbVertex
100
AcDbPolyFaceMeshVertex
 10
-18.0
 20
-0.8263852894306181
 30
6.499058246612547
 70
   192
  0
VERTEX
  5
251
330
24D
100
AcDbEntity
  8
3D-S-BEAM
370
     9
100
AcDbVertex
100
AcDbPolyFaceMeshVertex
 10
-18.0
 20
-0.772138237953186
 30
6.57469868659973
 70
   192
  0
VERTEX
  5
252
330
24D
100
AcDbEntity
  8
3D-S-BEAM
370
     9
100
AcDbVertex
100
AcDbPolyFaceMeshVertex
 10
-18.0
 20
-0.700931891798973
 30
6.63464856147766
 70
   192
  0
VERTEX
  5
253
330
24D
100
AcDbEntity
  8
3D-S-BEAM
370
     9
100
AcDbVertex
100
AcDbPolyFaceMeshVertex
 10
-18.0
 20
-0.6171535402536392
 30
6.675213575363158
 70
   192
  0
VERTEX
  5
254
330
24D
100
AcDbEntity
  8
3D-S-BEAM
370
     9
100
AcDbVertex
100
AcDbPolyFaceMeshVertex
 10
-18.0
 20
-0.525965005159378
 30
6.693893909454344
 70
   192
  0
VERTEX
  5
255
330
24D
100
AcDbEntity
  8
3D-S-BEAM
370
     9
100
AcDbVertex
100
AcDbPolyFaceMeshVertex
 10
-18.0
 20
-0.4329846203327178
 30
6.689539432525633
 70
   192
  0
VERTEX
  5
256
330
24D
100
AcDbEntity
  8
3D-S-BEAM
370
     9
100
AcDbVertex
100
AcDbPolyFaceMeshVertex
 10
-18.0
 20
-0.3439412266016006
 30
6.662417650222777
 70
   192
  0
VERTEX
  5
257
330
24D
100
AcDbEntity
  8
3D-S-BEAM
370
     9
100
AcDbVertex
100
AcDbPolyFaceMeshVertex
 10
-18.0
 20
-0.2643210142850875
 30
6.614200115203856
 70
   192
  0
VERTEX
  5
258
330
24D
100
AcDbEntity
  8
3D-S-BEAM
370
     9
100
AcDbVertex
100
AcDbPolyFaceMeshVertex
 10
-18.0
 20
-0.19902965426445
 30
6.547857284545897
 70
   192
  0
VERTEX
  5
259
330
24D
100
AcDbEntity
  8
3D-S-BEAM
370
     9
100
AcDbVertex
100
AcDbPolyFaceMeshVertex
 10
-18.0
 20
-0.1520899012684822
 30
6.467476844787596
 70
   192
  0
VERTEX
  5
25A
330
24D
100
AcDbEntity
  8
3D-S-BEAM
370
     9
100
AcDbVertex
100
AcDbPolyFaceMeshVertex
 10
-18.0
 20
-0.1263938583433628
 30
6.378011941909789
 70
   192
  0
VERTEX
  5
25B
330
24D
100
AcDbEntity
  8
3D-S-BEAM
370
     9
100
AcDbVertex
100
AcDbPolyFaceMeshVertex
 10
-18.0
 20
0.871883153915405
 30
0.0000000000012297
 70
   192
  0
VERTEX
  5
25C
330
24D
100
AcDbEntity
  8
3D-S-BEAM
370
     9
100
AcDbVertex
100
AcDbPolyFaceMeshVertex
 10
-18.0
 20
-0.871883153915405
 30
0.0000000000012257
 70
   192
  0
VERTEX
  5
25D
330
24D
100
AcDbEntity
  8
3D-S-BEAM
370
     9
100
AcDbFaceRecord
 10
0.0
 20
0.0
 30
0.0
 70
   128
 71
   -12
 72
    -7
 73
    10
 74
    11
  0
VERTEX
  5
25E
330
24D
100
AcDbEntity
  8
3D-S-BEAM
370
     9
100
AcDbFaceRecord
 10
0.0
 20
0.0
 30
0.0
 70
   128
 71
    12
 72
   -13
 73
    -1
 74
    -7
  0
VERTEX
  5
25F
330
24D
100
AcDbEntity
  8
3D-S-BEAM
370
     9
100
AcDbFaceRecord
 10
0.0
 20
0.0
 30
0.0
 70
   128
 71
     8
 72
     9
 73
   -10
 74
     7
  0
VERTEX
  5
260
330
24D
100
AcDbEntity
  8
3D-S-BEAM
370
     9
100
AcDbFaceRecord
 10
0.0
 20
0.0
 30
0.0
 70
   128
 71
    13
 72
    14
 73
    15
 74
    -1
  0
VERTEX
  5
261
330
24D
100
AcDbEntity
  8
3D-S-BEAM
370
     9
100
AcDbFaceRecord
 10
0.0
 20
0.0
 30
0.0
 70
   128
 71
    -4
 72
     1
 73
     2
 74
     3
  0
VERTEX
  5
262
330
24D
100
AcDbEntity
  8
3D-S-BEAM
370
     9
100
AcDbFaceRecord
 10
0.0
 20
0.0
 30
0.0
 70
   128
 71
     5
 72
     6
 73
    -7
 74
     4
  0
VERTEX
  5
263
330
24D
100
AcDbEntity
  8
3D-S-BEAM
370
     9
100
AcDbFaceRecord
 10
0.0
 20
0.0
 30
0.0
 70
   128
 71
    -7
 72
    -1
 73
    -4
  0
SEQEND
  5
264
330
24D
100
AcDbEntity
  8
3D-S-BEAM
370
     9
  0
POLYLINE
  5
265
330
234
100
AcDbEntity
  8
3D-S-BEAM
370
     9
100
AcDbPolyFaceMesh
 66
     1
 10
0.0
 20
0.0
 30
0.0
 70
    64
 71
     4
 72
     1
1001
REVIT
1002
{
1070
     3
1000
141087
1002
}
  0
VERTEX
  5
266
330
265
100
AcDbEntity
  8
3D-S-BEAM
370
     9
100
AcDbVertex
100
AcDbPolyFaceMeshVertex
 10
18.0
 20
-0.871883153915405
 30
0.0000000000012257
 70
   192
  0
VERTEX
  5
267
330
265
100
AcDbEntity
  8
3D-S-BEAM
370
     9
100
AcDbVertex
100
AcDbPolyFaceMeshVertex
 10
18.0
 20
-0.871883153915405
 30
6.320023298263548
 70
   192
  0
VERTEX
  5
268
330
265
100
AcDbEntity
  8
3D-S-BEAM
370
     9
100
AcDbVertex
100
AcDbPolyFaceMeshVertex
 10
-18.0
 20
-0.871883153915405
 30
6.320023298263548
 70
   192
  0
VERTEX
  5
269
330
265
100
AcDbEntity
  8
3D-S-BEAM
370
     9
100
AcDbVertex
100
AcDbPolyFaceMeshVertex
 10
-18.0
 20
-0.871883153915405
 30
0.0000000000012257
 70
   192
  0
VERTEX
  5
26A
330
265
100
AcDbEntity
  8
3D-S-BEAM
370
     9
100
AcDbFaceRecord
 10
0.0
 20
0.0
 30
0.0
 70
   128
 71
     1
 72
     2
 73
     3
 74
     4
  0
SEQEND
  5
26B
330
265
100
AcDbEntity
  8
3D-S-BEAM
370
     9
  0
POLYLINE
  5
26C
330
234
100
AcDbEntity
  8
3D-S-BEAM
370
     9
100
AcDbPolyFaceMesh
 66
     1
 10
0.0
 20
0.0
 30
0.0
 70
    64
 71
     4
 72
     1
1001
REVIT
1002
{
1070
     3
1000
141087
1002
}
  0
VERTEX
  5
26D
330
26C
100
AcDbEntity
  8
3D-S-BEAM
370
     9
100
AcDbVertex
100
AcDbPolyFaceMeshVertex
 10
18.0
 20
0.871883153915405
 30
0.0000000000012295
 70
   192
  0
VERTEX
  5
26E
330
26C
100
AcDbEntity
  8
3D-S-BEAM
370
     9
100
AcDbVertex
100
AcDbPolyFaceMeshVertex
 10
18.0
 20
-0.871883153915405
 30
0.0000000000012262
 70
   192
  0
VERTEX
  5
26F
330
26C
100
AcDbEntity
  8
3D-S-BEAM
370
     9
100
AcDbVertex
100
AcDbPolyFaceMeshVertex
 10
-18.0
 20
-0.871883153915405
 30
0.0000000000012262
 70
   192
  0
VERTEX
  5
270
330
26C
100
AcDbEntity
  8
3D-S-BEAM
370
     9
100
AcDbVertex
100
AcDbPolyFaceMeshVertex
 10
-18.0
 20
0.871883153915405
 30
0.0000000000012295
 70
   192
  0
VERTEX
  5
271
330
26C
100
AcDbEntity
  8
3D-S-BEAM
370
     9
100
AcDbFaceRecord
 10
0.0
 20
0.0
 30
0.0
 70
   128
 71
     1
 72
     2
 73
     3
 74
     4
  0
SEQEND
  5
272
330
26C
100
AcDbEntity
  8
3D-S-BEAM
370
     9
  0
POLYLINE
  5
273
330
234
100
AcDbEntity
  8
3D-S-BEAM
370
     9
100
AcDbPolyFaceMesh
 66
     1
 10
0.0
 20
0.0
 30
0.0
 70
    64
 71
     4
 72
     1
1001
REVIT
1002
{
1070
     3
1000
141087
1002
}
  0
VERTEX
  5
274
330
273
100
AcDbEntity
  8
3D-S-BEAM
370
     9
100
AcDbVertex
100
AcDbPolyFaceMeshVertex
 10
18.0
 20
-0.1263938583433628
 30
6.378011941909789
 70
   192
  0
VERTEX
  5
275
330
273
100
AcDbEntity
  8
3D-S-BEAM
370
     9
100
AcDbVertex
100
AcDbPolyFaceMeshVertex
 10
18.0
 20
0.871883153915405
 30
0.0000000000012295
 70
   192
  0
VERTEX
  5
276
330
273
100
AcDbEntity
  8
3D-S-BEAM
370
     9
100
AcDbVertex
100
AcDbPolyFaceMeshVertex
 10
-18.0
 20
0.871883153915405
 30
0.0000000000012295
 70
   192
  0
VERTEX
  5
277
330
273
100
AcDbEntity
  8
3D-S-BEAM
370
     9
100
AcDbVertex
100
AcDbPolyFaceMeshVertex
 10
-18.0
 20
-0.1263938583433628
 30
6.378011941909789
 70
   192
  0
VERTEX
  5
278
330
273
100
AcDbEntity
  8
3D-S-BEAM
370
     9
100
AcDbFaceRecord
 10
0.0
 20
0.0
 30
0.0
 70
   128
 71
     4
 72
     1
 73
     2
 74
     3
  0
SEQEND
  5
279
330
273
100
AcDbEntity
  8
3D-S-BEAM
370
     9
  0
POLYLINE
  5
27A
330
234
100
AcDbEntity
  8
3D-S-BEAM
370
     9
100
AcDbPolyFaceMesh
 66
     1
 10
0.0
 20
0.0
 30
0.0
 70
    64
 71
    26
 72
    12
1001
REVIT
1002
{
1070
     3
1000
141087
1002
}
  0
VERTEX
  5
27B
330
27A
100
AcDbEntity
  8
3D-S-BEAM
370
     9
100
AcDbVertex
100
AcDbPolyFaceMeshVertex
 10
18.0
 20
-0.871883153915405
 30
6.320023298263548
 70
   192
  0
VERTEX
  5
27C
330
27A
100
AcDbEntity
  8
3D-S-BEAM
370
     9
100
AcDbVertex
100
AcDbPolyFaceMeshVertex
 10
18.0
 20
-0.8603307902812955
 30
6.412386417388915
 70
   192
  0
VERTEX
  5
27D
330
27A
100
AcDbEntity
  8
3D-S-BEAM
370
     9
100
AcDbVertex
100
AcDbPolyFaceMeshVertex
 10
18.0
 20
-0.8263852894306181
 30
6.499058246612547
 70
   192
  0
VERTEX
  5
27E
330
27A
100
AcDbEntity
  8
3D-S-BEAM
370
     9
100
AcDbVertex
100
AcDbPolyFaceMeshVertex
 10
18.0
 20
-0.772138237953186
 30
6.57469868659973
 70
   192
  0
VERTEX
  5
27F
330
27A
100
AcDbEntity
  8
3D-S-BEAM
370
     9
100
AcDbVertex
100
AcDbPolyFaceMeshVertex
 10
18.0
 20
-0.700931891798973
 30
6.63464856147766
 70
   192
  0
VERTEX
  5
280
330
27A
100
AcDbEntity
  8
3D-S-BEAM
370
     9
100
AcDbVertex
100
AcDbPolyFaceMeshVertex
 10
18.0
 20
-0.6171535402536392
 30
6.675213575363158
 70
   192
  0
VERTEX
  5
281
330
27A
100
AcDbEntity
  8
3D-S-BEAM
370
     9
100
AcDbVertex
100
AcDbPolyFaceMeshVertex
 10
18.0
 20
-0.525965005159378
 30
6.693893909454344
 70
   192
  0
VERTEX
  5
282
330
27A
100
AcDbEntity
  8
3D-S-BEAM
370
     9
100
AcDbVertex
100
AcDbPolyFaceMeshVertex
 10
18.0
 20
-0.4329846203327178
 30
6.689539432525633
 70
   192
  0
VERTEX
  5
283
330
27A
100
AcDbEntity
  8
3D-S-BEAM
370
     9
100
AcDbVertex
100
AcDbPolyFaceMeshVertex
 10
18.0
 20
-0.3439412266016006
 30
6.662417650222777
 70
   192
  0
VERTEX
  5
284
330
27A
100
AcDbEntity
  8
3D-S-BEAM
370
     9
100
AcDbVertex
100
AcDbPolyFaceMeshVertex
 10
18.0
 20
-0.2643210142850875
 30
6.614200115203856
 70
   192
  0
VERTEX
  5
285
330
27A
100
AcDbEntity
  8
3D-S-BEAM
370
     9
100
AcDbVertex
100
AcDbPolyFaceMeshVertex
 10
18.0
 20
-0.19902965426445
 30
6.547857284545897
 70
   192
  0
VERTEX
  5
286
330
27A
100
AcDbEntity
  8
3D-S-BEAM
370
     9
100
AcDbVertex
100
AcDbPolyFaceMeshVertex
 10
18.0
 20
-0.1520899012684822
 30
6.467476844787596
 70
   192
  0
VERTEX
  5
287
330
27A
100
AcDbEntity
  8
3D-S-BEAM
370
     9
100
AcDbVertex
100
AcDbPolyFaceMeshVertex
 10
18.0
 20
-0.1263938583433628
 30
6.378011941909789
 70
   192
  0
VERTEX
  5
288
330
27A
100
AcDbEntity
  8
3D-S-BEAM
370
     9
100
AcDbVertex
100
AcDbPolyFaceMeshVertex
 10
-18.0
 20
-0.1263938583433628
 30
6.378011941909789
 70
   192
  0
VERTEX
  5
289
330
27A
100
AcDbEntity
  8
3D-S-BEAM
370
     9
100
AcDbVertex
100
AcDbPolyFaceMeshVertex
 10
-18.0
 20
-0.1520899012684822
 30
6.467476844787596
 70
   192
  0
VERTEX
  5
28A
330
27A
100
AcDbEntity
  8
3D-S-BEAM
370
     9
100
AcDbVertex
100
AcDbPolyFaceMeshVertex
 10
-18.0
 20
-0.19902965426445
 30
6.547857284545897
 70
   192
  0
VERTEX
  5
28B
330
27A
100
AcDbEntity
  8
3D-S-BEAM
370
     9
100
AcDbVertex
100
AcDbPolyFaceMeshVertex
 10
-18.0
 20
-0.2643210142850875
 30
6.614200115203856
 70
   192
  0
VERTEX
  5
28C
330
27A
100
AcDbEntity
  8
3D-S-BEAM
370
     9
100
AcDbVertex
100
AcDbPolyFaceMeshVertex
 10
-18.0
 20
-0.3439412266016006
 30
6.662417650222777
 70
   192
  0
VERTEX
  5
28D
330
27A
100
AcDbEntity
  8
3D-S-BEAM
370
     9
100
AcDbVertex
100
AcDbPolyFaceMeshVertex
 10
-18.0
 20
-0.4329846203327178
 30
6.689539432525633
 70
   192
  0
VERTEX
  5
28E
330
27A
100
AcDbEntity
  8
3D-S-BEAM
370
     9
100
AcDbVertex
100
AcDbPolyFaceMeshVertex
 10
-18.0
 20
-0.525965005159378
 30
6.693893909454344
 70
   192
  0
VERTEX
  5
28F
330
27A
100
AcDbEntity
  8
3D-S-BEAM
370
     9
100
AcDbVertex
100
AcDbPolyFaceMeshVertex
 10
-18.0
 20
-0.6171535402536392
 30
6.675213575363158
 70
   192
  0
VERTEX
  5
290
330
27A
100
AcDbEntity
  8
3D-S-BEAM
370
     9
100
AcDbVertex
100
AcDbPolyFaceMeshVertex
 10
-18.0
 20
-0.700931891798973
 30
6.63464856147766
 70
   192
  0
VERTEX
  5
291
330
27A
100
AcDbEntity
  8
3D-S-BEAM
370
     9
100
AcDbVertex
100
AcDbPolyFaceMeshVertex
 10
-18.0
 20
-0.772138237953186
 30
6.57469868659973
 70
   192
  0
VERTEX
  5
292
330
27A
100
AcDbEntity
  8
3D-S-BEAM
370
     9
100
AcDbVertex
100
AcDbPolyFaceMeshVertex
 10
-18.0
 20
-0.8263852894306181
 30
6.499058246612547
 70
   192
  0
VERTEX
  5
293
330
27A
100
AcDbEntity
  8
3D-S-BEAM
370
     9
100
AcDbVertex
100
AcDbPolyFaceMeshVertex
 10
-18.0
 20
-0.8603307902812955
 30
6.412386417388915
 70
   192
  0
VERTEX
  5
294
330
27A
100
AcDbEntity
  8
3D-S-BEAM
370
     9
100
AcDbVertex
100
AcDbPolyFaceMeshVertex
 10
-18.0
 20
-0.871883153915405
 30
6.320023298263548
 70
   192
  0
VERTEX
  5
295
330
27A
100
AcDbEntity
  8
3D-S-BEAM
370
     9
100
AcDbFaceRecord
 10
0.0
 20
0.0
 30
0.0
 70
   128
 71
    15
 72
   -16
 73
    11
 74
   -12
  0
VERTEX
  5
296
330
27A
100
AcDbEntity
  8
3D-S-BEAM
370
     9
100
AcDbFaceRecord
 10
0.0
 20
0.0
 30
0.0
 70
   128
 71
    14
 72
   -15
 73
    12
 74
    13
  0
VERTEX
  5
297
330
27A
100
AcDbEntity
  8
3D-S-BEAM
370
     9
100
AcDbFaceRecord
 10
0.0
 20
0.0
 30
0.0
 70
   128
 71
    17
 72
   -18
 73
     9
 74
   -10
  0
VERTEX
  5
298
330
27A
100
AcDbEntity
  8
3D-S-BEAM
370
     9
100
AcDbFaceRecord
 10
0.0
 20
0.0
 30
0.0
 70
   128
 71
    16
 72
   -17
 73
    10
 74
   -11
  0
VERTEX
  5
299
330
27A
100
AcDbEntity
  8
3D-S-BEAM
370
     9
100
AcDbFaceRecord
 10
0.0
 20
0.0
 30
0.0
 70
   128
 71
    18
 72
   -19
 73
     8
 74
    -9
  0
VERTEX
  5
29A
330
27A
100
AcDbEntity
  8
3D-S-BEAM
370
     9
100
AcDbFaceRecord
 10
0.0
 20
0.0
 30
0.0
 70
   128
 71
     7
 72
    -8
 73
    19
 74
   -20
  0
VERTEX
  5
29B
330
27A
100
AcDbEntity
  8
3D-S-BEAM
370
     9
100
AcDbFaceRecord
 10
0.0
 20
0.0
 30
0.0
 70
   128
 71
    21
 72
   -22
 73
     5
 74
    -6
  0
VERTEX
  5
29C
330
27A
100
AcDbEntity
  8
3D-S-BEAM
370
     9
100
AcDbFaceRecord
 10
0.0
 20
0.0
 30
0.0
 70
   128
 71
    22
 72
   -23
 73
     4
 74
    -5
  0
VERTEX
  5
29D
330
27A
100
AcDbEntity
  8
3D-S-BEAM
370
     9
100
AcDbFaceRecord
 10
0.0
 20
0.0
 30
0.0
 70
   128
 71
    24
 72
   -25
 73
     2
 74
    -3
  0
VERTEX
  5
29E
330
27A
100
AcDbEntity
  8
3D-S-BEAM
370
     9
100
AcDbFaceRecord
 10
0.0
 20
0.0
 30
0.0
 70
   128
 71
    23
 72
   -24
 73
     3
 74
    -4
  0
VERTEX
  5
29F
330
27A
100
AcDbEntity
  8
3D-S-BEAM
370
     9
100
AcDbFaceRecord
 10
0.0
 20
0.0
 30
0.0
 70
   128
 71
    25
 72
    26
 73
     1
 74
    -2
  0
VERTEX
  5
2A0
330
27A
100
AcDbEntity
  8
3D-S-BEAM
370
     9
100
AcDbFaceRecord
 10
0.0
 20
0.0
 30
0.0
 70
   128
 71
    20
 72
   -21
 73
     6
 74
    -7
  0
SEQEND
  5
2A1
330
27A
100
AcDbEntity
  8
3D-S-BEAM
370
     9
  0
ARC
  5
2A2
330
234
100
AcDbEntity
  8
3D-S-BEAM
370
     9
100
AcDbCircle
 10
-0.4968831881545789
 20
6.320023427813864
 30
-17.99999999999974
 40
0.3749999999999996
210
1.0
220
-0.0000000000000016
230
0.0
100
AcDbArc
 50
8.895677549823135
 51
180.0000000000002
1001
REVIT
1002
{
1070
     3
1000
141087
1002
}
  0
LINE
  5
2A3
330
234
100
AcDbEntity
  8
3D-S-BEAM
370
     9
100
AcDbLine
 10
-17.99999999999974
 20
0.867195335147038
 30
0.0299507720023444
 11
-17.99999999999974
 21
-0.1263938627314262
 31
6.378011872762138
1001
REVIT
1002
{
1070
     3
1000
141087
1002
}
  0
LINE
  5
2A4
330
234
100
AcDbEntity
  8
3D-S-BEAM
370
     9
100
AcDbLine
 10
-17.99999999999974
 20
-0.8718831859822863
 30
0.0299507720023444
 11
-17.99999999999974
 21
0.867195335147038
 31
0.0299507720023444
1001
REVIT
1002
{
1070
     3
1000
141087
1002
}
  0
LINE
  5
2A5
330
234
100
AcDbEntity
  8
3D-S-BEAM
370
     9
100
AcDbLine
 10
-17.99999999999974
 20
-0.8718831859822863
 30
6.320023427813866
 11
-17.99999999999974
 21
-0.8718831859822863
 31
0.0299507720023451
1001
REVIT
1002
{
1070
     3
1000
141087
1002
}
  0
ENDBLK
  5
2A7
330
234
100
AcDbEntity
  8
0
100
AcDbBlockEnd
  0
ENDSEC
  0
SECTION
  2
ENTITIES
  0
INSERT
  5
17B
330
6C
100
AcDbEntity
  8
3D-S-COLS-ANLY
370
     9
100
AcDbBlockReference
  2
Outrigger-Kawneer-Wedge - 5_-142066-Preview
 10
-15.16103165118301
 20
0.0
 30
-0.7812500000005188
1001
REVIT
1002
{
1070
     1
1000
9383
1002
}
1002
{
1070
     5
1000
142066
1002
}
1002
{
1070
     4
1000
97641
1002
}
1002
{
1070
     2
1000
-2009030
1002
}
  0
INSERT
  5
17C
330
6C
100
AcDbEntity
  8
3D-S-COLS-ANLY
370
     9
100
AcDbBlockReference
  2
Outrigger-Kawneer-Wedge - 5_-142066-Preview
 10
21.77646834880483
 20
0.0
 30
-0.7812500000005188
1001
REVIT
1002
{
1070
     1
1000
17865
1002
}
1002
{
1070
     5
1000
142066
1002
}
1002
{
1070
     4
1000
97641
1002
}
1002
{
1070
     2
1000
-2009030
1002
}
  0
INSERT
  5
17D
330
6C
100
AcDbEntity
  8
3D-S-COLS-ANLY
370
     9
100
AcDbBlockReference
  2
Outrigger-Kawneer-Wedge - 5_-142066-Preview
 10
-15.1610316511829
 20
0.0
 30
-0.7812500000005188
1001
REVIT
1002
{
1070
     1
1000
20682
1002
}
1002
{
1070
     5
1000
142066
1002
}
1002
{
1070
     4
1000
97641
1002
}
1002
{
1070
     2
1000
-2009030
1002
}
  0
INSERT
  5
17E
330
6C
100
AcDbEntity
  8
3D-S-COLS-ANLY
370
     9
100
AcDbBlockReference
  2
Outrigger-Kawneer-Wedge - 5_-142066-Preview
 10
-15.16103165118299
 20
0.0
 30
-0.7812500000005188
1001
REVIT
1002
{
1070
     1
1000
20692
1002
}
1002
{
1070
     5
1000
142066
1002
}
1002
{
1070
     4
1000
97641
1002
}
1002
{
1070
     2
1000
-2009030
1002
}
  0
INSERT
  5
17F
330
6C
100
AcDbEntity
  8
3D-S-COLS-ANLY
370
     9
100
AcDbBlockReference
  2
Outrigger-Kawneer-Wedge - 5_-142066-Preview
 10
-15.16103165118306
 20
0.0
 30
-0.7812500000005188
1001
REVIT
1002
{
1070
     1
1000
20702
1002
}
1002
{
1070
     5
1000
142066
1002
}
1002
{
1070
     4
1000
97641
1002
}
1002
{
1070
     2
1000
-2009030
1002
}
  0
INSERT
  5
180
330
6C
100
AcDbEntity
  8
3D-S-COLS-ANLY
370
     9
100
AcDbBlockReference
  2
Outrigger-Kawneer-Wedge - 5_-142066-Preview
 10
-15.16103165118298
 20
0.0
 30
-0.7812500000005188
1001
REVIT
1002
{
1070
     1
1000
20712
1002
}
1002
{
1070
     5
1000
142066
1002
}
1002
{
1070
     4
1000
97641
1002
}
1002
{
1070
     2
1000
-2009030
1002
}
  0
INSERT
  5
181
330
6C
100
AcDbEntity
  8
3D-S-COLS-ANLY
370
     9
100
AcDbBlockReference
  2
Outrigger-Kawneer-Wedge - 5_-142066-Preview
 10
-15.16103165118298
 20
0.0
 30
-0.7812500000005188
1001
REVIT
1002
{
1070
     1
1000
20722
1002
}
1002
{
1070
     5
1000
142066
1002
}
1002
{
1070
     4
1000
97641
1002
}
1002
{
1070
     2
1000
-2009030
1002
}
  0
INSERT
  5
182
330
6C
100
AcDbEntity
  8
3D-S-COLS-ANLY
370
     9
100
AcDbBlockReference
  2
Outrigger-Kawneer-Wedge - 5_-142066-Preview
 10
-15.16103165118289
 20
0.0
 30
-0.7812500000005188
1001
REVIT
1002
{
1070
     1
1000
20734
1002
}
1002
{
1070
     5
1000
142066
1002
}
1002
{
1070
     4
1000
97641
1002
}
1002
{
1070
     2
1000
-2009030
1002
}
  0
INSERT
  5
183
330
6C
100
AcDbEntity
  8
3D-S-COLS-ANLY
370
     9
100
AcDbBlockReference
  2
Outrigger-Kawneer-Wedge - 5_-142066-Preview
 10
-15.16103165118295
 20
0.0
 30
-0.7812500000005188
1001
REVIT
1002
{
1070
     1
1000
20744
1002
}
1002
{
1070
     5
1000
142066
1002
}
1002
{
1070
     4
1000
97641
1002
}
1002
{
1070
     2
1000
-2009030
1002
}
  0
INSERT
  5
184
330
6C
100
AcDbEntity
  8
3D-S-COLS-ANLY
370
     9
100
AcDbBlockReference
  2
Outrigger-Kawneer-Wedge - 5_-142066-Preview
 10
-15.16103165118303
 20
0.0
 30
-0.7812500000005188
1001
REVIT
1002
{
1070
     1
1000
20752
1002
}
1002
{
1070
     5
1000
142066
1002
}
1002
{
1070
     4
1000
97641
1002
}
1002
{
1070
     2
1000
-2009030
1002
}
  0
INSERT
  5
185
330
6C
100
AcDbEntity
  8
3D-S-COLS-ANLY
370
     9
100
AcDbBlockReference
  2
Outrigger-Kawneer-Wedge - 5_-142066-Preview
 10
-15.16103165118237
 20
0.0
 30
-0.7812500000005188
1001
REVIT
1002
{
1070
     1
1000
20762
1002
}
1002
{
1070
     5
1000
142066
1002
}
1002
{
1070
     4
1000
97641
1002
}
1002
{
1070
     2
1000
-2009030
1002
}
  0
INSERT
  5
186
330
6C
100
AcDbEntity
  8
3D-S-COLS-ANLY
370
     9
100
AcDbBlockReference
  2
Outrigger-Kawneer-Wedge - 5_-142066-Preview
 10
-15.16103165118233
 20
0.0
 30
-0.7812500000005188
1001
REVIT
1002
{
1070
     1
1000
20772
1002
}
1002
{
1070
     5
1000
142066
1002
}
1002
{
1070
     4
1000
97641
1002
}
1002
{
1070
     2
1000
-2009030
1002
}
  0
INSERT
  5
187
330
6C
100
AcDbEntity
  8
3D-S-COLS-ANLY
370
     9
100
AcDbBlockReference
  2
Outrigger-Kawneer-Wedge - 5_-142066-Preview
 10
-15.16103165118203
 20
0.0
 30
-0.7812500000005188
1001
REVIT
1002
{
1070
     1
1000
20782
1002
}
1002
{
1070
     5
1000
142066
1002
}
1002
{
1070
     4
1000
97641
1002
}
1002
{
1070
     2
1000
-2009030
1002
}
  0
INSERT
  5
188
330
6C
100
AcDbEntity
  8
3D-S-COLS-ANLY
370
     9
100
AcDbBlockReference
  2
Outrigger-Kawneer-Wedge - 5_-142066-Preview
 10
-15.16103165118135
 20
0.0
 30
-0.7812500000005188
1001
REVIT
1002
{
1070
     1
1000
20792
1002
}
1002
{
1070
     5
1000
142066
1002
}
1002
{
1070
     4
1000
97641
1002
}
1002
{
1070
     2
1000
-2009030
1002
}
  0
INSERT
  5
189
330
6C
100
AcDbEntity
  8
3D-S-COLS-ANLY
370
     9
100
AcDbBlockReference
  2
Outrigger-Kawneer-Wedge - 5_-142066-Preview
 10
-15.16103165118099
 20
0.0
 30
-0.7812500000005188
1001
REVIT
1002
{
1070
     1
1000
20804
1002
}
1002
{
1070
     5
1000
142066
1002
}
1002
{
1070
     4
1000
97641
1002
}
1002
{
1070
     2
1000
-2009030
1002
}
  0
INSERT
  5
18A
330
6C
100
AcDbEntity
  8
3D-S-COLS-ANLY
370
     9
100
AcDbBlockReference
  2
Outrigger-Kawneer-Wedge - 5_-142066-Preview
 10
-15.16103165118067
 20
0.0
 30
-0.7812500000005188
1001
REVIT
1002
{
1070
     1
1000
20814
1002
}
1002
{
1070
     5
1000
142066
1002
}
1002
{
1070
     4
1000
97641
1002
}
1002
{
1070
     2
1000
-2009030
1002
}
  0
INSERT
  5
18B
330
6C
100
AcDbEntity
  8
3D-S-COLS-ANLY
370
     9
100
AcDbBlockReference
  2
Outrigger-Kawneer-Wedge - 5_-142066-Preview
 10
-15.16103165118018
 20
0.0
 30
-0.7812500000005188
1001
REVIT
1002
{
1070
     1
1000
20824
1002
}
1002
{
1070
     5
1000
142066
1002
}
1002
{
1070
     4
1000
97641
1002
}
1002
{
1070
     2
1000
-2009030
1002
}
  0
INSERT
  5
18C
330
6C
100
AcDbEntity
  8
3D-S-COLS-ANLY
370
     9
100
AcDbBlockReference
  2
Outrigger-Kawneer-Wedge - 5_-142066-Preview
 10
-15.16103165118001
 20
0.0
 30
-0.7812500000005188
1001
REVIT
1002
{
1070
     1
1000
20834
1002
}
1002
{
1070
     5
1000
142066
1002
}
1002
{
1070
     4
1000
97641
1002
}
1002
{
1070
     2
1000
-2009030
1002
}
  0
INSERT
  5
18D
330
6C
100
AcDbEntity
  8
3D-S-COLS-ANLY
370
     9
100
AcDbBlockReference
  2
Outrigger-Kawneer-Wedge - 5_-142066-Preview
 10
-15.16103165117992
 20
0.0
 30
-0.7812500000005188
1001
REVIT
1002
{
1070
     1
1000
20844
1002
}
1002
{
1070
     5
1000
142066
1002
}
1002
{
1070
     4
1000
97641
1002
}
1002
{
1070
     2
1000
-2009030
1002
}
  0
INSERT
  5
18E
330
6C
100
AcDbEntity
  8
3D-S-COLS-ANLY
370
     9
100
AcDbBlockReference
  2
Outrigger-Kawneer-Wedge - 5_-142066-Preview
 10
-15.16103165117975
 20
0.0
 30
-0.7812500000005188
1001
REVIT
1002
{
1070
     1
1000
20854
1002
}
1002
{
1070
     5
1000
142066
1002
}
1002
{
1070
     4
1000
97641
1002
}
1002
{
1070
     2
1000
-2009030
1002
}
  0
INSERT
  5
18F
330
6C
100
AcDbEntity
  8
3D-S-COLS-ANLY
370
     9
100
AcDbBlockReference
  2
Outrigger-Kawneer-Wedge - 5_-142066-Preview
 10
-15.16103165117971
 20
0.0
 30
-0.7812500000005188
1001
REVIT
1002
{
1070
     1
1000
20864
1002
}
1002
{
1070
     5
1000
142066
1002
}
1002
{
1070
     4
1000
97641
1002
}
1002
{
1070
     2
1000
-2009030
1002
}
  0
INSERT
  5
190
330
6C
100
AcDbEntity
  8
3D-S-COLS-ANLY
370
     9
100
AcDbBlockReference
  2
Outrigger-Kawneer-Wedge - 5_-142066-Preview
 10
-15.16103165117966
 20
0.0
 30
-0.7812500000005188
1001
REVIT
1002
{
1070
     1
1000
20874
1002
}
1002
{
1070
     5
1000
142066
1002
}
1002
{
1070
     4
1000
97641
1002
}
1002
{
1070
     2
1000
-2009030
1002
}
  0
INSERT
  5
191
330
6C
100
AcDbEntity
  8
3D-S-COLS-ANLY
370
     9
100
AcDbBlockReference
  2
Outrigger-Kawneer-Wedge - 5_-142066-Preview
 10
-15.16103165117962
 20
0.0
 30
-0.7812500000005188
1001
REVIT
1002
{
1070
     1
1000
28566
1002
}
1002
{
1070
     5
1000
142066
1002
}
1002
{
1070
     4
1000
97641
1002
}
1002
{
1070
     2
1000
-2009030
1002
}
  0
INSERT
  5
232
330
6C
100
AcDbEntity
  8
3D-GENM
370
     9
100
AcDbBlockReference
  2
Blade-Kawneer-Circular - Versoleil-151891-Preview
 10
3.307718348803129
 20
-1.249999999999209
 30
2.445312499844568
1001
REVIT
1002
{
1070
     1
1000
104998
1002
}
1002
{
1070
     5
1000
135353
1002
}
1002
{
1070
     4
1000
97641
1002
}
1002
{
1070
     2
1000
-2000151
1002
}
  0
INSERT
  5
2A8
330
6C
100
AcDbEntity
  8
3D-S-BEAM
370
     9
100
AcDbBlockReference
  2
Fascia-Kawneer-Angular - Versoleil-151041-Preview
 10
3.307718348802362
 20
-1.624999999999491
 30
22.50000000000065
1001
REVIT
1002
{
1070
     1
1000
107080
1002
}
1002
{
1070
     5
1000
141099
1002
}
1002
{
1070
     4
1000
97641
1002
}
1002
{
1070
     2
1000
-2001354
1002
}
  0
INSERT
  5
2A9
330
6C
100
AcDbEntity
  8
3D-GENM
370
     9
100
AcDbBlockReference
  2
Blade-Kawneer-Circular - Versoleil-151891-Preview
 10
3.307718348802447
 20
-1.249999999999202
 30
6.94531249984457
1001
REVIT
1002
{
1070
     1
1000
110978
1002
}
1002
{
1070
     5
1000
135353
1002
}
1002
{
1070
     4
1000
97641
1002
}
1002
{
1070
     2
1000
-2000151
1002
}
  0
INSERT
  5
2AA
330
6C
100
AcDbEntity
  8
3D-GENM
370
     9
100
AcDbBlockReference
  2
Blade-Kawneer-Circular - Versoleil-151891-Preview
 10
3.307718348801765
 20
-1.249999999999191
 30
11.44531249984457
1001
REVIT
1002
{
1070
     1
1000
132816
1002
}
1002
{
1070
     5
1000
135353
1002
}
1002
{
1070
     4
1000
97641
1002
}
1002
{
1070
     2
1000
-2000151
1002
}
  0
INSERT
  5
2AB
330
6C
100
AcDbEntity
  8
3D-GENM
370
     9
100
AcDbBlockReference
  2
Blade-Kawneer-Circular - Versoleil-151891-Preview
 10
3.307718348801083
 20
-1.249999999999183
 30
15.94531249984457
1001
REVIT
1002
{
1070
     1
1000
132818
1002
}
1002
{
1070
     5
1000
135353
1002
}
1002
{
1070
     4
1000
97641
1002
}
1002
{
1070
     2
1000
-2000151
1002
}
  0
ENDSEC
  0
SECTION
  2
OBJECTS
  0
DICTIONARY
  5
C
330
0
100
AcDbDictionary
281
     1
  3
ACAD_BACKGROUND
350
2BF
  3
ACAD_CIP_PREVIOUS_PRODUCT_INFO
350
2C3
  3
ACAD_COLOR
350
63
  3
ACAD_GROUP
350
D
  3
ACAD_IMAGE_VARS
350
75
  3
ACAD_LAYOUT
350
62
  3
ACAD_MATERIAL
350
10
  3
ACAD_MLEADERSTYLE
350
66
  3
ACAD_MLINESTYLE
350
5F
  3
ACAD_PLOTSETTINGS
350
61
  3
ACAD_PLOTSTYLENAME
350
E
  3
ACAD_SCALELIST
350
42
  3
ACAD_TABLESTYLE
350
64
  3
ACAD_VISUALSTYLE
350
29
  3
ACDB_RECOMPOSE_DATA
350
325
  3
AcDbVariableDictionary
350
2B7
  3
DWGPROPS
350
326
  3
REVIT_DICTIONARY
350
2B1
  0
DICTIONARY
  5
2BF
102
{ACAD_REACTORS
330
C
102
}
330
C
100
AcDbDictionary
281
     1
  0
XRECORD
  5
2C3
102
{ACAD_REACTORS
330
C
102
}
330
C
100
AcDbXrecord
280
     1
300
ACD
300
2012
300
BDSADV_F_S
  0
DICTIONARY
  5
63
102
{ACAD_REACTORS
330
C
102
}
330
C
100
AcDbDictionary
281
     1
  0
DICTIONARY
  5
D
102
{ACAD_REACTORS
330
C
102
}
330
C
100
AcDbDictionary
281
     1
  0
RASTERVARIABLES
  5
75
102
{ACAD_REACTORS
330
C
102
}
330
C
100
AcDbRasterVariables
 90
        0
 70
     0
 71
     1
 72
     5
  0
DICTIONARY
  5
62
102
{ACAD_REACTORS
330
C
102
}
330
C
100
AcDbDictionary
281
     1
  3
Layout1
350
6B
  3
Layout2
350
73
  3
Model
350
6F
  0
DICTIONARY
  5
10
102
{ACAD_REACTORS
330
C
102
}
330
C
100
AcDbDictionary
281
     1
  3
ByBlock
350
19
  3
ByLayer
350
11
  3
Global
350
21
  3
RevitMaterialDefinition97641
350
2AE
  0
DICTIONARY
  5
66
102
{ACAD_REACTORS
330
C
102
}
330
C
100
AcDbDictionary
281
     1
  3
Standard
350
67
  0
DICTIONARY
  5
5F
102
{ACAD_REACTORS
330
C
102
}
330
C
100
AcDbDictionary
281
     1
  3
Standard
350
60
  0
DICTIONARY
  5
61
102
{ACAD_REACTORS
330
C
102
}
330
C
100
AcDbDictionary
281
     1
  0
ACDBDICTIONARYWDFLT
  5
E
102
{ACAD_REACTORS
330
C
102
}
330
C
100
AcDbDictionary
281
     1
  3
Normal
350
F
100
AcDbDictionaryWithDefault
340
F
  0
DICTIONARY
  5
42
102
{ACAD_REACTORS
330
C
102
}
330
C
100
AcDbDictionary
281
     1
  3
A0
350
43
  3
A1
350
44
  3
A2
350
45
  3
A3
350
46
  3
A4
350
47
  3
A5
350
48
  3
A6
350
49
  3
A7
350
4A
  3
A8
350
4B
  3
A9
350
4C
  3
B0
350
4D
  3
B1
350
4E
  3
B2
350
4F
  3
B3
350
50
  3
B4
350
51
  3
B5
350
52
  3
B6
350
53
  0
DICTIONARY
  5
64
102
{ACAD_REACTORS
330
C
102
}
330
C
100
AcDbDictionary
281
     1
  3
Standard
350
65
  0
DICTIONARY
  5
29
102
{ACAD_REACTORS
330
C
102
}
330
C
100
AcDbDictionary
281
     1
  3
2dWireframe
350
2F
  3
Basic
350
2E
  3
Brighten
350
35
  3
ColorChange
350
39
  3
Conceptual
350
32
  3
Dim
350
34
  3
EdgeColorOff
350
41
  3
Facepattern
350
38
  3
Flat
350
2A
  3
FlatWithEdges
350
2B
  3
Gouraud
350
2C
  3
GouraudWithEdges
350
2D
  3
Hidden
350
31
  3
JitterOff
350
3F
  3
Linepattern
350
37
  3
OverhangOff
350
40
  3
Realistic
350
33
  3
Shaded
350
3E
  3
Shaded with edges
350
3D
  3
Shades of Gray
350
3A
  3
Sketchy
350
3B
  3
Thicken
350
36
  3
Wireframe
350
30
  3
X-Ray
350
3C
  0
XRECORD
  5
325
102
{ACAD_REACTORS
330
C
102
}
330
C
100
AcDbXrecord
280
     1
 90
        1
330
65
  0
DICTIONARY
  5
2B7
102
{ACAD_REACTORS
330
C
102
}
330
C
100
AcDbDictionary
281
     1
  3
CANNOSCALE
350
2BA
  3
CMLEADERSTYLE
350
2B9
  3
CTABLESTYLE
350
2B8
  3
DIMASSOC
350
31D
  3
HIDETEXT
350
31C
  3
INDEXCTL
350
31B
  3
LATITUDE
350
31F
  3
LAYEREVAL
350
318
  3
LAYERNOTIFY
350
319
  3
LIGHTINGUNITS
350
317
  3
LONGITUDE
350
320
  3
MSLTSCALE
350
316
  3
SOLIDHIST
350
31E
  3
SORTENTS
350
31A
  3
TIMEZONE
350
321
  3
XCLIPFRAME
350
322
  0
XRECORD
  5
326
102
{ACAD_REACTORS
330
C
102
}
330
C
100
AcDbXrecord
280
     1
  1
DWGPROPS COOKIE
  2

  3

  4

  6

  7

  8
omarr
  9

300
=
301
=
302
=
303
=
304
=
305
=
306
=
307
=
308
=
309
=
 40
0.0002670138888889
 41
2456030.401118183
 42
2456030.401580486
  1

 90
        0
  0
DICTIONARY
  5
2B1
102
{ACAD_REACTORS
330
C
102
}
330
C
100
AcDbDictionary
281
     1
  3
DRAWING_TOOL
350
2B5
  3
REVIT_CATEGORY_MAPPING
350
2B3
  3
REVIT_SUB_CATEGORY_MAPPING
350
2B4
  3
REVIT_TYPE_MAPPING
350
2B2
  0
LAYOUT
  5
6B
102
{ACAD_XDICTIONARY
360
35C
102
}
102
{ACAD_REACTORS
330
62
102
}
330
62
100
AcDbPlotSettings
  1

  2

  4

  6

 40
0.0
 41
0.0
 42
0.0
 43
0.0
 44
0.0
 45
0.0
 46
0.0
 47
0.0
 48
0.0
 49
0.0
140
0.0
141
0.0
142
1.0
143
1.0
 70
   688
 72
     0
 73
     0
 74
     5
  7

 75
    16
147
1.0
148
0.0
149
0.0
100
AcDbLayout
  1
Layout1
 70
     1
 71
     1
 10
0.0
 20
0.0
 11
12.0
 21
9.0
 12
0.0
 22
0.0
 32
0.0
 14
1.000000000000000E+20
 24
1.000000000000000E+20
 34
1.000000000000000E+20
 15
-1.000000000000000E+20
 25
-1.000000000000000E+20
 35
-1.000000000000000E+20
146
0.0
 13
0.0
 23
0.0
 33
0.0
 16
1.0
 26
0.0
 36
0.0
 17
0.0
 27
1.0
 37
0.0
 76
     0
330
68
  0
LAYOUT
  5
73
102
{ACAD_XDICTIONARY
360
360
102
}
102
{ACAD_REACTORS
330
62
102
}
330
62
100
AcDbPlotSettings
  1

  2

  4

  6

 40
0.0
 41
0.0
 42
0.0
 43
0.0
 44
0.0
 45
0.0
 46
0.0
 47
0.0
 48
0.0
 49
0.0
140
0.0
141
0.0
142
1.0
143
1.0
 70
   688
 72
     0
 73
     0
 74
     5
  7

 75
    16
147
1.0
148
0.0
149
0.0
100
AcDbLayout
  1
Layout2
 70
     1
 71
     2
 10
0.0
 20
0.0
 11
12.0
 21
9.0
 12
0.0
 22
0.0
 32
0.0
 14
0.0
 24
0.0
 34
0.0
 15
0.0
 25
0.0
 35
0.0
146
0.0
 13
0.0
 23
0.0
 33
0.0
 16
1.0
 26
0.0
 36
0.0
 17
0.0
 27
1.0
 37
0.0
 76
     0
330
70
  0
LAYOUT
  5
6F
102
{ACAD_XDICTIONARY
360
35E
102
}
102
{ACAD_REACTORS
330
62
102
}
330
62
100
AcDbPlotSettings
  1

  2

  4

  6

 40
0.0
 41
0.0
 42
0.0
 43
0.0
 44
0.0
 45
0.0
 46
0.0
 47
0.0
 48
0.0
 49
0.0
140
0.0
141
0.0
142
1.0
143
1.0
 70
  1712
 72
     0
 73
     0
 74
     0
  7

 75
     0
147
1.0
148
0.0
149
0.0
100
AcDbLayout
  1
Model
 70
     1
 71
     0
 10
0.0
 20
0.0
 11
12.0
 21
9.0
 12
0.0
 22
0.0
 32
0.0
 14
0.0
 24
0.0
 34
0.0
 15
0.0
 25
0.0
 35
0.0
146
0.0
 13
0.0
 23
0.0
 33
0.0
 16
1.0
 26
0.0
 36
0.0
 17
0.0
 27
1.0
 37
0.0
 76
     0
330
6C
331
57
  0
MATERIAL
  5
19
102
{ACAD_XDICTIONARY
360
1A
102
}
102
{ACAD_REACTORS
330
10
102
}
330
10
100
AcDbMaterial
  1
ByBlock
 72
     0
 43
0.0208333333333333
 43
0.0
 43
0.0
 43
0.0
 43
0.0
 43
0.0208333333333333
 43
0.0
 43
0.0
 43
0.0
 43
0.0
 43
1.0
 43
0.0
 43
0.0
 43
0.0
 43
0.0
 43
1.0
 77
     0
 47
0.0208333333333333
 47
0.0
 47
0.0
 47
0.0
 47
0.0
 47
0.0208333333333333
 47
0.0
 47
0.0
 47
0.0
 47
0.0
 47
1.0
 47
0.0
 47
0.0
 47
0.0
 47
0.0
 47
1.0
171
     0
 49
0.0208333333333333
 49
0.0
 49
0.0
 49
0.0
 49
0.0
 49
0.0208333333333333
 49
0.0
 49
0.0
 49
0.0
 49
0.0
 49
1.0
 49
0.0
 49
0.0
 49
0.0
 49
0.0
 49
1.0
175
     0
142
0.0208333333333333
142
0.0
142
0.0
142
0.0
142
0.0
142
0.0208333333333333
142
0.0
142
0.0
142
0.0
142
0.0
142
1.0
142
0.0
142
0.0
142
0.0
142
0.0
142
1.0
179
     0
144
0.0208333333333333
144
0.0
144
0.0
144
0.0
144
0.0
144
0.0208333333333333
144
0.0
144
0.0
144
0.0
144
0.0
144
1.0
144
0.0
144
0.0
144
0.0
144
0.0
144
1.0
147
0.0208333333333333
147
0.0
147
0.0
147
0.0
147
0.0
147
0.0208333333333333
147
0.0
147
0.0
147
0.0
147
0.0
147
1.0
147
0.0
147
0.0
147
0.0
147
0.0
147
1.0
  0
MATERIAL
  5
11
102
{ACAD_XDICTIONARY
360
12
102
}
102
{ACAD_REACTORS
330
10
102
}
330
10
100
AcDbMaterial
  1
ByLayer
 72
     0
 43
0.0208333333333333
 43
0.0
 43
0.0
 43
0.0
 43
0.0
 43
0.0208333333333333
 43
0.0
 43
0.0
 43
0.0
 43
0.0
 43
1.0
 43
0.0
 43
0.0
 43
0.0
 43
0.0
 43
1.0
 77
     0
 47
0.0208333333333333
 47
0.0
 47
0.0
 47
0.0
 47
0.0
 47
0.0208333333333333
 47
0.0
 47
0.0
 47
0.0
 47
0.0
 47
1.0
 47
0.0
 47
0.0
 47
0.0
 47
0.0
 47
1.0
171
     0
 49
0.0208333333333333
 49
0.0
 49
0.0
 49
0.0
 49
0.0
 49
0.0208333333333333
 49
0.0
 49
0.0
 49
0.0
 49
0.0
 49
1.0
 49
0.0
 49
0.0
 49
0.0
 49
0.0
 49
1.0
175
     0
142
0.0208333333333333
142
0.0
142
0.0
142
0.0
142
0.0
142
0.0208333333333333
142
0.0
142
0.0
142
0.0
142
0.0
142
1.0
142
0.0
142
0.0
142
0.0
142
0.0
142
1.0
179
     0
144
0.0208333333333333
144
0.0
144
0.0
144
0.0
144
0.0
144
0.0208333333333333
144
0.0
144
0.0
144
0.0
144
0.0
144
1.0
144
0.0
144
0.0
144
0.0
144
0.0
144
1.0
147
0.0208333333333333
147
0.0
147
0.0
147
0.0
147
0.0
147
0.0208333333333333
147
0.0
147
0.0
147
0.0
147
0.0
147
1.0
147
0.0
147
0.0
147
0.0
147
0.0
147
1.0
  0
MATERIAL
  5
21
102
{ACAD_XDICTIONARY
360
22
102
}
102
{ACAD_REACTORS
330
10
102
}
330
10
100
AcDbMaterial
  1
Global
 72
     0
 43
0.0208333333333333
 43
0.0
 43
0.0
 43
0.0
 43
0.0
 43
0.0208333333333333
 43
0.0
 43
0.0
 43
0.0
 43
0.0
 43
1.0
 43
0.0
 43
0.0
 43
0.0
 43
0.0
 43
1.0
 77
     0
 47
0.0208333333333333
 47
0.0
 47
0.0
 47
0.0
 47
0.0
 47
0.0208333333333333
 47
0.0
 47
0.0
 47
0.0
 47
0.0
 47
1.0
 47
0.0
 47
0.0
 47
0.0
 47
0.0
 47
1.0
171
     0
 49
0.0208333333333333
 49
0.0
 49
0.0
 49
0.0
 49
0.0
 49
0.0208333333333333
 49
0.0
 49
0.0
 49
0.0
 49
0.0
 49
1.0
 49
0.0
 49
0.0
 49
0.0
 49
0.0
 49
1.0
175
     0
142
0.0208333333333333
142
0.0
142
0.0
142
0.0
142
0.0
142
0.0208333333333333
142
0.0
142
0.0
142
0.0
142
0.0
142
1.0
142
0.0
142
0.0
142
0.0
142
0.0
142
1.0
179
     0
144
0.0208333333333333
144
0.0
144
0.0
144
0.0
144
0.0
144
0.0208333333333333
144
0.0
144
0.0
144
0.0
144
0.0
144
1.0
144
0.0
144
0.0
144
0.0
144
0.0
144
1.0
147
0.0208333333333333
147
0.0
147
0.0
147
0.0
147
0.0
147
0.0208333333333333
147
0.0
147
0.0
147
0.0
147
0.0
147
1.0
147
0.0
147
0.0
147
0.0
147
0.0
147
1.0
  0
MATERIAL
  5
2AE
102
{ACAD_XDICTIONARY
360
2AF
102
}
102
{ACAD_REACTORS
330
10
102
}
330
10
100
AcDbMaterial
  1
RevitMaterialDefinition97641
 70
     1
 90
-1025120795
 71
     1
 91
-1025120795
 73
     1
 76
     1
 45
0.5
 77
     0
175
     0
145
0.0
  0
MLEADERSTYLE
  5
67
102
{ACAD_REACTORS
330
66
102
}
330
66
100
AcDbMLeaderStyle
170
     2
171
     1
172
     0
 90
        2
 40
0.0
 41
0.0
173
     1
 91
-1056964608
340
5B
 92
       -2
290
     1
 42
0.09
291
     1
 43
0.36
  3
Standard
 44
0.18
300

342
55
174
     1
178
     6
175
     1
176
     0
 93
-1056964608
 45
0.18
292
     0
297
     0
 46
0.18
 94
-1056964608
 47
1.0
 49
1.0
140
1.0
293
     1
141
0.0
294
     1
177
     0
142
1.0
295
     0
296
     0
143
0.125
1001
ACAD_MLEADERVER
1070
     2
  0
MLINESTYLE
  5
60
102
{ACAD_REACTORS
330
5F
102
}
330
5F
100
AcDbMlineStyle
  2
STANDARD
 70
     0
  3

 62
   256
 51
90.0
 52
90.0
 71
     2
 49
0.5
 62
   256
  6
BYLAYER
 49
-0.5
 62
   256
  6
BYLAYER
  0
ACDBPLACEHOLDER
  5
F
102
{ACAD_REACTORS
330
E
102
}
330
E
  0
SCALE
  5
43
102
{ACAD_REACTORS
330
42
102
}
330
42
100
AcDbScale
 70
     0
300
1:1
140
1.0
141
1.0
290
     1
  0
SCALE
  5
44
102
{ACAD_REACTORS
330
42
102
}
330
42
100
AcDbScale
 70
     0
300
1/128" = 1'-0"
140
0.0078125
141
12.0
290
     0
  0
SCALE
  5
45
102
{ACAD_REACTORS
330
42
102
}
330
42
100
AcDbScale
 70
     0
300
1/64" = 1'-0"
140
0.015625
141
12.0
290
     0
  0
SCALE
  5
46
102
{ACAD_REACTORS
330
42
102
}
330
42
100
AcDbScale
 70
     0
300
1/32" = 1'-0"
140
0.03125
141
12.0
290
     0
  0
SCALE
  5
47
102
{ACAD_REACTORS
330
42
102
}
330
42
100
AcDbScale
 70
     0
300
1/16" = 1'-0"
140
0.0625
141
12.0
290
     0
  0
SCALE
  5
48
102
{ACAD_REACTORS
330
42
102
}
330
42
100
AcDbScale
 70
     0
300
3/32" = 1'-0"
140
0.09375
141
12.0
290
     0
  0
SCALE
  5
49
102
{ACAD_REACTORS
330
42
102
}
330
42
100
AcDbScale
 70
     0
300
1/8" = 1'-0"
140
0.125
141
12.0
290
     0
  0
SCALE
  5
4A
102
{ACAD_REACTORS
330
42
102
}
330
42
100
AcDbScale
 70
     0
300
3/16" = 1'-0"
140
0.1875
141
12.0
290
     0
  0
SCALE
  5
4B
102
{ACAD_REACTORS
330
42
102
}
330
42
100
AcDbScale
 70
     0
300
1/4" = 1'-0"
140
0.25
141
12.0
290
     0
  0
SCALE
  5
4C
102
{ACAD_REACTORS
330
42
102
}
330
42
100
AcDbScale
 70
     0
300
3/8" = 1'-0"
140
0.375
141
12.0
290
     0
  0
SCALE
  5
4D
102
{ACAD_REACTORS
330
42
102
}
330
42
100
AcDbScale
 70
     0
300
1/2" = 1'-0"
140
0.5
141
12.0
290
     0
  0
SCALE
  5
4E
102
{ACAD_REACTORS
330
42
102
}
330
42
100
AcDbScale
 70
     0
300
3/4" = 1'-0"
140
0.75
141
12.0
290
     0
  0
SCALE
  5
4F
102
{ACAD_REACTORS
330
42
102
}
330
42
100
AcDbScale
 70
     0
300
1" = 1'-0"
140
1.0
141
12.0
290
     0
  0
SCALE
  5
50
102
{ACAD_REACTORS
330
42
102
}
330
42
100
AcDbScale
 70
     0
300
1-1/2" = 1'-0"
140
1.5
141
12.0
290
     0
  0
SCALE
  5
51
102
{ACAD_REACTORS
330
42
102
}
330
42
100
AcDbScale
 70
     0
300
3" = 1'-0"
140
3.0
141
12.0
290
     0
  0
SCALE
  5
52
102
{ACAD_REACTORS
330
42
102
}
330
42
100
AcDbScale
 70
     0
300
6" = 1'-0"
140
6.0
141
12.0
290
     0
  0
SCALE
  5
53
102
{ACAD_REACTORS
330
42
102
}
330
42
100
AcDbScale
 70
     0
300
1'-0" = 1'-0"
140
12.0
141
12.0
290
     0
  0
TABLESTYLE
  5
65
102
{ACAD_XDICTIONARY
360
323
102
}
102
{ACAD_REACTORS
330
64
102
}
330
64
100
AcDbTableStyle
  3
Standard
 70
     0
 71
     0
 40
0.06
 41
0.06
280
     0
281
     0
  7
Standard
140
0.18
170
     2
 62
     0
 63
     7
283
     0
274
    -2
284
     1
 64
     0
275
    -2
285
     1
 65
     0
276
    -2
286
     1
 66
     0
277
    -2
287
     1
 67
     0
278
    -2
288
     1
 68
     0
279
    -2
289
     1
 69
     0
  7
Standard
140
0.25
170
     5
 62
     0
 63
     7
283
     0
274
    -2
284
     1
 64
     0
275
    -2
285
     1
 65
     0
276
    -2
286
     1
 66
     0
277
    -2
287
     1
 67
     0
278
    -2
288
     1
 68
     0
279
    -2
289
     1
 69
     0
  7
Standard
140
0.18
170
     5
 62
     0
 63
     7
283
     0
274
    -2
284
     1
 64
     0
275
    -2
285
     1
 65
     0
276
    -2
286
     1
 66
     0
277
    -2
287
     1
 67
     0
278
    -2
288
     1
 68
     0
279
    -2
289
     1
 69
     0
  0
VISUALSTYLE
  5
2F
102
{ACAD_XDICTIONARY
360
334
102
}
102
{ACAD_REACTORS
330
29
102
}
330
29
100
AcDbVisualStyle
  2
2dWireframe
 70
     4
 71
     0
 72
     2
 73
     0
 90
        0
 40
-0.6
 41
-30.0
 62
     5
 63
     7
 74
     1
 91
        4
 64
     7
 65
   257
 75
     1
175
     1
 42
1.0
 92
        0
 66
   257
 43
1.0
 76
     1
 77
     6
 78
     2
 67
     7
 79
     5
170
     0
171
     0
290
     0
174
     0
 93
        1
 44
0.0
173
     0
291
     0
 45
0.0
1001
ACAD
1000
AcDbSavedByObjectVersion
1070
     0
  0
VISUALSTYLE
  5
2E
102
{ACAD_XDICTIONARY
360
332
102
}
102
{ACAD_REACTORS
330
29
102
}
330
29
100
AcDbVisualStyle
  2
Basic
 70
     7
 71
     1
 72
     0
 73
     1
 90
        0
 40
-0.6
 41
-30.0
 62
     5
 63
     7
 74
     0
 91
        4
 64
     7
 65
   257
 75
     1
175
     1
 42
1.0
 92
        8
 66
     7
 43
1.0
 76
     1
 77
     6
 78
     2
 67
     7
 79
     5
170
     0
171
     0
290
     0
174
     0
 93
        1
 44
0.0
173
     0
291
     1
 45
0.0
1001
ACAD
1000
AcDbSavedByObjectVersion
1070
     0
  0
VISUALSTYLE
  5
35
102
{ACAD_XDICTIONARY
360
340
102
}
102
{ACAD_REACTORS
330
29
102
}
330
29
100
AcDbVisualStyle
  2
Brighten
 70
    12
 71
     2
 72
     2
 73
     0
 90
        0
 40
-0.6
 41
-30.0
 62
     5
 63
     7
 74
     1
 91
        4
 64
     7
 65
   257
 75
     1
175
     1
 42
1.0
 92
        8
 66
     7
 43
1.0
 76
     1
 77
     6
 78
     2
 67
     7
 79
     5
170
     0
171
     0
290
     0
174
     0
 93
        1
 44
50.0
173
     0
291
     1
 45
0.0
1001
ACAD
1000
AcDbSavedByObjectVersion
1070
     0
  0
VISUALSTYLE
  5
39
102
{ACAD_XDICTIONARY
360
348
102
}
102
{ACAD_REACTORS
330
29
102
}
330
29
100
AcDbVisualStyle
  2
ColorChange
 70
    16
 71
     2
 72
     2
 73
     3
 90
        0
 40
-0.6
 41
-30.0
 62
     5
 63
     8
 74
     1
 91
        4
 64
     7
 65
   257
 75
     1
175
     1
 42
1.0
 92
        8
 66
     8
 43
1.0
 76
     1
 77
     6
 78
     2
 67
     7
 79
     5
170
     0
171
     0
290
     0
174
     0
 93
        1
 44
0.0
173
     0
291
     1
 45
0.0
1001
ACAD
1000
AcDbSavedByObjectVersion
1070
     0
  0
VISUALSTYLE
  5
32
102
{ACAD_XDICTIONARY
360
33A
102
}
102
{ACAD_REACTORS
330
29
102
}
330
29
100
AcDbVisualStyle
  2
Conceptual
 70
     9
 71
     3
 72
     2
 73
     0
 90
        0
 40
-0.6
 41
-30.0
 62
     5
 63
     7
 74
     2
 91
        2
 64
     7
 65
   257
 75
     1
175
     1
 42
179.0
 92
        8
 66
     7
 43
1.0
 76
     1
 77
     6
 78
     2
 67
     7
 79
     3
170
     0
171
     0
290
     0
174
     0
 93
        1
 44
0.0
173
     0
291
     0
 45
0.0
1001
ACAD
1000
AcDbSavedByObjectVersion
1070
     0
  0
VISUALSTYLE
  5
34
102
{ACAD_XDICTIONARY
360
33E
102
}
102
{ACAD_REACTORS
330
29
102
}
330
29
100
AcDbVisualStyle
  2
Dim
 70
    11
 71
     2
 72
     2
 73
     0
 90
        0
 40
-0.6
 41
-30.0
 62
     5
 63
     7
 74
     1
 91
        4
 64
     7
 65
   257
 75
     1
175
     1
 42
1.0
 92
        8
 66
     7
 43
1.0
 76
     1
 77
     6
 78
     2
 67
     7
 79
     5
170
     0
171
     0
290
     0
174
     0
 93
        1
 44
-50.0
173
     0
291
     1
 45
0.0
1001
ACAD
1000
AcDbSavedByObjectVersion
1070
     0
  0
VISUALSTYLE
  5
41
102
{ACAD_XDICTIONARY
360
358
102
}
102
{ACAD_REACTORS
330
29
102
}
330
29
100
AcDbVisualStyle
  2
EdgeColorOff
 70
    22
 71
     2
 72
     2
 73
     0
 90
        0
 40
-0.6
 41
-30.0
 62
     5
 63
     7
 74
     1
 91
        4
 64
     7
 65
   257
 75
     1
175
     1
 42
1.0
 92
        8
 66
     7
 43
1.0
 76
     1
 77
     6
 78
     2
 67
     7
 79
     5
170
     0
171
     0
290
     0
174
     0
 93
        1
 44
0.0
173
     0
291
     1
 45
0.0
1001
ACAD
1000
AcDbSavedByObjectVersion
1070
     0
  0
VISUALSTYLE
  5
38
102
{ACAD_XDICTIONARY
360
346
102
}
102
{ACAD_REACTORS
330
29
102
}
330
29
100
AcDbVisualStyle
  2
Facepattern
 70
    15
 71
     2
 72
     2
 73
     0
 90
        0
 40
-0.6
 41
-30.0
 62
     5
 63
     7
 74
     1
 91
        4
 64
     7
 65
   257
 75
     1
175
     1
 42
1.0
 92
        8
 66
     7
 43
1.0
 76
     1
 77
     6
 78
     2
 67
     7
 79
     5
170
     0
171
     0
290
     0
174
     0
 93
        1
 44
0.0
173
     0
291
     1
 45
0.0
1001
ACAD
1000
AcDbSavedByObjectVersion
1070
     0
  0
VISUALSTYLE
  5
2A
102
{ACAD_XDICTIONARY
360
32A
102
}
102
{ACAD_REACTORS
330
29
102
}
330
29
100
AcDbVisualStyle
  2
Flat
 70
     0
 71
     2
 72
     1
 73
     1
 90
        2
 40
-0.6
 41
30.0
 62
     5
 63
     7
 74
     0
 91
        0
 64
     7
 65
   257
 75
     1
175
     1
 42
1.0
 92
        8
 66
     7
 43
1.0
 76
     1
 77
     6
 78
     2
 67
     7
 79
     5
170
     0
171
     0
290
     0
174
     0
 93
       13
 44
0.0
173
     0
291
     1
 45
0.0
1001
ACAD
1000
AcDbSavedByObjectVersion
1070
     0
  0
VISUALSTYLE
  5
2B
102
{ACAD_XDICTIONARY
360
32C
102
}
102
{ACAD_REACTORS
330
29
102
}
330
29
100
AcDbVisualStyle
  2
FlatWithEdges
 70
     1
 71
     2
 72
     1
 73
     1
 90
        2
 40
-0.6
 41
30.0
 62
     5
 63
     7
 74
     1
 91
        0
 64
     7
 65
   257
 75
     1
175
     1
 42
1.0
 92
        0
 66
   257
 43
1.0
 76
     1
 77
     6
 78
     2
 67
     7
 79
     5
170
     0
171
     0
290
     0
174
     0
 93
       13
 44
0.0
173
     0
291
     1
 45
0.0
1001
ACAD
1000
AcDbSavedByObjectVersion
1070
     0
  0
VISUALSTYLE
  5
2C
102
{ACAD_XDICTIONARY
360
32E
102
}
102
{ACAD_REACTORS
330
29
102
}
330
29
100
AcDbVisualStyle
  2
Gouraud
 70
     2
 71
     2
 72
     2
 73
     1
 90
        2
 40
-0.6
 41
30.0
 62
     5
 63
     7
 74
     0
 91
        0
 64
     7
 65
   257
 75
     1
175
     1
 42
1.0
 92
        0
 66
     7
 43
1.0
 76
     1
 77
     6
 78
     2
 67
     7
 79
     5
170
     0
171
     0
290
     0
174
     0
 93
       13
 44
0.0
173
     0
291
     1
 45
0.0
1001
ACAD
1000
AcDbSavedByObjectVersion
1070
     0
  0
VISUALSTYLE
  5
2D
102
{ACAD_XDICTIONARY
360
330
102
}
102
{ACAD_REACTORS
330
29
102
}
330
29
100
AcDbVisualStyle
  2
GouraudWithEdges
 70
     3
 71
     2
 72
     2
 73
     1
 90
        2
 40
-0.6
 41
30.0
 62
     5
 63
     7
 74
     1
 91
        0
 64
     7
 65
   257
 75
     1
175
     1
 42
1.0
 92
        0
 66
   257
 43
1.0
 76
     1
 77
     6
 78
     2
 67
     7
 79
     5
170
     0
171
     0
290
     0
174
     0
 93
       13
 44
0.0
173
     0
291
     1
 45
0.0
1001
ACAD
1000
AcDbSavedByObjectVersion
1070
     0
  0
VISUALSTYLE
  5
31
102
{ACAD_XDICTIONARY
360
338
102
}
102
{ACAD_REACTORS
330
29
102
}
330
29
100
AcDbVisualStyle
  2
Hidden
 70
     6
 71
     1
 72
     2
 73
     2
 90
        0
 40
-0.6
 41
-30.0
 62
     5
 63
     7
 74
     2
 91
        2
 64
     7
 65
   257
 75
     2
175
     1
 42
40.0
 92
        0
 66
   257
 43
1.0
 76
     1
 77
     6
 78
     2
 67
     7
 79
     3
170
     0
171
     0
290
     0
174
     0
 93
        1
 44
0.0
173
     0
291
     0
 45
0.0
1001
ACAD
1000
AcDbSavedByObjectVersion
1070
     0
  0
VISUALSTYLE
  5
3F
102
{ACAD_XDICTIONARY
360
354
102
}
102
{ACAD_REACTORS
330
29
102
}
330
29
100
AcDbVisualStyle
  2
JitterOff
 70
    20
 71
     2
 72
     2
 73
     0
 90
        0
 40
-0.6
 41
-30.0
 62
     5
 63
     7
 74
     1
 91
        4
 64
     7
 65
   257
 75
     1
175
     1
 42
1.0
 92
       10
 66
     7
 43
1.0
 76
     1
 77
     6
 78
     2
 67
     7
 79
     5
170
     0
171
     0
290
     0
174
     0
 93
        1
 44
0.0
173
     0
291
     1
 45
0.0
1001
ACAD
1000
AcDbSavedByObjectVersion
1070
     0
  0
VISUALSTYLE
  5
37
102
{ACAD_XDICTIONARY
360
344
102
}
102
{ACAD_REACTORS
330
29
102
}
330
29
100
AcDbVisualStyle
  2
Linepattern
 70
    14
 71
     2
 72
     2
 73
     0
 90
        0
 40
-0.6
 41
-30.0
 62
     5
 63
     7
 74
     1
 91
        4
 64
     7
 65
   257
 75
     7
175
     7
 42
1.0
 92
        8
 66
     7
 43
1.0
 76
     1
 77
     6
 78
     2
 67
     7
 79
     5
170
     0
171
     0
290
     0
174
     0
 93
        1
 44
0.0
173
     0
291
     1
 45
0.0
1001
ACAD
1000
AcDbSavedByObjectVersion
1070
     0
  0
VISUALSTYLE
  5
40
102
{ACAD_XDICTIONARY
360
356
102
}
102
{ACAD_REACTORS
330
29
102
}
330
29
100
AcDbVisualStyle
  2
OverhangOff
 70
    21
 71
     2
 72
     2
 73
     0
 90
        0
 40
-0.6
 41
-30.0
 62
     5
 63
     7
 74
     1
 91
        4
 64
     7
 65
   257
 75
     1
175
     1
 42
1.0
 92
        9
 66
     7
 43
1.0
 76
     1
 77
     6
 78
     2
 67
     7
 79
     5
170
     0
171
     0
290
     0
174
     0
 93
        1
 44
0.0
173
     0
291
     1
 45
0.0
1001
ACAD
1000
AcDbSavedByObjectVersion
1070
     0
  0
VISUALSTYLE
  5
33
102
{ACAD_XDICTIONARY
360
33C
102
}
102
{ACAD_REACTORS
330
29
102
}
330
29
100
AcDbVisualStyle
  2
Realistic
 70
     8
 71
     2
 72
     3
 73
     0
 90
        2
 40
-0.6
 41
30.0
 62
     5
 63
     7
 74
     0
 91
        0
 64
     7
 65
   257
 75
     1
175
     1
 42
1.0
 92
        8
 66
   257
 43
1.0
 76
     1
 77
     6
 78
     2
 67
     7
 79
     3
170
     0
171
     0
290
     0
174
     0
 93
       13
 44
0.0
173
     0
291
     0
 45
0.0
1001
ACAD
1000
AcDbSavedByObjectVersion
1070
     0
  0
VISUALSTYLE
  5
3E
102
{ACAD_XDICTIONARY
360
352
102
}
102
{ACAD_REACTORS
330
29
102
}
330
29
100
AcDbVisualStyle
  2
Shaded
 70
    27
 71
     2
 72
     2
 73
     1
 90
        2
 40
-0.6
 41
30.0
 62
     5
 63
     7
 74
     0
 91
        4
 64
     7
 65
   257
 75
     1
175
     1
 42
1.0
 92
        8
 66
   257
 43
1.0
 76
     1
 77
     6
 78
     2
 67
     8
 79
     3
170
     0
171
     0
290
     0
174
     0
 93
        5
 44
0.0
173
     0
291
     0
 45
0.0
1001
ACAD
1000
AcDbSavedByObjectVersion
1070
     0
  0
VISUALSTYLE
  5
3D
102
{ACAD_XDICTIONARY
360
350
102
}
102
{ACAD_REACTORS
330
29
102
}
330
29
100
AcDbVisualStyle
  2
Shaded with edges
 70
    26
 71
     2
 72
     2
 73
     1
 90
        2
 40
-0.6
 41
30.0
 62
     5
 63
     7
 74
     1
 91
       10
 64
     7
 65
   257
 75
     2
175
     1
 42
1.0
 92
        8
 66
   257
 43
1.0
 76
     1
 77
     6
 78
     2
 67
     7
 79
     3
170
     0
171
     0
290
     0
174
     0
 93
        5
 44
0.0
173
     0
291
     0
 45
0.0
1001
ACAD
1000
AcDbSavedByObjectVersion
1070
     0
  0
VISUALSTYLE
  5
3A
102
{ACAD_XDICTIONARY
360
34A
102
}
102
{ACAD_REACTORS
330
29
102
}
330
29
100
AcDbVisualStyle
  2
Shades of Gray
 70
    23
 71
     2
 72
     2
 73
     3
 90
        0
 40
-0.6
 41
-30.0
 62
     5
 63
     7
 74
     2
 91
        2
 64
     7
 65
     7
 75
     1
175
     1
 42
40.0
 92
        8
 66
     7
 43
1.0
 76
     1
 77
     6
 78
     2
 67
     7
 79
     3
170
     0
171
     0
290
     0
174
     0
 93
        1
 44
0.0
173
     0
291
     0
 45
0.0
1001
ACAD
1000
AcDbSavedByObjectVersion
1070
     0
  0
VISUALSTYLE
  5
3B
102
{ACAD_XDICTIONARY
360
34C
102
}
102
{ACAD_REACTORS
330
29
102
}
330
29
100
AcDbVisualStyle
  2
Sketchy
 70
    24
 71
     1
 72
     2
 73
     2
 90
        0
 40
-0.6
 41
-30.0
 62
     5
 63
     7
 74
     2
 91
        2
 64
     7
 65
     7
 75
     1
175
     1
 42
40.0
 92
       11
 66
     7
 43
1.0
 76
     1
 77
     6
 78
     2
 67
     7
 79
     6
170
     0
171
     0
290
     0
174
     0
 93
        1
 44
0.0
173
     0
291
     0
 45
0.0
1001
ACAD
1000
AcDbSavedByObjectVersion
1070
     0
  0
VISUALSTYLE
  5
36
102
{ACAD_XDICTIONARY
360
342
102
}
102
{ACAD_REACTORS
330
29
102
}
330
29
100
AcDbVisualStyle
  2
Thicken
 70
    13
 71
     2
 72
     2
 73
     0
 90
        0
 40
-0.6
 41
-30.0
 62
     5
 63
     7
 74
     1
 91
        4
 64
     7
 65
   257
 75
     1
175
     1
 42
1.0
 92
       12
 66
     7
 43
1.0
 76
     1
 77
     6
 78
     2
 67
     7
 79
     5
170
     0
171
     0
290
     0
174
     0
 93
        1
 44
0.0
173
     0
291
     1
 45
0.0
1001
ACAD
1000
AcDbSavedByObjectVersion
1070
     0
  0
VISUALSTYLE
  5
30
102
{ACAD_XDICTIONARY
360
336
102
}
102
{ACAD_REACTORS
330
29
102
}
330
29
100
AcDbVisualStyle
  2
Wireframe
 70
     5
 71
     0
 72
     2
 73
     0
 90
        0
 40
-0.6
 41
-30.0
 62
     5
 63
     7
 74
     1
 91
        4
 64
     7
 65
   257
 75
     1
175
     1
 42
1.0
 92
        0
 66
   257
 43
1.0
 76
     1
 77
     6
 78
     2
 67
     7
 79
     3
170
     0
171
     0
290
     0
174
     0
 93
        1
 44
0.0
173
     0
291
     0
 45
0.0
1001
ACAD
1000
AcDbSavedByObjectVersion
1070
     0
  0
VISUALSTYLE
  5
3C
102
{ACAD_XDICTIONARY
360
34E
102
}
102
{ACAD_REACTORS
330
29
102
}
330
29
100
AcDbVisualStyle
  2
X-Ray
 70
    25
 71
     2
 72
     2
 73
     1
 90
        1
 40
0.5
 41
-30.0
 62
     5
 63
     7
 74
     1
 91
        0
 64
     7
 65
   257
 75
     1
175
     1
 42
1.0
 92
        8
 66
     7
 43
1.0
 76
     1
 77
     6
 78
     2
 67
     7
 79
     3
170
     0
171
     0
290
     0
174
     0
 93
       13
 44
0.0
173
     0
291
     0
 45
0.0
1001
ACAD
1000
AcDbSavedByObjectVersion
1070
     0
  0
DICTIONARYVAR
  5
2BA
102
{ACAD_REACTORS
330
2B7
102
}
330
2B7
100
DictionaryVariables
280
     0
  1
1:1
  0
DICTIONARYVAR
  5
2B9
102
{ACAD_REACTORS
330
2B7
102
}
330
2B7
100
DictionaryVariables
280
     0
  1
STANDARD
  0
DICTIONARYVAR
  5
2B8
102
{ACAD_REACTORS
330
2B7
102
}
330
2B7
100
DictionaryVariables
280
     0
  1
STANDARD
  0
DICTIONARYVAR
  5
31D
102
{ACAD_REACTORS
330
2B7
102
}
330
2B7
100
DictionaryVariables
280
     0
  1
2
  0
DICTIONARYVAR
  5
31C
102
{ACAD_REACTORS
330
2B7
102
}
330
2B7
100
DictionaryVariables
280
     0
  1
1
  0
DICTIONARYVAR
  5
31B
102
{ACAD_REACTORS
330
2B7
102
}
330
2B7
100
DictionaryVariables
280
     0
  1
0
  0
DICTIONARYVAR
  5
31F
102
{ACAD_REACTORS
330
2B7
102
}
330
2B7
100
DictionaryVariables
280
     0
  1
0.000000
  0
DICTIONARYVAR
  5
318
102
{ACAD_REACTORS
330
2B7
102
}
330
2B7
100
DictionaryVariables
280
     0
  1
0
  0
DICTIONARYVAR
  5
319
102
{ACAD_REACTORS
330
2B7
102
}
330
2B7
100
DictionaryVariables
280
     0
  1
0
  0
DICTIONARYVAR
  5
317
102
{ACAD_REACTORS
330
2B7
102
}
330
2B7
100
DictionaryVariables
280
     0
  1
2
  0
DICTIONARYVAR
  5
320
102
{ACAD_REACTORS
330
2B7
102
}
330
2B7
100
DictionaryVariables
280
     0
  1
0.000000
  0
DICTIONARYVAR
  5
316
102
{ACAD_REACTORS
330
2B7
102
}
330
2B7
100
DictionaryVariables
280
     0
  1
1
  0
DICTIONARYVAR
  5
31E
102
{ACAD_REACTORS
330
2B7
102
}
330
2B7
100
DictionaryVariables
280
     0
  1
1
  0
DICTIONARYVAR
  5
31A
102
{ACAD_REACTORS
330
2B7
102
}
330
2B7
100
DictionaryVariables
280
     0
  1
127
  0
DICTIONARYVAR
  5
321
102
{ACAD_REACTORS
330
2B7
102
}
330
2B7
100
DictionaryVariables
280
     0
  1
0
  0
DICTIONARYVAR
  5
322
102
{ACAD_REACTORS
330
2B7
102
}
330
2B7
100
DictionaryVariables
280
     0
  1
2
  0
XRECORD
  5
2B5
102
{ACAD_REACTORS
330
2B1
102
}
330
2B1
100
AcDbXrecord
280
     1
  1
BUILDING_ID
  1
Sunshade-Linear-Kawneer-Curtain_Wall-Wedge
  1
FLOOR_ID
  1
19153
  0
XRECORD
  5
2B3
102
{ACAD_REACTORS
330
2B1
102
}
330
2B1
100
AcDbXrecord
280
     1
  1
-2000151
  1
Generic Models
  1
-2001354
  1
Structural Stiffeners
  1
-2009030
  1
Structural Connections
  0
XRECORD
  5
2B4
102
{ACAD_REACTORS
330
2B1
102
}
330
2B1
100
AcDbXrecord
280
     1
  1
103689
  1
Blade
  1
141087
  1
Fascias
  1
142059
  1
Outrigger
  1
144120
  1
Bracket
  0
XRECORD
  5
2B2
102
{ACAD_REACTORS
330
2B1
102
}
330
2B1
100
AcDbXrecord
280
     1
  1
135353
  1
Blade-Kawneer-Circular : Versoleil
  1
141099
  1
Fascia-Kawneer-Angular : Versoleil
  1
142066
  1
Outrigger-Kawneer-Wedge : 5"
  0
DICTIONARY
  5
35C
330
6B
100
AcDbDictionary
280
     1
281
     1
  3
ACAD_XREC_ROUNDTRIP
360
35D
  0
DICTIONARY
  5
360
330
73
100
AcDbDictionary
280
     1
281
     1
  3
ACAD_XREC_ROUNDTRIP
360
361
  0
DICTIONARY
  5
35E
330
6F
100
AcDbDictionary
280
     1
281
     1
  3
ACAD_XREC_ROUNDTRIP
360
35F
  0
DICTIONARY
  5
1A
330
19
100
AcDbDictionary
280
     1
281
     1
  3
ACAD_XREC_ROUNDTRIP
360
328
  3
BUMPTILE
360
1C
  3
DIFFUSETILE
360
1B
  3
OPACITYTILE
360
1F
  3
REFLECTIONTILE
360
1E
  3
REFRACTIONTILE
360
20
  3
SPECULARTILE
360
1D
  0
DICTIONARY
  5
12
330
11
100
AcDbDictionary
280
     1
281
     1
  3
ACAD_XREC_ROUNDTRIP
360
327
  3
BUMPTILE
360
14
  3
DIFFUSETILE
360
13
  3
OPACITYTILE
360
17
  3
REFLECTIONTILE
360
16
  3
REFRACTIONTILE
360
18
  3
SPECULARTILE
360
15
  0
DICTIONARY
  5
22
330
21
100
AcDbDictionary
280
     1
281
     1
  3
ACAD_XREC_ROUNDTRIP
360
329
  3
BUMPTILE
360
24
  3
DIFFUSETILE
360
23
  3
FBXASSET
360
2C2
  3
OPACITYTILE
360
27
  3
REFLECTIONTILE
360
26
  3
REFRACTIONTILE
360
28
  3
SPECULARTILE
360
25
  0
DICTIONARY
  5
2AF
330
2AE
100
AcDbDictionary
280
     1
281
     1
  3
ACAD_XREC_ROUNDTRIP
360
362
  3
VIZ XML Material Definition
360
2B0
  0
DICTIONARY
  5
323
330
65
100
AcDbDictionary
280
     1
281
     1
  3
ACAD_ROUNDTRIP_2008_TABLESTYLE_CELLSTYLEMAP
360
324
  3
ACAD_XREC_ROUNDTRIP
360
35A
  0
DICTIONARY
  5
334
330
2F
100
AcDbDictionary
280
     1
281
     1
  3
ACAD_XREC_ROUNDTRIP
360
335
  0
DICTIONARY
  5
332
330
2E
100
AcDbDictionary
280
     1
281
     1
  3
ACAD_XREC_ROUNDTRIP
360
333
  0
DICTIONARY
  5
340
330
35
100
AcDbDictionary
280
     1
281
     1
  3
ACAD_XREC_ROUNDTRIP
360
341
  0
DICTIONARY
  5
348
330
39
100
AcDbDictionary
280
     1
281
     1
  3
ACAD_XREC_ROUNDTRIP
360
349
  0
DICTIONARY
  5
33A
330
32
100
AcDbDictionary
280
     1
281
     1
  3
ACAD_XREC_ROUNDTRIP
360
33B
  0
DICTIONARY
  5
33E
330
34
100
AcDbDictionary
280
     1
281
     1
  3
ACAD_XREC_ROUNDTRIP
360
33F
  0
DICTIONARY
  5
358
330
41
100
AcDbDictionary
280
     1
281
     1
  3
ACAD_XREC_ROUNDTRIP
360
359
  0
DICTIONARY
  5
346
330
38
100
AcDbDictionary
280
     1
281
     1
  3
ACAD_XREC_ROUNDTRIP
360
347
  0
DICTIONARY
  5
32A
330
2A
100
AcDbDictionary
280
     1
281
     1
  3
ACAD_XREC_ROUNDTRIP
360
32B
  0
DICTIONARY
  5
32C
330
2B
100
AcDbDictionary
280
     1
281
     1
  3
ACAD_XREC_ROUNDTRIP
360
32D
  0
DICTIONARY
  5
32E
330
2C
100
AcDbDictionary
280
     1
281
     1
  3
ACAD_XREC_ROUNDTRIP
360
32F
  0
DICTIONARY
  5
330
330
2D
100
AcDbDictionary
280
     1
281
     1
  3
ACAD_XREC_ROUNDTRIP
360
331
  0
DICTIONARY
  5
338
330
31
100
AcDbDictionary
280
     1
281
     1
  3
ACAD_XREC_ROUNDTRIP
360
339
  0
DICTIONARY
  5
354
330
3F
100
AcDbDictionary
280
     1
281
     1
  3
ACAD_XREC_ROUNDTRIP
360
355
  0
DICTIONARY
  5
344
330
37
100
AcDbDictionary
280
     1
281
     1
  3
ACAD_XREC_ROUNDTRIP
360
345
  0
DICTIONARY
  5
356
330
40
100
AcDbDictionary
280
     1
281
     1
  3
ACAD_XREC_ROUNDTRIP
360
357
  0
DICTIONARY
  5
33C
330
33
100
AcDbDictionary
280
     1
281
     1
  3
ACAD_XREC_ROUNDTRIP
360
33D
  0
DICTIONARY
  5
352
330
3E
100
AcDbDictionary
280
     1
281
     1
  3
ACAD_XREC_ROUNDTRIP
360
353
  0
DICTIONARY
  5
350
330
3D
100
AcDbDictionary
280
     1
281
     1
  3
ACAD_XREC_ROUNDTRIP
360
351
  0
DICTIONARY
  5
34A
330
3A
100
AcDbDictionary
280
     1
281
     1
  3
ACAD_XREC_ROUNDTRIP
360
34B
  0
DICTIONARY
  5
34C
330
3B
100
AcDbDictionary
280
     1
281
     1
  3
ACAD_XREC_ROUNDTRIP
360
34D
  0
DICTIONARY
  5
342
330
36
100
AcDbDictionary
280
     1
281
     1
  3
ACAD_XREC_ROUNDTRIP
360
343
  0
DICTIONARY
  5
336
330
30
100
AcDbDictionary
280
     1
281
     1
  3
ACAD_XREC_ROUNDTRIP
360
337
  0
DICTIONARY
  5
34E
330
3C
100
AcDbDictionary
280
     1
281
     1
  3
ACAD_XREC_ROUNDTRIP
360
34F
  0
XRECORD
  5
35D
102
{ACAD_REACTORS
330
35C
102
}
330
35C
100
AcDbXrecord
280
     1
102
SHADEPLOT
 70
     0
102
SHADEPLOTRESLEVEL
 70
     2
102
SHADEPLOTCUSTOMDPI
 70
   300
  0
XRECORD
  5
361
102
{ACAD_REACTORS
330
360
102
}
330
360
100
AcDbXrecord
280
     1
102
SHADEPLOT
 70
     0
102
SHADEPLOTRESLEVEL
 70
     2
102
SHADEPLOTCUSTOMDPI
 70
   300
  0
XRECORD
  5
35F
102
{ACAD_REACTORS
330
35E
102
}
330
35E
100
AcDbXrecord
280
     1
102
SHADEPLOT
 70
     0
102
SHADEPLOTRESLEVEL
 70
     2
102
SHADEPLOTCUSTOMDPI
 70
   300
  0
XRECORD
  5
328
102
{ACAD_REACTORS
330
1A
102
}
330
1A
100
AcDbXrecord
280
     1
102
MATERIAL
148
0.0
149
0.0
149
0.0
 93
        0
 94
      127
282
     0
 72
     0
 77
     0
171
     0
175
     0
179
     0
273
     0
  0
XRECORD
  5
1C
102
{ACAD_REACTORS
330
1A
102
}
330
1A
100
AcDbXrecord
280
     1
270
     1
271
     1
  0
XRECORD
  5
1B
102
{ACAD_REACTORS
330
1A
102
}
330
1A
100
AcDbXrecord
280
     1
270
     1
271
     1
  0
XRECORD
  5
1F
102
{ACAD_REACTORS
330
1A
102
}
330
1A
100
AcDbXrecord
280
     1
270
     1
271
     1
  0
XRECORD
  5
1E
102
{ACAD_REACTORS
330
1A
102
}
330
1A
100
AcDbXrecord
280
     1
270
     1
271
     1
  0
XRECORD
  5
20
102
{ACAD_REACTORS
330
1A
102
}
330
1A
100
AcDbXrecord
280
     1
270
     1
271
     1
  0
XRECORD
  5
1D
102
{ACAD_REACTORS
330
1A
102
}
330
1A
100
AcDbXrecord
280
     1
270
     1
271
     1
  0
XRECORD
  5
327
102
{ACAD_REACTORS
330
12
102
}
330
12
100
AcDbXrecord
280
     1
102
MATERIAL
148
0.0
149
0.0
149
0.0
 93
        0
 94
      127
282
     0
 72
     0
 77
     0
171
     0
175
     0
179
     0
273
     0
  0
XRECORD
  5
14
102
{ACAD_REACTORS
330
12
102
}
330
12
100
AcDbXrecord
280
     1
270
     1
271
     1
  0
XRECORD
  5
13
102
{ACAD_REACTORS
330
12
102
}
330
12
100
AcDbXrecord
280
     1
270
     1
271
     1
  0
XRECORD
  5
17
102
{ACAD_REACTORS
330
12
102
}
330
12
100
AcDbXrecord
280
     1
270
     1
271
     1
  0
XRECORD
  5
16
102
{ACAD_REACTORS
330
12
102
}
330
12
100
AcDbXrecord
280
     1
270
     1
271
     1
  0
XRECORD
  5
18
102
{ACAD_REACTORS
330
12
102
}
330
12
100
AcDbXrecord
280
     1
270
     1
271
     1
  0
XRECORD
  5
15
102
{ACAD_REACTORS
330
12
102
}
330
12
100
AcDbXrecord
280
     1
270
     1
271
     1
  0
XRECORD
  5
329
102
{ACAD_REACTORS
330
22
102
}
330
22
100
AcDbXrecord
280
     1
102
MATERIAL
148
0.0
149
0.0
149
0.0
 93
        0
 94
      127
282
     0
 72
     0
 77
     0
171
     0
175
     0
179
     0
273
     0
  0
XRECORD
  5
24
102
{ACAD_REACTORS
330
22
102
}
330
22
100
AcDbXrecord
280
     1
270
     1
271
     1
  0
XRECORD
  5
23
102
{ACAD_REACTORS
330
22
102
}
330
22
100
AcDbXrecord
280
     1
270
     1
271
     1
  0
XRECORD
  5
2C2
102
{ACAD_REACTORS
330
22
102
}
330
22
100
AcDbXrecord
280
     1
 70
     1
 90
1959938040
 71
     1
  1
0A525D91-7E30-4723-A85F-E132357B68D8
311
504B03040A0000080000BB4C8C403DEE336E79000000790000001B0000006175746F6465736B2D64657369676E2D7061636B6167652E786D6C3C3F786D6C2076657273696F6E3D22312E302220656E636F64696E673D227574662D3822203F3E3C666F726D6174733E3C666F726D61743E687474703A2F2F736368656D612E
311
6175746F6465736B2E636F6D2F64657369676E2D7061636B6167652F323030393C2F666F726D61743E3C2F666F726D6174733E504B0304140006080800BB4C8C40D486FD9CA0000000F4000000130000005B436F6E74656E745F54797065735D2E786D6C7D8EC10E82300C865F65E91D8A1E8C310C0EEA1BF002731658846E
311
D98AC1B77784ABF1D8FE5FBFBF75BBCE937A534CCEB38643598122B6FEE978D0B0485F9C41B54DDD7D022595594E1A469170414C76A4D9A4D207E29CF43ECE46F218070CC6BECC4078ACAA135ACF422C856C0E68EA1BF5669944DDD7BCDE7B1F8E415D77AECB980613C2E4AC91FC167A2B244592486606FC29C8FD7F045B9A
311
EF7053A7E60B504B0304140006080800BB4C8C40BC8A39F0EA0000007C01000008000000636F72652E786D6C8D904D6EC3201085AF82668F8D7FA0B6858922B73D412F8080B828315806AA1EBF3871A476D70D337ABC6F66F4F8E97BB9A12FB305EBDD0855410019A7BCB66E1E21C50BEE009D04DFBC8FBF6C809C5CCC08BB
311
0C82CF9B4FEB2129EFA27131ABCE6B738832041301A95B6E4608EAD32CB290296647B816AB5457399BA27A76194EC96AF45862759E672FD66C20E844DB89F5356E19EBF2F34EF199D1337E63B46553DB35FD6BC3CB1D163CDAE5B95F6D4646A341D4A4AA316971557F907E685E064A31610321BCDCED7FA0B4EA7F42C9BAD8
311
D4C7B90F2C80A8F221F70FC1CB3D8B5CEE41E5BAE7267E00504B0304140006080800BB4C8C4055019EA25F0000007C00000007000000636E782E786D6C4DCB3B0E80201045D1AD90E915ED2CF8AC45050C11660C8261F98AB1B07AC9C97D42D718D865D3E909258CFD00CCE24AC6E326A164D74DC0B4128928FF326038472B
311
A13128B1252AC747C6BAB984FC68F0B87FE8960A5C09FE86CFB69FBA01504B0304140006080800BB4C8C407D26FD5C65010000020300000C0000006662782F636F72652E786D6C8D525B6EC32010BC0AE21F839F4D224C14A5ED097A01621317C5060B8395E377FD88D254515459C268666777766CBEBF762D1A951BB43525
311
8E2386913295ADB5694A1CFC996C30DA0BEEACF5BFCA3032B253259E602C78E36CE857A8B2C62BE30135B6562B288741798CAA162E251EAA6FD5C948060F15C325EA6575918D8AE20868A8137CF00E0CA065C87462713E5D395D70C143D0F5CAEA1AA6E9B3560E8BFC9867C7629B90AC2836707CE6E450E407F251E45971CC
311
36E9F63DE574120BEE757773573925BDAAB148589C10969138F962DB5DFAB6CB73C28A1D639C4EE50FA2D0D7FF14056D7C9AAC7617D980450C4666E2CFB6109147831CC10F159C4E21C26B4EF83168080442F6F2D4DEF6B80034AACA5B970153DB70A746D9060553199A1F4E17163ACF0D60B3A77D92177D5EF7800F284D03
311
D6A487EB29F8693A5FA6AE51F4CA91D15F91B1AE93EDDDDC62F17EDE073D9557B6B5EE3F6ABAAE4AD730E9F4F78A1F504B0304140006080800BB4C8C402140A6567D0000009D0000000B0000006662782F636E782E786D6C4DCCD10A83201886E15B91FFDC954BCA408D99781FB12C64A6C3E9D8E5AF46073BFAE0E1E3E5C3
311
67F3E86DD3CBC520805C6A4036DCE3ECC22AA0E405334083E429C6FC770314A6CD0A3818245F532CCF9366BB4CC5E75DBD0B8F1315191B45D91553651A4C6FAAC53DD51D36DAB0B1666DD7130D95E4D5AFB4EF11965F504B0304140006080800BB4C8C401D81BE622D01000015020000310000006662782F42314333423438
311
322D344246332D344142362D393444372D4644463843303836373931442F636F72652E786D6C8D51CB6E833010FC15E4537A30D8605E91715412E50BFA03143BA99560233FAA7C7E9742A4F6968BD79A9D991DEDF2C363BA27DFCA796D4D87684A50A2CC68A536D70EC570C10D4A0E823B6BC31F1A4ACC30A90E2D3012FCEA
311
6C9C3768B4262813003556AA0D1CBC570125E31D3E1DF2E3979A8674880118FE96CEC3781BAE2AA529B48127B80F0E0224EB90E545A2A7C7A2674D8E597F2E307BEF2BDCB2538DCFA77373244D55B7F4C4B35528788C5A6E722D218EBE68E55E3559C482073D3DE38F4E0D4149247242734C18A6F90769F745BD2F4B4CAA3D
311
213C5BE8FF4471962F8AA236A1C8B7B8ABCC234179B6360497367EDE9F61D463B62E24CBBC9D57E31B122425A46ECBB22D41B3726103605AB1CDD407EB60C3BBDB27D069B93A574CF06C391294DF0B425D0E2A7E00504B0304140006080800BB4C8C40D049E7BB4E01000033030000300000006662782F4231433342343832
311
2D344246332D344142362D393444372D4644463843303836373931442F636E782E786D6CD593CD6E022114855F85B09F3F1D6D6B184CBAE81374D12D0357A53230E1A7A96FDF8BA275E3A2CB6EC8E4DCC339375F18B6FD9E0CF9021FB4B303EDEA9612B0D2296DF7034D71573D53B2E5CC3B17EF6C945831C140B34C39DB7B
311
97E62229D8896422AA46DB63113D0497BC848072BE498C93C26000D82AA108D3084A812237237EEDC0E32A288E27120F40DE5E3F881B3F41C6C09A9CC259933B38CB6769BA3351228D0861A0411E6012B548D12908C75A8928EAAEBE763DD8E93789E40BD7CAE435C9E503CD27E565A31A39B206879C85E8915E31C5D30C94
311
8B79365A8A88909BB3F1E2E12C691BD77DF16A04EFD1DDAD977D8F61E71967514F501CD28388A0285FB4DDA26AFBAA5BBCB72F9BE5D366B5AADAF5A66D5993ED9C8DCE99720963C0BB99486723D84879C79A3C7E84AFF888D21E593B7FFA034804505A2F746E19FF994F737EDF88CBE35FC07F00504B0304140006080800BB
311
4C8C404A057604A405000080100000340000006662782F42314333423438322D344246332D344142362D393444372D4644463843303836373931442F6F626A656374732E786D6CAD57DB6EDB3810FD1541FBB2FBE08B7C499C85A2C2B193C228D216355AEC8301839228451B4A14482A75F6EBF750A26EAE9D7A177DB12C6A
311
389C3973E642F7DD2165D60B1532E1D9ADED0CC7B645B380874916DFDA858A060BDB7AE7B98273D511B3AD8CA4F4D6D6CBB6E7C68217B9590A69440AA68E561FEEFEB26440336A5B012352DEDA3278A229199242F190CAE761481419C6D161E80C2BC1BEDA5890FCE948694E04CD142CC57A062D566594D37F1DDB23CF1DE9
311
EF9EAB7F8DD4F4BCD4A8F4A77F7E924945B2E087C38ED44C9DD9FA7E32BF19CC67B3E96076357106770F77EB81733D1DAFAE56AB9BE5FD0D0E964A4093B144D0C8F6DE031B9104EEA8FAE4B94592A9E9C48898008D047D4974A46C6F6239EEA89269BC334E9E323FE0594683122BA051FA67548734A75988982754C2B20E42
311
E3FEABA371EC7C9EEA77736477F93204BA3B3A8A6ADBEB67D752EEFF0D17E4250C12926A0656581A472BAE8E5B847DCE99F996482B258A8A84308B25BE20E2D5F620AA453CB7A7463359E86CD01ED81EA2507DEED30569F4739E9FB2322A18D334B6BD320BF6C815AA646959F20F15ADF55D64601362A5D9B0300EA9D79CDA
311
DE4D4591C5119B2A20AD88911821879B7AE77472E4E84AE7E9666D7B1F1EFCC356E7EEE9C373C1732A94A60FA85507AE7E6A948C4DCE4591D31BEC23535A50BE00F98F48F5D614C44D2487D961664E51826432E222456CACB13518E3676C39E5AFFEDFF9E78E9ACDFDE89DC313C1D650FD023CFB3E7463D981D3735F40782E
311
A6C6B56D4018CAC6639201204D128B712CA10E47FEC1F636A872A8CAD84598E7C06598FB82BFEEC8A841A1284FEA3C33607954162F28D080AD6424CCA8C86F0C6CE3F443392B0F3662E7E09DFF12BA2ED7DB0FDB424424A08F26A7D7344AB244A1C5B5BCE91AD4C3BCE7D1337DFDCE4508477FC47BDBC53B354749A0AD31D7
311
C0C7754DD72FEDC9BD0302EC8BB92E37EE4F4E8013BAB176F43F2632A08C918CF2A23EF7CDFE81B65141AC935D33B969306D630169AA2F473988261D8824D72036DDAA299AC333DE7DDD7C042321CFB84F582BE4B7A537E08C8BBDFFBAAFAAD249A4BFF5A96D2018692D607B992375FA1BCCF761124585440D3C01EBB7CDAA
311
1B3A5D1550216AAD55B2CCE03E728B08C3D95A2F9AB52068A43CDB27689B48BB930774F50351438052E1398B2565D13E61AC48F751C2D08CF629C9CFC0F1FFEDF78B34DF939417993AA3BB673A9A43DFF61E79E577A28227DBDB96CFC11D4A6F48C336CC3D61DD4A4E60D50BED78399FCCD737CEE0FA7E3A1ECCAE27D3C172
311
317F18DC3BD3C9747E7D77B5582FEA3855CA3DB7EE34DD844694D0D9DC4224267C5F37481F53036CEF9128B97B5F6567FDFCBA1962147647D88376D96C5C862F18FB68F87305ADE449459B346734A599223A851EF51FF68560CCE81953AD6F5212D30BB47C7ABF3D72062B17ECFBACD39D7E3FDA6B56573A214F2A514F45EA
311
672461471BE30AC9619EC506BF3A26CDB3EA33F5AB7E3381C1602A394B4294C1D08A294FA94231BCA00789944A50AF3BD287E6EA71C1EE976A4054C467B4B6E4896046661269016A1581EAAF5BBF61A6D363D5AD8D6E3B7CC68FA914B605CEDCDA98D155125039F4D19FF524542A0797BA833CE67E92C50CA376B5A9796F76
311
696C7A1DB911B9647C327E5515DC38803292636CC03C84E894C6786E699BF91EFC27C76B732CA2F0D72F54E34BBBD038531E8314AD9C329705CC30CFE6E80312F56DB79C6129D343E4A24BD69B24A8B40E1411717951D0F6199396EBCF230C28D6E69395B322462C2FD7341014642E748283456085D1991305AAAEFEDC7D16
311
1C17D9D47A484001EBF7C3E2EA8FDD8AA729CFAAA5DDD25C87ADED132EB7E10EC581EA5B89DC4DC6CE6457DE06CC0565EF1349872494CF58406445D200DD0B3F78595D19D187AA0F8DDC4887E288A19BB5651ADB0C4A0D5DBAB5558383B923A3167248DF2875C67405F2372F04A3521426088CF2DEBF504B03041400060800
311
00BB4C8C40000000000000000000000000350000006662782F42314333423438322D344246332D344142362D393444372D4644463843303836373931442F76657274696365732E62696E504B0304140006080800BB4C8C40F270F1330600000004000000360000006662782F42314333423438322D344246332D344142362D
311
393444372D4644463843303836373931442F747269616E676C65732E62696E636660600000504B0304140006080000BB4C8C40000000000000000000000000370000006662782F42314333423438322D344246332D344142362D393444372D4644463843303836373931442F617474726962757465732E62696E504B030414
311
0006080800BB4C8C40D5987DFC8F00000041010000360000006662782F42314333423438322D344246332D344142362D393444372D4644463843303836373931442F6469726563746F72792E786D6C858F410EC2201045AF4266AF15DDB800BA74E7C21B903225242D6328188F2FA5C4183471359997F9FF81E89FF3C41E18
311
16475E02DF1F80A11FC8386F25A438EECEC07A250251FC3803E6F58C12560C4AD840E95E91C151A72936F496F35732D860FE635F62C8F2DA16B505C545B74125BAA2FA9E05D7CC053D063734D5C7665FD55B6B8D15D5E9BFEAFD8490FFA45E504B0304140006080800BB4C8C40D46064C1FC000000A00100003B0000006662
311
782F42314333423438322D344246332D344142362D393444372D4644463843303836373931442F7265736F75726365732F636F72652E786D6C8D50596EC32010BD8A35FFD878812616268AD2F604BD00C21307258688A5EAF10B892BB57FFD9919BD45F3F4C4E16BBD559FE883717682B6A650A1D56E36769920C533D94175
311
90C23B177FC9A0B26AC5090A0C522CDEA5FB06696723DA9851EB66DC40150246A8F42D1F13047DC155D52AC5AC08D7FAAEF4552D58B775A6B34E8A107D0E503D9F9409D26370C96B0CA279B252A464E64D63E6FCD39C0D7A90ECC48613DFB764E07C97C73B2347CE8EE48DB3819F865DBF7FED4553CC5244B3FE64D41E55C4
311
196447DB8ED081B4DD07DD8FFDCBC818A17CA4543445FEC794EEF33F4DC9D8D8775BDCA72D806C739007214553FACAEB5166DEA55BF90D504B010214000A0000080000BB4C8C403DEE336E79000000790000001B00000000000000000000000000000000006175746F6465736B2D64657369676E2D7061636B6167652E786D
311
6C504B01021400140006080800BB4C8C40D486FD9CA0000000F40000001300000000000000000000000000B20000005B436F6E74656E745F54797065735D2E786D6C504B01021400140006080800BB4C8C40BC8A39F0EA0000007C010000080000000000000000000000000083010000636F72652E786D6C504B0102140014
311
0006080800BB4C8C4055019EA25F0000007C000000070000000000000000000000000093020000636E782E786D6C504B01021400140006080800BB4C8C407D26FD5C65010000020300000C00000000000000000000000000170300006662782F636F72652E786D6C504B01021400140006080800BB4C8C402140A6567D0000
311
009D0000000B00000000000000000000000000A60400006662782F636E782E786D6C504B01021400140006080800BB4C8C401D81BE622D0100001502000031000000000000000000000000004C0500006662782F42314333423438322D344246332D344142362D393444372D4644463843303836373931442F636F72652E78
311
6D6C504B01021400140006080800BB4C8C40D049E7BB4E010000330300003000000000000000000000000000C80600006662782F42314333423438322D344246332D344142362D393444372D4644463843303836373931442F636E782E786D6C504B01021400140006080800BB4C8C404A057604A405000080100000340000
311
0000000000000000000000640800006662782F42314333423438322D344246332D344142362D393444372D4644463843303836373931442F6F626A656374732E786D6C504B01021400140006080000BB4C8C4000000000000000000000000035000000000000000000000000005A0E00006662782F42314333423438322D34
311
4246332D344142362D393444372D4644463843303836373931442F76657274696365732E62696E504B01021400140006080800BB4C8C40F270F13306000000040000003600000000000000000000000000AD0E00006662782F42314333423438322D344246332D344142362D393444372D4644463843303836373931442F74
311
7269616E676C65732E62696E504B01021400140006080000BB4C8C400000000000000000000000003700000000000000000000000000070F00006662782F42314333423438322D344246332D344142362D393444372D4644463843303836373931442F617474726962757465732E62696E504B01021400140006080800BB4C
311
8C40D5987DFC8F0000004101000036000000000000000000000000005C0F00006662782F42314333423438322D344246332D344142362D393444372D4644463843303836373931442F6469726563746F72792E786D6C504B01021400140006080800BB4C8C40D46064C1FC000000A00100003B000000000000000000000000
311
003F1000006662782F42314333423438322D344246332D344142362D393444372D4644463843303836373931442F7265736F75726365732F636F72652E786D6C504B0506000000000E000E0080040000941100000000
310
504B03040A0000080000BB4C8C403DEE336E79000000790000001B0000006175746F6465736B2D64657369676E2D7061636B6167652E786D6C3C3F786D6C2076657273696F6E3D22312E302220656E636F64696E673D227574662D3822203F3E3C666F726D6174733E3C666F726D61743E687474703A2F2F736368656D612E
310
6175746F6465736B2E636F6D2F64657369676E2D7061636B6167652F323030393C2F666F726D61743E3C2F666F726D6174733E504B0304140006080800BB4C8C40D486FD9CA0000000F4000000130000005B436F6E74656E745F54797065735D2E786D6C7D8EC10E82300C865F65E91D8A1E8C310C0EEA1BF002731658846E
310
D98AC1B77784ABF1D8FE5FBFBF75BBCE937A534CCEB38643598122B6FEE978D0B0485F9C41B54DDD7D022595594E1A469170414C76A4D9A4D207E29CF43ECE46F218070CC6BECC4078ACAA135ACF422C856C0E68EA1BF5669944DDD7BCDE7B1F8E415D77AECB980613C2E4AC91FC167A2B244592486606FC29C8FD7F045B9A
310
EF7053A7E60B504B0304140006080800BB4C8C4068BB0DF8EB0000007C01000008000000636F72652E786D6C8D904D6EC3201085AF82668F0D8E7F120B13C98E73825E0001715162B00C543D7E71E248EDAEAB19BD79DFCCE8B1F3F7FC405F7AF5C6D90E684600692B9D3276EA20861B3E023A73B63A177ED9005931EB0E36
310
19389B5617975D92CE066D4352AD537A1785F73A00928FD474E0E5A79E452662480E7FCF1621EF62D2197D77098ED128F43A6254DA676E46AFC0EB86F6D5F134E0BE2F6A5C5E2E35EEC7FE889BEB388CE3D0D4D7AA64F9067316CCFCBE2F572D8256C00B420B4C4A4C8B0F726A0F4D5B5598D42D212CDFEC7FA0B8A87F42D1
310
D87028F6775F98074ED323CF0167F996452ACFA052DD72E33F504B0304140006080800BB4C8C4055019EA25F0000007C00000007000000636E782E786D6C4DCB3B0E80201045D1AD90E915ED2CF8AC45050C11660C8261F98AB1B07AC9C97D42D718D865D3E909258CFD00CCE24AC6E326A164D74DC0B4128928FF32603847
310
2BA13128B1252AC747C6BAB984FC68F0B87FE8960A5C09FE86CFB69FBA01504B0304140006080800BB4C8C40D42048ED67010000020300000C0000006662782F636F72652E786D6C8D52ED8E8230107C95A6FF4B01F9F04CA9098A4F702F50A17244684969898F7FCB87F1BC1863484A33B3B33B3BC0F6B7AE45A33443A355
310
8603CFC748AA52578DAA33ECEC856C31DA7366B4B67FCA3052A293199E60CC596DB4EB57A8D4CA4A650155BA922B2886415A8CCA162E191ECA1FD9094F380B15C3D5EB457915B5F4020F68A8E36CB0060CA065C874627E39DF185D70CE9C6BAA956D2A98D65C1A69304FD2208FB75F0792E76142A2E3312179916F497A2A0E
310
45714893531C313A8939B34D7777571A29ACAC300FFD20247E4482F0DBFFDA6DD25D1C133FD9F93EA353F993C8F5D58722D728BB0957BB8B6CC03C002333F16F5B88C8A2418CE0877246A710E13527FC1C340402215B716EEF7B5C011A6569B58980A9B47B50A3689D84A93E9A1F4617163ACF0D60B3977DC2377DDEF7800F
310
28540DD68485EBD9D9693A5BA6AE51F4D290D1DE90D2A613EDC3DC62F1713E06BD9497BAD5E613355D57A56B9874FA7BF92F504B0304140006080800BB4C8C40C38259D67D0000009D0000000B0000006662782F636E782E786D6C4DCCD10A83201886E15B91FFDCE552EA0FD408E6EE239685CC349C8E5DFE6A74B0A30F1E
310
3E5ED97F564FDE36BD5C0C0AAE1706C486479C5C5814943C5304D26B9962CC7F3720615CAD828341CB25C5B29D34D9792C3EEFEA5D789EC85B6C8CC196DE0723A860EC4691778CA2A8EBC670D60DC8A0D2B2FA95F63DC2FA0B504B0304140006080800BB4C8C4049B227972A01000015020000310000006662782F33373836
310
454538372D464145342D343030442D383339302D3834323236453330394138302F636F72652E786D6C8D51CB6EC32010FC158B537AC0E6E13824C24491EA7E417F8000495162B07854F9FCE2DA91DA5B2E2C9A9D991DEDF2E363BC57DF2644EB5D0F708D40659CF2DABA6B0F72BA4006AAA3E0C1FBF487062A2747D3831906
310
825F83CFD30A29EF9271A9A0CE6BB38232469340A5EEE5D383A8BECC286B995361C45B3D4975935753E3BAB40B4FF0984209502D43E61708BA63DD30B01DFC380D2D6C117A878CEE11642D21DD40D1FEC4106F16A1E0395BBDCAAD2E71ECC59AF0AAC92C163CD9F1195F052393D140108409442DC4E413ED0F7477D86E21EA
310
0EA84C9EE9FF4479D22F8AB275899235EE228B4060DE2C0DC1B5CFE7FB338C794C3EA46A9EB78946BD01816A8418268460CA9B855B36504CBB76358DC987B2E1CDED5CE87475EE5AC19BF948A5FC5EB0D4F9A0E207504B0304140006080800BB4C8C40B6EE28AC5501000033030000300000006662782F3337383645453837
310
2D464145342D343030442D383339302D3834323236453330394138302F636E782E786D6CBD93CD6EC32010845F0571F76F1C378D30917AE813F4D02B814D4283C1025C356FDF2521692E3954AA7A41D6EC30B3FA84D9E66B34E4137CD0CE0EB4296B4AC04AA7B4DD0F748EBB6245C98633EF5CBCB35162C508034D32E56CEF
310
DD3C6549C14ECC26A26AB43D66D14370B39710504E37897152180C005BCC28C2B805A540919B11BF76E0711514B727120F405E5FDE89DB7E808C81552985B32A757096CEDC7467A2441A11C240833CC0284A3147A7201C4B25A2289BF2DAF560A79F24922E5C2B67AF492A1F683A29CF1B95C8915538E42C448FF4B2299E26
310
A05C4C93D15244845C9D8D170F67B3B6B1EFB25723788FEE45DBAF5618769E7116F508D9213D88088AF2B66EDAA2EE8AA67DAB9FD78BA7F57259D4FDBAAE5995EC9C6D9D33F912C680771391CE46B091F2865569FC085FF611A53DB276FEF40B900820B75EE8DC32FE924FD32FBAEE1FF954E7F78DB83CFE05FC1B504B0304
310
140006080800BB4C8C40E112224462070000991B0000340000006662782F33373836454538372D464145342D343030442D383339302D3834323236453330394138302F6F626A656374732E786D6CED595B739B3814FE2B0CFBB2FB606C7CC96587B093C44DC7D349DBA9B79D7DF00C23834CB4118291449AECAFDFA30B1888
310
49F036FBD6071B10D2D139DFB9EA10FCF19851E70173417276E1FADEC475308BF384B0F4C22DE56E74E63A7F8401CF73D998E63A0C65F8C255C36E18A43C2F0B3B94E01D2AA9EC8CDE5CFDE5881833EC3A3145425CB822BEC319F25029F3048B7B2F411279E9EED1F33D33B14D36E5A8B8EB102D10C74C02A730CE808A6398
310
F2DB8F13771C0663F53E0CD4BF9D351B346BDE3F6BACA56E7349989088C5CF58EA90990D6269E6CF97EFA68BF3D1623E9F8DE627537F747573B51CF9A7B3C9F5C9F5F5F9E5BB73606F9BE7D4CA94E002B304F4F7E4867E30566F6AD12D0287B88E73C670AC8104A8B4585D82040BD8AA01DFA4FDE82B891AAFB5848DE7B97A
310
6F59680CCFDA54FA660D03A2451704B1DB551257D7A67CF9F66F105C0C314A2EB0046E85E4A05D0B0F07AF70C3493036A361B0DDEB82082743127382A843C996230E4A81A96A4A189805968C720E0EA41C2581D69C79DDB62DF0CCD75DE71097BB9252E5196EA81D2B02F7C35268CEC83F98EFB96F22033C81B42561F2CC72
310
299F0AEC86E7C1580F8681BACCA6F6A501D2D951940A8D8879DB11F45AB9FE6AE9861F6EB68F6B150E0E6F5EF0BCC05C2AA3537AD47C8121DBAB42C96EEB0FD29C5A00C21850EDCA3D285F00F98F103DF6AC80DE38799C3FCEED5CC91113BB9C67A01B67E28C26F037717CFDAFEE1B77C1B85EDCD65E1F9EE0A60AAAB31FC7
310
B32D83C6CAF2DF80330C1EC0E0733EB3AFD631A260CFB7840140CA481C9AC31084F6DDF6D10D57103821D0C32A44431F4406761FE036185B327BAD54EE65BD8E01A2768FD91025016CDA22818D1E3DBD87ECC149BC575353C43E78176F62AE97CBF58775C97728C6B7D6A7977847189190350F33D4C2BC25D13D7EFA9EF304
310
047D8EF7BA897766B71280B6C25C019F5620A887FDCEAD0D625897E62ADC04AFEC0042A85CDDA07F4B448C29450CE765B56F1DDD94A1D61E6F6B06379C1A8867D38E0973FC405455014EB39FD16214F27ECC49A14074C3F746B23A687A3DD27D5D7D048BACE7F7CC5A3108BD0CD13F75D03A8043CBB22BA42D10B5C0DB7D38
310
8F739AF368FB149948E7422D016CB4BDE55B8B28C47AA32445053C48FB5D155252236D9490DDAE1410570FB0F86D75DD34878937F3174EF3BFE38C7388B6E0BB885BBFEBEC11910CA538DAA1A46FBBE66E356DA149F690E67847412EF240E45384643449707A0C3447113F7F53EA29CD85200C0BC85707C16FA231F1209018
310
6D562C2BAD76802622CAB044F4180414991E7075DAD1356E0CA5C3EB3CD6D6FB92C69A44FF278BE0086AC99C45044A51C821AF32EE7B0B88216D740DCA1D7CC1DA2ADA5A0C5A4209113F45DF3149EFE431A81BF23DB8C77024296594172806B31E40F699AF28A57678DFA2F85EE58F282EE95B1988C07417114ACB2C821F61
310
70F218E2DA75607A1185067113FB24CEA02843B2E4433639594C9EED636A866E086C6CB42314C27694A1A207F55640D4F58853836FA9F728755B664584B2BC64830CC59B75BDC992EFAA55911DC8AF2A15A16CAC085B82614098ACB36A15B3C1D475600537D281EA2912282BA83985BD9278FCDA9B34E5DE0DB8F5D3B7DD20
310
83C2AF477BCD883AAF60B03CB60A03F11DC9F8CE0DD7FA3ABA82FA3BC1C93ED557B566B30204C454242F39B12AFABA82F2C6D6686E788BA4D8BC3759B7BA7E5D79D0FD08C6B0066A977AE14A019D612691AA4C6ED50DFD822004B76898F195CAA9C750B94C125D35227A43FAD4D92A235A9B66C42BEE30CB33F8B10D61312D
310
13BC4189B88F6E258DD644B16EA5F4325261FCA2809FDEAF3BF0C0C800913EAB020F7FEFACB5A3D7AA5C3A4844DE95D996210241B0255A6A74E3152CB51AA9B45C5FD59902EA2E3030ABE2F9CF9345B31DF1F364915AC3F8B19305CDB788EEA34D239BC7CAAC8F3A05D4E94951798B5380EE3AD454EB246272B915DFFA5204
310
31B10AF2838BB12A6618827D1CFFE7A4DD9704CD761DFE8F4BDAFEB382E3A8A4D29AAC9A54070AD75533854D2E17D3C5F2DC1F9DBE9B4D46F3D3E96C7479B6B819BDF367D3D9E2F4EAE46C7956A3A9FD340CEA58A653173C9B98560DAB278B013465454E490287F9C44931847C0947FA01DD739E6101B9B3D9EB4E6C4F7EC0
310
EA07D3E694684B71C5C91D82FE301590D501A33296ED71E717E84C4A38675FB8D033F2EEE1CF5AA5EB40E2B970A15320498C85B7852E93EAE769E2907175EAB7C4001FC4529511CDA2FAB95EA5B06945FF7ACA902C60E56AB530A06E2BA0F9D56A5068DE2C4FF1518257EC3848C2EDB69450AC1959F603B5307A9BBDFA8D6C
310
94B07BBBF523B8EECB62F99E9ED34264D01783178DC0501D49C453DDEE568C59962E979FC7D06673569F9C829629E87238A511C760CCA5AAA7C08AC02A2CCD024930D5EBDF379F790E5F7832471745CEAF8F6727BF6DAEF32CCB9919DA5CC2A12C81EF44CEFA0EBEFA241BA81DB0EAAD8BCD74E24F37BAA76DDBECD11609EC
310
A9A20806AA5A4209D23139B0CB67FD29DBBD1C2B5574A6AF968E0DA2D00B3076F4ACC56BBE7139E043EA6B8AF218EDE795B42FB6B5C77A2AD804878674F82F504B0304140006080000BB4C8C40000000000000000000000000350000006662782F33373836454538372D464145342D343030442D383339302D383432323645
310
3330394138302F76657274696365732E62696E504B0304140006080800BB4C8C40F270F1330600000004000000360000006662782F33373836454538372D464145342D343030442D383339302D3834323236453330394138302F747269616E676C65732E62696E636660600000504B0304140006080000BB4C8C4000000000
310
0000000000000000370000006662782F33373836454538372D464145342D343030442D383339302D3834323236453330394138302F617474726962757465732E62696E504B0304140006080800BB4C8C40D5987DFC8F00000041010000360000006662782F33373836454538372D464145342D343030442D383339302D3834
310
323236453330394138302F6469726563746F72792E786D6C858F410EC2201045AF4266AF15DDB800BA74E7C21B903225242D6328188F2FA5C4183471359997F9FF81E89FF3C41E1816475E02DF1F80A11FC8386F25A438EECEC07A250251FC3803E6F58C12560C4AD840E95E91C151A72936F496F35732D860FE635F62C8F2
310
DA16B505C545B74125BAA2FA9E05D7CC053D063734D5C7665FD55B6B8D15D5E9BFEAFD8490FFA45E504B0304140006080800BB4C8C407B102360FD000000A00100003B0000006662782F33373836454538372D464145342D343030442D383339302D3834323236453330394138302F7265736F75726365732F636F72652E78
310
6D6C8D50596E833010BD0A9A7F83212C09328E44424ED00B586642AC041B79A97AFC9A40A5F6AF3F33A3B7689E1E3B7FCDAFE413AD53467790A71412D4D28C4A4F1D047F274748CE9C5963FC2F19245ACCD8C10A0367933561D92169B447ED23AACD883B289C430F897CC5A303271F388B54041F15EE992E423EC584699E46
310
3AEA3873DEC600C9F6649DC02D3A13AC44C7B28DE52C0435EE1A35C69FEAAED002AF9BBCAF8EA79EF47D5193F27AAD493FF447D2DC86CB305C9AFA56952C5BCD9C7935FF64941685C7117841F382D092E4C5073DB587A6AD2A42EB965296ADF23FA6B08CFF3405A5FDA1D8E36E36073C8F41DE0467D9DA575CEF32E35EBBE5
310
DF504B010214000A0000080000BB4C8C403DEE336E79000000790000001B00000000000000000000000000000000006175746F6465736B2D64657369676E2D7061636B6167652E786D6C504B01021400140006080800BB4C8C40D486FD9CA0000000F40000001300000000000000000000000000B20000005B436F6E74656E
310
745F54797065735D2E786D6C504B01021400140006080800BB4C8C4068BB0DF8EB0000007C010000080000000000000000000000000083010000636F72652E786D6C504B01021400140006080800BB4C8C4055019EA25F0000007C000000070000000000000000000000000094020000636E782E786D6C504B010214001400
310
06080800BB4C8C40D42048ED67010000020300000C00000000000000000000000000180300006662782F636F72652E786D6C504B01021400140006080800BB4C8C40C38259D67D0000009D0000000B00000000000000000000000000A90400006662782F636E782E786D6C504B01021400140006080800BB4C8C4049B22797
310
2A0100001502000031000000000000000000000000004F0500006662782F33373836454538372D464145342D343030442D383339302D3834323236453330394138302F636F72652E786D6C504B01021400140006080800BB4C8C40B6EE28AC55010000330300003000000000000000000000000000C80600006662782F3337
310
3836454538372D464145342D343030442D383339302D3834323236453330394138302F636E782E786D6C504B01021400140006080800BB4C8C40E112224462070000991B000034000000000000000000000000006B0800006662782F33373836454538372D464145342D343030442D383339302D3834323236453330394138
310
302F6F626A656374732E786D6C504B01021400140006080000BB4C8C4000000000000000000000000035000000000000000000000000001F1000006662782F33373836454538372D464145342D343030442D383339302D3834323236453330394138302F76657274696365732E62696E504B01021400140006080800BB4C8C
310
40F270F13306000000040000003600000000000000000000000000721000006662782F33373836454538372D464145342D343030442D383339302D3834323236453330394138302F747269616E676C65732E62696E504B01021400140006080000BB4C8C400000000000000000000000003700000000000000000000000000
310
CC1000006662782F33373836454538372D464145342D343030442D383339302D3834323236453330394138302F617474726962757465732E62696E504B01021400140006080800BB4C8C40D5987DFC8F000000410100003600000000000000000000000000211100006662782F33373836454538372D464145342D34303044
310
2D383339302D3834323236453330394138302F6469726563746F72792E786D6C504B01021400140006080800BB4C8C407B102360FD000000A00100003B00000000000000000000000000041200006662782F33373836454538372D464145342D343030442D383339302D3834323236453330394138302F7265736F75726365
310
732F636F72652E786D6C504B0506000000000E000E00800400005A1300000000
  0
XRECORD
  5
27
102
{ACAD_REACTORS
330
22
102
}
330
22
100
AcDbXrecord
280
     1
270
     1
271
     1
  0
XRECORD
  5
26
102
{ACAD_REACTORS
330
22
102
}
330
22
100
AcDbXrecord
280
     1
270
     1
271
     1
  0
XRECORD
  5
28
102
{ACAD_REACTORS
330
22
102
}
330
22
100
AcDbXrecord
280
     1
270
     1
271
     1
  0
XRECORD
  5
25
102
{ACAD_REACTORS
330
22
102
}
330
22
100
AcDbXrecord
280
     1
270
     1
271
     1
  0
XRECORD
  5
362
102
{ACAD_REACTORS
330
2AF
102
}
330
2AF
100
AcDbXrecord
280
     1
102
MATERIAL
148
0.0
149
0.0
149
0.0
 93
        0
 94
      127
282
     0
 72
     1
 77
     0
171
     1
175
     0
179
     1
273
     0
  0
XRECORD
  5
2B0
102
{ACAD_REACTORS
330
2AF
102
}
330
2AF
100
AcDbXrecord
280
     1
300
<Material id="RevitMaterialDefinition97641" app="REVIT" Background="0" Backlight="1" Sample="0" Tiling="0">^J<LinearUnits unitType="foot" unitScale="1.0"/>^J<ArchitecturalMaterial name="Aluminum - Kawneer - Clear">^J<ArchTemplateParameters name="Aluminum - K
300
awneer - Clear" classid_A="2008828122" classid_B="14503598">^J</ArchTemplateParameters>^J<ArchMatParameters>^J<ArchDiffuseColor>^J<RGBf r="0.8980" g="0.8980" b="0.8980"/>^J</ArchDiffuseColor>^J<ArchIndexOfRefraction>1.5000</ArchIndexOfRefraction>^J<ArchTranspare
300
ncy>0.0000</ArchTransparency>^J<ArchLuminance>0.0000</ArchLuminance>^J</ArchMatParameters>^J</ArchitecturalMaterial>^J</Material>^J
  0
CELLSTYLEMAP
  5
324
102
{ACAD_REACTORS
330
323
102
}
330
323
100
AcDbCellStyleMap
 90
        3
300
CELLSTYLE
  1
TABLEFORMAT_BEGIN
 90
        5
170
     1
 91
        0
 92
    32768
 62
   257
 93
        1
300
CONTENTFORMAT
  1
CONTENTFORMAT_BEGIN
 90
        0
 91
        0
 92
      512
 93
        0
300

 40
0.0
140
1.0
 94
        5
 62
     0
340
55
144
0.25
309
CONTENTFORMAT_END
171
     0
 94
        0
309
TABLEFORMAT_END
  1
CELLSTYLE_BEGIN
 90
        1
 91
        1
300
_TITLE
309
CELLSTYLE_END
300
CELLSTYLE
  1
TABLEFORMAT_BEGIN
 90
        5
170
     1
 91
        0
 92
        0
 62
   257
 93
        1
300
CONTENTFORMAT
  1
CONTENTFORMAT_BEGIN
 90
        0
 91
        0
 92
      512
 93
        0
300

 40
0.0
140
1.0
 94
        5
 62
     0
340
55
144
0.18
309
CONTENTFORMAT_END
171
     0
 94
        0
309
TABLEFORMAT_END
  1
CELLSTYLE_BEGIN
 90
        2
 91
        1
300
_HEADER
309
CELLSTYLE_END
300
CELLSTYLE
  1
TABLEFORMAT_BEGIN
 90
        5
170
     1
 91
        0
 92
        0
 62
   257
 93
        1
300
CONTENTFORMAT
  1
CONTENTFORMAT_BEGIN
 90
        0
 91
        0
 92
      512
 93
        0
300

 40
0.0
140
1.0
 94
        2
 62
     0
340
55
144
0.18
309
CONTENTFORMAT_END
171
     0
 94
        0
309
TABLEFORMAT_END
  1
CELLSTYLE_BEGIN
 90
        3
 91
        2
300
_DATA
309
CELLSTYLE_END
  0
XRECORD
  5
35A
102
{ACAD_REACTORS
330
323
102
}
330
323
100
AcDbXrecord
280
     1
102
ACAD_ROUNDTRIP_PRE2007_TABLESTYLE
 90
      512
 91
        0
  1

 92
      512
 93
        0
  2

 94
      512
 95
        0
  3

  0
XRECORD
  5
335
102
{ACAD_REACTORS
330
334
102
}
330
334
100
AcDbXrecord
280
     1
102
RTVSPropertyOp0
 70
     1
102
RTVSPropertyOp1
 70
     1
102
RTVSPropertyOp2
 70
     1
102
RTVSPropertyOp3
 70
     1
102
RTVSPropertyOp4
 70
     1
102
RTVSPropertyOp5
 70
     1
102
RTVSPropertyOp6
 70
     1
102
RTVSPropertyOp7
 70
     1
102
RTVSPropertyOp8
 70
     1
102
RTVSPropertyOp9
 70
     1
102
RTVSPropertyOp10
 70
     1
102
RTVSPropertyOp11
 70
     1
102
RTVSPropertyOp12
 70
     1
102
RTVSPropertyOp13
 70
     1
102
RTVSPropertyOp14
 70
     1
102
RTVSPropertyOp15
 70
     1
102
RTVSPropertyOp16
 70
     1
102
RTVSPropertyOp17
 70
     1
102
RTVSPropertyOp18
 70
     1
102
RTVSPropertyOp19
 70
     1
102
RTVSPropertyOp20
 70
     1
102
RTVSPropertyOp21
 70
     1
102
RTVSPropertyOp22
 70
     1
102
RTVSPropertyOp23
 70
     1
102
RTVSPropertyOp24
 70
     1
102
RTVSPropertyOp25
 70
     1
102
RTVSPropertyOp26
 70
     1
102
RTVSPropertyOp27
 70
     1
102
RTVSPropertyOp28
 70
     1
102
RTVSPropertyOp29
 70
     1
102
RTVSPropertyOp30
 70
     1
102
RTVSPropertyOp31
 70
     1
102
RTVSPropertyOp32
 70
     1
  0
XRECORD
  5
333
102
{ACAD_REACTORS
330
332
102
}
330
332
100
AcDbXrecord
280
     1
102
RTVSPropertyOp0
 70
     1
102
RTVSPropertyOp1
 70
     1
102
RTVSPropertyOp2
 70
     1
102
RTVSPropertyOp3
 70
     1
102
RTVSPropertyOp4
 70
     1
102
RTVSPropertyOp5
 70
     1
102
RTVSPropertyOp6
 70
     1
102
RTVSPropertyOp7
 70
     1
102
RTVSPropertyOp8
 70
     1
102
RTVSPropertyOp9
 70
     1
102
RTVSPropertyOp10
 70
     1
102
RTVSPropertyOp11
 70
     1
102
RTVSPropertyOp12
 70
     1
102
RTVSPropertyOp13
 70
     1
102
RTVSPropertyOp14
 70
     1
102
RTVSPropertyOp15
 70
     1
102
RTVSPropertyOp16
 70
     1
102
RTVSPropertyOp17
 70
     1
102
RTVSPropertyOp18
 70
     1
102
RTVSPropertyOp19
 70
     1
102
RTVSPropertyOp20
 70
     1
102
RTVSPropertyOp21
 70
     1
102
RTVSPropertyOp22
 70
     1
102
RTVSPropertyOp23
 70
     1
102
RTVSPropertyOp24
 70
     1
102
RTVSPropertyOp25
 70
     1
102
RTVSPropertyOp26
 70
     1
102
RTVSPropertyOp27
 70
     1
102
RTVSPropertyOp28
 70
     1
102
RTVSPropertyOp29
 70
     1
102
RTVSPropertyOp30
 70
     1
102
RTVSPropertyOp31
 70
     1
102
RTVSPropertyOp32
 70
     1
  0
XRECORD
  5
341
102
{ACAD_REACTORS
330
340
102
}
330
340
100
AcDbXrecord
280
     1
102
RTVSPropertyOp0
 70
     1
102
RTVSPropertyOp1
 70
     1
102
RTVSPropertyOp2
 70
     1
102
RTVSPropertyOp3
 70
     1
102
RTVSPropertyOp4
 70
     1
102
RTVSPropertyOp5
 70
     1
102
RTVSPropertyOp6
 70
     1
102
RTVSPropertyOp7
 70
     1
102
RTVSPropertyOp8
 70
     1
102
RTVSPropertyOp9
 70
     1
102
RTVSPropertyOp10
 70
     1
102
RTVSPropertyOp11
 70
     1
102
RTVSPropertyOp12
 70
     1
102
RTVSPropertyOp13
 70
     1
102
RTVSPropertyOp14
 70
     1
102
RTVSPropertyOp15
 70
     1
102
RTVSPropertyOp16
 70
     1
102
RTVSPropertyOp17
 70
     1
102
RTVSPropertyOp18
 70
     1
102
RTVSPropertyOp19
 70
     1
102
RTVSPropertyOp20
 70
     1
102
RTVSPropertyOp21
 70
     1
102
RTVSPropertyOp22
 70
     1
102
RTVSPropertyOp23
 70
     1
102
RTVSPropertyOp24
 70
     1
102
RTVSPropertyOp25
 70
     1
102
RTVSPropertyOp26
 70
     1
102
RTVSPropertyOp27
 70
     1
102
RTVSPropertyOp28
 70
     1
102
RTVSPropertyOp29
 70
     1
102
RTVSPropertyOp30
 70
     1
102
RTVSPropertyOp31
 70
     1
102
RTVSPropertyOp32
 70
     1
  0
XRECORD
  5
349
102
{ACAD_REACTORS
330
348
102
}
330
348
100
AcDbXrecord
280
     1
102
RTVSPropertyOp0
 70
     1
102
RTVSPropertyOp1
 70
     1
102
RTVSPropertyOp2
 70
     1
102
RTVSPropertyOp3
 70
     1
102
RTVSPropertyOp4
 70
     1
102
RTVSPropertyOp5
 70
     1
102
RTVSPropertyOp6
 70
     1
102
RTVSPropertyOp7
 70
     1
102
RTVSPropertyOp8
 70
     1
102
RTVSPropertyOp9
 70
     1
102
RTVSPropertyOp10
 70
     1
102
RTVSPropertyOp11
 70
     1
102
RTVSPropertyOp12
 70
     1
102
RTVSPropertyOp13
 70
     1
102
RTVSPropertyOp14
 70
     1
102
RTVSPropertyOp15
 70
     1
102
RTVSPropertyOp16
 70
     1
102
RTVSPropertyOp17
 70
     1
102
RTVSPropertyOp18
 70
     1
102
RTVSPropertyOp19
 70
     1
102
RTVSPropertyOp20
 70
     1
102
RTVSPropertyOp21
 70
     1
102
RTVSPropertyOp22
 70
     1
102
RTVSPropertyOp23
 70
     1
102
RTVSPropertyOp24
 70
     1
102
RTVSPropertyOp25
 70
     1
102
RTVSPropertyOp26
 70
     1
102
RTVSPropertyOp27
 70
     1
102
RTVSPropertyOp28
 70
     1
102
RTVSPropertyOp29
 70
     1
102
RTVSPropertyOp30
 70
     1
102
RTVSPropertyOp31
 70
     1
102
RTVSPropertyOp32
 70
     1
  0
XRECORD
  5
33B
102
{ACAD_REACTORS
330
33A
102
}
330
33A
100
AcDbXrecord
280
     1
102
RTVSPropertyOp0
 70
     1
102
RTVSPropertyOp1
 70
     1
102
RTVSPropertyOp2
 70
     1
102
RTVSPropertyOp3
 70
     1
102
RTVSPropertyOp4
 70
     1
102
RTVSPropertyOp5
 70
     1
102
RTVSPropertyOp6
 70
     1
102
RTVSPropertyOp7
 70
     1
102
RTVSPropertyOp8
 70
     1
102
RTVSPropertyOp9
 70
     1
102
RTVSPropertyOp10
 70
     1
102
RTVSPropertyOp11
 70
     1
102
RTVSPropertyOp12
 70
     1
102
RTVSPropertyOp13
 70
     1
102
RTVSPropertyOp14
 70
     1
102
RTVSPropertyOp15
 70
     1
102
RTVSPropertyOp16
 70
     1
102
RTVSPropertyOp17
 70
     1
102
RTVSPropertyOp18
 70
     1
102
RTVSPropertyOp19
 70
     1
102
RTVSPropertyOp20
 70
     1
102
RTVSPropertyOp21
 70
     1
102
RTVSPropertyOp22
 70
     1
102
RTVSPropertyOp23
 70
     1
102
RTVSPropertyOp24
 70
     1
102
RTVSPropertyOp25
 70
     1
102
RTVSPropertyOp26
 70
     1
102
RTVSPropertyOp27
 70
     1
102
RTVSPropertyOp28
 70
     1
102
RTVSPropertyOp29
 70
     1
102
RTVSPropertyOp30
 70
     1
102
RTVSPropertyOp31
 70
     1
102
RTVSPropertyOp32
 70
     1
  0
XRECORD
  5
33F
102
{ACAD_REACTORS
330
33E
102
}
330
33E
100
AcDbXrecord
280
     1
102
RTVSPropertyOp0
 70
     1
102
RTVSPropertyOp1
 70
     1
102
RTVSPropertyOp2
 70
     1
102
RTVSPropertyOp3
 70
     1
102
RTVSPropertyOp4
 70
     1
102
RTVSPropertyOp5
 70
     1
102
RTVSPropertyOp6
 70
     1
102
RTVSPropertyOp7
 70
     1
102
RTVSPropertyOp8
 70
     1
102
RTVSPropertyOp9
 70
     1
102
RTVSPropertyOp10
 70
     1
102
RTVSPropertyOp11
 70
     1
102
RTVSPropertyOp12
 70
     1
102
RTVSPropertyOp13
 70
     1
102
RTVSPropertyOp14
 70
     1
102
RTVSPropertyOp15
 70
     1
102
RTVSPropertyOp16
 70
     1
102
RTVSPropertyOp17
 70
     1
102
RTVSPropertyOp18
 70
     1
102
RTVSPropertyOp19
 70
     1
102
RTVSPropertyOp20
 70
     1
102
RTVSPropertyOp21
 70
     1
102
RTVSPropertyOp22
 70
     1
102
RTVSPropertyOp23
 70
     1
102
RTVSPropertyOp24
 70
     1
102
RTVSPropertyOp25
 70
     1
102
RTVSPropertyOp26
 70
     1
102
RTVSPropertyOp27
 70
     1
102
RTVSPropertyOp28
 70
     1
102
RTVSPropertyOp29
 70
     1
102
RTVSPropertyOp30
 70
     1
102
RTVSPropertyOp31
 70
     1
102
RTVSPropertyOp32
 70
     1
  0
XRECORD
  5
359
102
{ACAD_REACTORS
330
358
102
}
330
358
100
AcDbXrecord
280
     1
102
RTVSPropertyOp0
 70
     0
102
RTVSPropertyOp1
 70
     0
102
RTVSPropertyOp2
 70
     0
102
RTVSPropertyOp3
 70
     0
102
RTVSPropertyOp4
 70
     0
102
RTVSPropertyOp5
 70
     0
102
RTVSPropertyOp6
 70
     0
102
RTVSPropertyOp7
 70
     0
102
RTVSPropertyOp8
 70
     0
102
RTVSPropertyOp9
 70
     0
102
RTVSPropertyOp10
 70
     0
102
RTVSPropertyOp11
 70
     0
102
RTVSPropertyOp12
 70
     0
102
RTVSPropertyOp13
 70
     0
102
RTVSPropertyOp14
 70
     2
102
RTVSPropertyOp15
 70
     0
102
RTVSPropertyOp16
 70
     0
102
RTVSPropertyOp17
 70
     0
102
RTVSPropertyOp18
 70
     0
102
RTVSPropertyOp19
 70
     0
102
RTVSPropertyOp20
 70
     0
102
RTVSPropertyOp21
 70
     0
102
RTVSPropertyOp22
 70
     0
102
RTVSPropertyOp23
 70
     0
102
RTVSPropertyOp24
 70
     0
102
RTVSPropertyOp25
 70
     0
102
RTVSPropertyOp26
 70
     0
102
RTVSPropertyOp27
 70
     0
102
RTVSPropertyOp28
 70
     1
102
RTVSPropertyOp29
 70
     1
102
RTVSPropertyOp30
 70
     1
102
RTVSPropertyOp31
 70
     1
102
RTVSPropertyOp32
 70
     1
  0
XRECORD
  5
347
102
{ACAD_REACTORS
330
346
102
}
330
346
100
AcDbXrecord
280
     1
102
RTVSPropertyOp0
 70
     1
102
RTVSPropertyOp1
 70
     1
102
RTVSPropertyOp2
 70
     1
102
RTVSPropertyOp3
 70
     1
102
RTVSPropertyOp4
 70
     1
102
RTVSPropertyOp5
 70
     1
102
RTVSPropertyOp6
 70
     1
102
RTVSPropertyOp7
 70
     1
102
RTVSPropertyOp8
 70
     1
102
RTVSPropertyOp9
 70
     1
102
RTVSPropertyOp10
 70
     1
102
RTVSPropertyOp11
 70
     1
102
RTVSPropertyOp12
 70
     1
102
RTVSPropertyOp13
 70
     1
102
RTVSPropertyOp14
 70
     1
102
RTVSPropertyOp15
 70
     1
102
RTVSPropertyOp16
 70
     1
102
RTVSPropertyOp17
 70
     1
102
RTVSPropertyOp18
 70
     1
102
RTVSPropertyOp19
 70
     1
102
RTVSPropertyOp20
 70
     1
102
RTVSPropertyOp21
 70
     1
102
RTVSPropertyOp22
 70
     1
102
RTVSPropertyOp23
 70
     1
102
RTVSPropertyOp24
 70
     1
102
RTVSPropertyOp25
 70
     1
102
RTVSPropertyOp26
 70
     1
102
RTVSPropertyOp27
 70
     1
102
RTVSPropertyOp28
 70
     1
102
RTVSPropertyOp29
 70
     1
102
RTVSPropertyOp30
 70
     1
102
RTVSPropertyOp31
 70
     1
102
RTVSPropertyOp32
 70
     1
  0
XRECORD
  5
32B
102
{ACAD_REACTORS
330
32A
102
}
330
32A
100
AcDbXrecord
280
     1
102
RTVSPropertyOp0
 70
     1
102
RTVSPropertyOp1
 70
     1
102
RTVSPropertyOp2
 70
     1
102
RTVSPropertyOp3
 70
     1
102
RTVSPropertyOp4
 70
     1
102
RTVSPropertyOp5
 70
     1
102
RTVSPropertyOp6
 70
     1
102
RTVSPropertyOp7
 70
     1
102
RTVSPropertyOp8
 70
     1
102
RTVSPropertyOp9
 70
     1
102
RTVSPropertyOp10
 70
     1
102
RTVSPropertyOp11
 70
     1
102
RTVSPropertyOp12
 70
     1
102
RTVSPropertyOp13
 70
     1
102
RTVSPropertyOp14
 70
     1
102
RTVSPropertyOp15
 70
     1
102
RTVSPropertyOp16
 70
     1
102
RTVSPropertyOp17
 70
     1
102
RTVSPropertyOp18
 70
     1
102
RTVSPropertyOp19
 70
     1
102
RTVSPropertyOp20
 70
     1
102
RTVSPropertyOp21
 70
     1
102
RTVSPropertyOp22
 70
     1
102
RTVSPropertyOp23
 70
     1
102
RTVSPropertyOp24
 70
     1
102
RTVSPropertyOp25
 70
     1
102
RTVSPropertyOp26
 70
     1
102
RTVSPropertyOp27
 70
     1
102
RTVSPropertyOp28
 70
     1
102
RTVSPropertyOp29
 70
     1
102
RTVSPropertyOp30
 70
     1
102
RTVSPropertyOp31
 70
     1
102
RTVSPropertyOp32
 70
     1
  0
XRECORD
  5
32D
102
{ACAD_REACTORS
330
32C
102
}
330
32C
100
AcDbXrecord
280
     1
102
RTVSPropertyOp0
 70
     1
102
RTVSPropertyOp1
 70
     1
102
RTVSPropertyOp2
 70
     1
102
RTVSPropertyOp3
 70
     1
102
RTVSPropertyOp4
 70
     1
102
RTVSPropertyOp5
 70
     1
102
RTVSPropertyOp6
 70
     1
102
RTVSPropertyOp7
 70
     1
102
RTVSPropertyOp8
 70
     1
102
RTVSPropertyOp9
 70
     1
102
RTVSPropertyOp10
 70
     1
102
RTVSPropertyOp11
 70
     1
102
RTVSPropertyOp12
 70
     1
102
RTVSPropertyOp13
 70
     1
102
RTVSPropertyOp14
 70
     1
102
RTVSPropertyOp15
 70
     1
102
RTVSPropertyOp16
 70
     1
102
RTVSPropertyOp17
 70
     1
102
RTVSPropertyOp18
 70
     1
102
RTVSPropertyOp19
 70
     1
102
RTVSPropertyOp20
 70
     1
102
RTVSPropertyOp21
 70
     1
102
RTVSPropertyOp22
 70
     1
102
RTVSPropertyOp23
 70
     1
102
RTVSPropertyOp24
 70
     1
102
RTVSPropertyOp25
 70
     1
102
RTVSPropertyOp26
 70
     1
102
RTVSPropertyOp27
 70
     1
102
RTVSPropertyOp28
 70
     1
102
RTVSPropertyOp29
 70
     1
102
RTVSPropertyOp30
 70
     1
102
RTVSPropertyOp31
 70
     1
102
RTVSPropertyOp32
 70
     1
  0
XRECORD
  5
32F
102
{ACAD_REACTORS
330
32E
102
}
330
32E
100
AcDbXrecord
280
     1
102
RTVSPropertyOp0
 70
     1
102
RTVSPropertyOp1
 70
     1
102
RTVSPropertyOp2
 70
     1
102
RTVSPropertyOp3
 70
     1
102
RTVSPropertyOp4
 70
     1
102
RTVSPropertyOp5
 70
     1
102
RTVSPropertyOp6
 70
     1
102
RTVSPropertyOp7
 70
     1
102
RTVSPropertyOp8
 70
     1
102
RTVSPropertyOp9
 70
     1
102
RTVSPropertyOp10
 70
     1
102
RTVSPropertyOp11
 70
     1
102
RTVSPropertyOp12
 70
     1
102
RTVSPropertyOp13
 70
     1
102
RTVSPropertyOp14
 70
     1
102
RTVSPropertyOp15
 70
     1
102
RTVSPropertyOp16
 70
     1
102
RTVSPropertyOp17
 70
     1
102
RTVSPropertyOp18
 70
     1
102
RTVSPropertyOp19
 70
     1
102
RTVSPropertyOp20
 70
     1
102
RTVSPropertyOp21
 70
     1
102
RTVSPropertyOp22
 70
     1
102
RTVSPropertyOp23
 70
     1
102
RTVSPropertyOp24
 70
     1
102
RTVSPropertyOp25
 70
     1
102
RTVSPropertyOp26
 70
     1
102
RTVSPropertyOp27
 70
     1
102
RTVSPropertyOp28
 70
     1
102
RTVSPropertyOp29
 70
     1
102
RTVSPropertyOp30
 70
     1
102
RTVSPropertyOp31
 70
     1
102
RTVSPropertyOp32
 70
     1
  0
XRECORD
  5
331
102
{ACAD_REACTORS
330
330
102
}
330
330
100
AcDbXrecord
280
     1
102
RTVSPropertyOp0
 70
     1
102
RTVSPropertyOp1
 70
     1
102
RTVSPropertyOp2
 70
     1
102
RTVSPropertyOp3
 70
     1
102
RTVSPropertyOp4
 70
     1
102
RTVSPropertyOp5
 70
     1
102
RTVSPropertyOp6
 70
     1
102
RTVSPropertyOp7
 70
     1
102
RTVSPropertyOp8
 70
     1
102
RTVSPropertyOp9
 70
     1
102
RTVSPropertyOp10
 70
     1
102
RTVSPropertyOp11
 70
     1
102
RTVSPropertyOp12
 70
     1
102
RTVSPropertyOp13
 70
     1
102
RTVSPropertyOp14
 70
     1
102
RTVSPropertyOp15
 70
     1
102
RTVSPropertyOp16
 70
     1
102
RTVSPropertyOp17
 70
     1
102
RTVSPropertyOp18
 70
     1
102
RTVSPropertyOp19
 70
     1
102
RTVSPropertyOp20
 70
     1
102
RTVSPropertyOp21
 70
     1
102
RTVSPropertyOp22
 70
     1
102
RTVSPropertyOp23
 70
     1
102
RTVSPropertyOp24
 70
     1
102
RTVSPropertyOp25
 70
     1
102
RTVSPropertyOp26
 70
     1
102
RTVSPropertyOp27
 70
     1
102
RTVSPropertyOp28
 70
     1
102
RTVSPropertyOp29
 70
     1
102
RTVSPropertyOp30
 70
     1
102
RTVSPropertyOp31
 70
     1
102
RTVSPropertyOp32
 70
     1
  0
XRECORD
  5
339
102
{ACAD_REACTORS
330
338
102
}
330
338
100
AcDbXrecord
280
     1
102
RTVSPropertyOp0
 70
     1
102
RTVSPropertyOp1
 70
     1
102
RTVSPropertyOp2
 70
     1
102
RTVSPropertyOp3
 70
     1
102
RTVSPropertyOp4
 70
     1
102
RTVSPropertyOp5
 70
     1
102
RTVSPropertyOp6
 70
     1
102
RTVSPropertyOp7
 70
     1
102
RTVSPropertyOp8
 70
     1
102
RTVSPropertyOp9
 70
     1
102
RTVSPropertyOp10
 70
     1
102
RTVSPropertyOp11
 70
     1
102
RTVSPropertyOp12
 70
     1
102
RTVSPropertyOp13
 70
     1
102
RTVSPropertyOp14
 70
     1
102
RTVSPropertyOp15
 70
     1
102
RTVSPropertyOp16
 70
     1
102
RTVSPropertyOp17
 70
     1
102
RTVSPropertyOp18
 70
     1
102
RTVSPropertyOp19
 70
     1
102
RTVSPropertyOp20
 70
     1
102
RTVSPropertyOp21
 70
     1
102
RTVSPropertyOp22
 70
     1
102
RTVSPropertyOp23
 70
     1
102
RTVSPropertyOp24
 70
     1
102
RTVSPropertyOp25
 70
     1
102
RTVSPropertyOp26
 70
     1
102
RTVSPropertyOp27
 70
     1
102
RTVSPropertyOp28
 70
     1
102
RTVSPropertyOp29
 70
     1
102
RTVSPropertyOp30
 70
     1
102
RTVSPropertyOp31
 70
     1
102
RTVSPropertyOp32
 70
     1
  0
XRECORD
  5
355
102
{ACAD_REACTORS
330
354
102
}
330
354
100
AcDbXrecord
280
     1
102
RTVSPropertyOp0
 70
     0
102
RTVSPropertyOp1
 70
     0
102
RTVSPropertyOp2
 70
     0
102
RTVSPropertyOp3
 70
     0
102
RTVSPropertyOp4
 70
     0
102
RTVSPropertyOp5
 70
     0
102
RTVSPropertyOp6
 70
     0
102
RTVSPropertyOp7
 70
     0
102
RTVSPropertyOp8
 70
     0
102
RTVSPropertyOp9
 70
     0
102
RTVSPropertyOp10
 70
     0
102
RTVSPropertyOp11
 70
     0
102
RTVSPropertyOp12
 70
     0
102
RTVSPropertyOp13
 70
     0
102
RTVSPropertyOp14
 70
     2
102
RTVSPropertyOp15
 70
     0
102
RTVSPropertyOp16
 70
     0
102
RTVSPropertyOp17
 70
     0
102
RTVSPropertyOp18
 70
     0
102
RTVSPropertyOp19
 70
     0
102
RTVSPropertyOp20
 70
     0
102
RTVSPropertyOp21
 70
     0
102
RTVSPropertyOp22
 70
     0
102
RTVSPropertyOp23
 70
     0
102
RTVSPropertyOp24
 70
     0
102
RTVSPropertyOp25
 70
     0
102
RTVSPropertyOp26
 70
     0
102
RTVSPropertyOp27
 70
     0
102
RTVSPropertyOp28
 70
     1
102
RTVSPropertyOp29
 70
     1
102
RTVSPropertyOp30
 70
     1
102
RTVSPropertyOp31
 70
     1
102
RTVSPropertyOp32
 70
     1
  0
XRECORD
  5
345
102
{ACAD_REACTORS
330
344
102
}
330
344
100
AcDbXrecord
280
     1
102
RTVSPropertyOp0
 70
     1
102
RTVSPropertyOp1
 70
     1
102
RTVSPropertyOp2
 70
     1
102
RTVSPropertyOp3
 70
     1
102
RTVSPropertyOp4
 70
     1
102
RTVSPropertyOp5
 70
     1
102
RTVSPropertyOp6
 70
     1
102
RTVSPropertyOp7
 70
     1
102
RTVSPropertyOp8
 70
     1
102
RTVSPropertyOp9
 70
     1
102
RTVSPropertyOp10
 70
     1
102
RTVSPropertyOp11
 70
     1
102
RTVSPropertyOp12
 70
     1
102
RTVSPropertyOp13
 70
     1
102
RTVSPropertyOp14
 70
     1
102
RTVSPropertyOp15
 70
     1
102
RTVSPropertyOp16
 70
     1
102
RTVSPropertyOp17
 70
     1
102
RTVSPropertyOp18
 70
     1
102
RTVSPropertyOp19
 70
     1
102
RTVSPropertyOp20
 70
     1
102
RTVSPropertyOp21
 70
     1
102
RTVSPropertyOp22
 70
     1
102
RTVSPropertyOp23
 70
     1
102
RTVSPropertyOp24
 70
     1
102
RTVSPropertyOp25
 70
     1
102
RTVSPropertyOp26
 70
     1
102
RTVSPropertyOp27
 70
     1
102
RTVSPropertyOp28
 70
     1
102
RTVSPropertyOp29
 70
     1
102
RTVSPropertyOp30
 70
     1
102
RTVSPropertyOp31
 70
     1
102
RTVSPropertyOp32
 70
     1
  0
XRECORD
  5
357
102
{ACAD_REACTORS
330
356
102
}
330
356
100
AcDbXrecord
280
     1
102
RTVSPropertyOp0
 70
     0
102
RTVSPropertyOp1
 70
     0
102
RTVSPropertyOp2
 70
     0
102
RTVSPropertyOp3
 70
     0
102
RTVSPropertyOp4
 70
     0
102
RTVSPropertyOp5
 70
     0
102
RTVSPropertyOp6
 70
     0
102
RTVSPropertyOp7
 70
     0
102
RTVSPropertyOp8
 70
     0
102
RTVSPropertyOp9
 70
     0
102
RTVSPropertyOp10
 70
     0
102
RTVSPropertyOp11
 70
     0
102
RTVSPropertyOp12
 70
     0
102
RTVSPropertyOp13
 70
     0
102
RTVSPropertyOp14
 70
     2
102
RTVSPropertyOp15
 70
     0
102
RTVSPropertyOp16
 70
     0
102
RTVSPropertyOp17
 70
     0
102
RTVSPropertyOp18
 70
     0
102
RTVSPropertyOp19
 70
     0
102
RTVSPropertyOp20
 70
     0
102
RTVSPropertyOp21
 70
     0
102
RTVSPropertyOp22
 70
     0
102
RTVSPropertyOp23
 70
     0
102
RTVSPropertyOp24
 70
     0
102
RTVSPropertyOp25
 70
     0
102
RTVSPropertyOp26
 70
     0
102
RTVSPropertyOp27
 70
     0
102
RTVSPropertyOp28
 70
     1
102
RTVSPropertyOp29
 70
     1
102
RTVSPropertyOp30
 70
     1
102
RTVSPropertyOp31
 70
     1
102
RTVSPropertyOp32
 70
     1
  0
XRECORD
  5
33D
102
{ACAD_REACTORS
330
33C
102
}
330
33C
100
AcDbXrecord
280
     1
102
RTVSPropertyOp0
 70
     1
102
RTVSPropertyOp1
 70
     1
102
RTVSPropertyOp2
 70
     1
102
RTVSPropertyOp3
 70
     1
102
RTVSPropertyOp4
 70
     1
102
RTVSPropertyOp5
 70
     1
102
RTVSPropertyOp6
 70
     1
102
RTVSPropertyOp7
 70
     1
102
RTVSPropertyOp8
 70
     1
102
RTVSPropertyOp9
 70
     1
102
RTVSPropertyOp10
 70
     1
102
RTVSPropertyOp11
 70
     1
102
RTVSPropertyOp12
 70
     1
102
RTVSPropertyOp13
 70
     1
102
RTVSPropertyOp14
 70
     1
102
RTVSPropertyOp15
 70
     1
102
RTVSPropertyOp16
 70
     1
102
RTVSPropertyOp17
 70
     1
102
RTVSPropertyOp18
 70
     1
102
RTVSPropertyOp19
 70
     1
102
RTVSPropertyOp20
 70
     1
102
RTVSPropertyOp21
 70
     1
102
RTVSPropertyOp22
 70
     1
102
RTVSPropertyOp23
 70
     1
102
RTVSPropertyOp24
 70
     1
102
RTVSPropertyOp25
 70
     1
102
RTVSPropertyOp26
 70
     1
102
RTVSPropertyOp27
 70
     1
102
RTVSPropertyOp28
 70
     1
102
RTVSPropertyOp29
 70
     1
102
RTVSPropertyOp30
 70
     1
102
RTVSPropertyOp31
 70
     1
102
RTVSPropertyOp32
 70
     1
  0
XRECORD
  5
353
102
{ACAD_REACTORS
330
352
102
}
330
352
100
AcDbXrecord
280
     1
102
RTVSPropertyOp0
 70
     1
102
RTVSPropertyOp1
 70
     1
102
RTVSPropertyOp2
 70
     1
102
RTVSPropertyOp3
 70
     1
102
RTVSPropertyOp4
 70
     1
102
RTVSPropertyOp5
 70
     1
102
RTVSPropertyOp6
 70
     1
102
RTVSPropertyOp7
 70
     1
102
RTVSPropertyOp8
 70
     1
102
RTVSPropertyOp9
 70
     1
102
RTVSPropertyOp10
 70
     1
102
RTVSPropertyOp11
 70
     1
102
RTVSPropertyOp12
 70
     1
102
RTVSPropertyOp13
 70
     1
102
RTVSPropertyOp14
 70
     1
102
RTVSPropertyOp15
 70
     1
102
RTVSPropertyOp16
 70
     1
102
RTVSPropertyOp17
 70
     1
102
RTVSPropertyOp18
 70
     1
102
RTVSPropertyOp19
 70
     1
102
RTVSPropertyOp20
 70
     1
102
RTVSPropertyOp21
 70
     1
102
RTVSPropertyOp22
 70
     1
102
RTVSPropertyOp23
 70
     1
102
RTVSPropertyOp24
 70
     1
102
RTVSPropertyOp25
 70
     1
102
RTVSPropertyOp26
 70
     1
102
RTVSPropertyOp27
 70
     1
102
RTVSPropertyOp28
 70
     1
102
RTVSPropertyOp29
 70
     1
102
RTVSPropertyOp30
 70
     1
102
RTVSPropertyOp31
 70
     1
102
RTVSPropertyOp32
 70
     1
  0
XRECORD
  5
351
102
{ACAD_REACTORS
330
350
102
}
330
350
100
AcDbXrecord
280
     1
102
RTVSPropertyOp0
 70
     1
102
RTVSPropertyOp1
 70
     1
102
RTVSPropertyOp2
 70
     1
102
RTVSPropertyOp3
 70
     1
102
RTVSPropertyOp4
 70
     1
102
RTVSPropertyOp5
 70
     1
102
RTVSPropertyOp6
 70
     1
102
RTVSPropertyOp7
 70
     1
102
RTVSPropertyOp8
 70
     1
102
RTVSPropertyOp9
 70
     1
102
RTVSPropertyOp10
 70
     1
102
RTVSPropertyOp11
 70
     1
102
RTVSPropertyOp12
 70
     1
102
RTVSPropertyOp13
 70
     1
102
RTVSPropertyOp14
 70
     1
102
RTVSPropertyOp15
 70
     1
102
RTVSPropertyOp16
 70
     1
102
RTVSPropertyOp17
 70
     1
102
RTVSPropertyOp18
 70
     1
102
RTVSPropertyOp19
 70
     1
102
RTVSPropertyOp20
 70
     1
102
RTVSPropertyOp21
 70
     1
102
RTVSPropertyOp22
 70
     1
102
RTVSPropertyOp23
 70
     1
102
RTVSPropertyOp24
 70
     1
102
RTVSPropertyOp25
 70
     1
102
RTVSPropertyOp26
 70
     1
102
RTVSPropertyOp27
 70
     1
102
RTVSPropertyOp28
 70
     1
102
RTVSPropertyOp29
 70
     1
102
RTVSPropertyOp30
 70
     1
102
RTVSPropertyOp31
 70
     1
102
RTVSPropertyOp32
 70
     1
  0
XRECORD
  5
34B
102
{ACAD_REACTORS
330
34A
102
}
330
34A
100
AcDbXrecord
280
     1
102
RTVSPropertyOp0
 70
     1
102
RTVSPropertyOp1
 70
     1
102
RTVSPropertyOp2
 70
     1
102
RTVSPropertyOp3
 70
     1
102
RTVSPropertyOp4
 70
     1
102
RTVSPropertyOp5
 70
     1
102
RTVSPropertyOp6
 70
     1
102
RTVSPropertyOp7
 70
     1
102
RTVSPropertyOp8
 70
     1
102
RTVSPropertyOp9
 70
     1
102
RTVSPropertyOp10
 70
     1
102
RTVSPropertyOp11
 70
     1
102
RTVSPropertyOp12
 70
     1
102
RTVSPropertyOp13
 70
     1
102
RTVSPropertyOp14
 70
     1
102
RTVSPropertyOp15
 70
     1
102
RTVSPropertyOp16
 70
     1
102
RTVSPropertyOp17
 70
     1
102
RTVSPropertyOp18
 70
     1
102
RTVSPropertyOp19
 70
     1
102
RTVSPropertyOp20
 70
     1
102
RTVSPropertyOp21
 70
     1
102
RTVSPropertyOp22
 70
     1
102
RTVSPropertyOp23
 70
     1
102
RTVSPropertyOp24
 70
     1
102
RTVSPropertyOp25
 70
     1
102
RTVSPropertyOp26
 70
     1
102
RTVSPropertyOp27
 70
     1
102
RTVSPropertyOp28
 70
     1
102
RTVSPropertyOp29
 70
     1
102
RTVSPropertyOp30
 70
     1
102
RTVSPropertyOp31
 70
     1
102
RTVSPropertyOp32
 70
     1
  0
XRECORD
  5
34D
102
{ACAD_REACTORS
330
34C
102
}
330
34C
100
AcDbXrecord
280
     1
102
RTVSPropertyOp0
 70
     1
102
RTVSPropertyOp1
 70
     1
102
RTVSPropertyOp2
 70
     1
102
RTVSPropertyOp3
 70
     1
102
RTVSPropertyOp4
 70
     1
102
RTVSPropertyOp5
 70
     1
102
RTVSPropertyOp6
 70
     1
102
RTVSPropertyOp7
 70
     1
102
RTVSPropertyOp8
 70
     1
102
RTVSPropertyOp9
 70
     1
102
RTVSPropertyOp10
 70
     1
102
RTVSPropertyOp11
 70
     1
102
RTVSPropertyOp12
 70
     1
102
RTVSPropertyOp13
 70
     1
102
RTVSPropertyOp14
 70
     1
102
RTVSPropertyOp15
 70
     1
102
RTVSPropertyOp16
 70
     1
102
RTVSPropertyOp17
 70
     1
102
RTVSPropertyOp18
 70
     1
102
RTVSPropertyOp19
 70
     1
102
RTVSPropertyOp20
 70
     1
102
RTVSPropertyOp21
 70
     1
102
RTVSPropertyOp22
 70
     1
102
RTVSPropertyOp23
 70
     1
102
RTVSPropertyOp24
 70
     1
102
RTVSPropertyOp25
 70
     1
102
RTVSPropertyOp26
 70
     1
102
RTVSPropertyOp27
 70
     1
102
RTVSPropertyOp28
 70
     1
102
RTVSPropertyOp29
 70
     1
102
RTVSPropertyOp30
 70
     1
102
RTVSPropertyOp31
 70
     1
102
RTVSPropertyOp32
 70
     1
  0
XRECORD
  5
343
102
{ACAD_REACTORS
330
342
102
}
330
342
100
AcDbXrecord
280
     1
102
RTVSPropertyOp0
 70
     1
102
RTVSPropertyOp1
 70
     1
102
RTVSPropertyOp2
 70
     1
102
RTVSPropertyOp3
 70
     1
102
RTVSPropertyOp4
 70
     1
102
RTVSPropertyOp5
 70
     1
102
RTVSPropertyOp6
 70
     1
102
RTVSPropertyOp7
 70
     1
102
RTVSPropertyOp8
 70
     1
102
RTVSPropertyOp9
 70
     1
102
RTVSPropertyOp10
 70
     1
102
RTVSPropertyOp11
 70
     1
102
RTVSPropertyOp12
 70
     1
102
RTVSPropertyOp13
 70
     1
102
RTVSPropertyOp14
 70
     1
102
RTVSPropertyOp15
 70
     1
102
RTVSPropertyOp16
 70
     1
102
RTVSPropertyOp17
 70
     1
102
RTVSPropertyOp18
 70
     1
102
RTVSPropertyOp19
 70
     1
102
RTVSPropertyOp20
 70
     1
102
RTVSPropertyOp21
 70
     1
102
RTVSPropertyOp22
 70
     1
102
RTVSPropertyOp23
 70
     1
102
RTVSPropertyOp24
 70
     1
102
RTVSPropertyOp25
 70
     1
102
RTVSPropertyOp26
 70
     1
102
RTVSPropertyOp27
 70
     1
102
RTVSPropertyOp28
 70
     1
102
RTVSPropertyOp29
 70
     1
102
RTVSPropertyOp30
 70
     1
102
RTVSPropertyOp31
 70
     1
102
RTVSPropertyOp32
 70
     1
  0
XRECORD
  5
337
102
{ACAD_REACTORS
330
336
102
}
330
336
100
AcDbXrecord
280
     1
102
RTVSPropertyOp0
 70
     1
102
RTVSPropertyOp1
 70
     1
102
RTVSPropertyOp2
 70
     1
102
RTVSPropertyOp3
 70
     1
102
RTVSPropertyOp4
 70
     1
102
RTVSPropertyOp5
 70
     1
102
RTVSPropertyOp6
 70
     1
102
RTVSPropertyOp7
 70
     1
102
RTVSPropertyOp8
 70
     1
102
RTVSPropertyOp9
 70
     1
102
RTVSPropertyOp10
 70
     1
102
RTVSPropertyOp11
 70
     1
102
RTVSPropertyOp12
 70
     1
102
RTVSPropertyOp13
 70
     1
102
RTVSPropertyOp14
 70
     1
102
RTVSPropertyOp15
 70
     1
102
RTVSPropertyOp16
 70
     1
102
RTVSPropertyOp17
 70
     1
102
RTVSPropertyOp18
 70
     1
102
RTVSPropertyOp19
 70
     1
102
RTVSPropertyOp20
 70
     1
102
RTVSPropertyOp21
 70
     1
102
RTVSPropertyOp22
 70
     1
102
RTVSPropertyOp23
 70
     1
102
RTVSPropertyOp24
 70
     1
102
RTVSPropertyOp25
 70
     1
102
RTVSPropertyOp26
 70
     1
102
RTVSPropertyOp27
 70
     1
102
RTVSPropertyOp28
 70
     1
102
RTVSPropertyOp29
 70
     1
102
RTVSPropertyOp30
 70
     1
102
RTVSPropertyOp31
 70
     1
102
RTVSPropertyOp32
 70
     1
  0
XRECORD
  5
34F
102
{ACAD_REACTORS
330
34E
102
}
330
34E
100
AcDbXrecord
280
     1
102
RTVSPropertyOp0
 70
     1
102
RTVSPropertyOp1
 70
     1
102
RTVSPropertyOp2
 70
     1
102
RTVSPropertyOp3
 70
     1
102
RTVSPropertyOp4
 70
     1
102
RTVSPropertyOp5
 70
     1
102
RTVSPropertyOp6
 70
     1
102
RTVSPropertyOp7
 70
     1
102
RTVSPropertyOp8
 70
     1
102
RTVSPropertyOp9
 70
     1
102
RTVSPropertyOp10
 70
     1
102
RTVSPropertyOp11
 70
     1
102
RTVSPropertyOp12
 70
     1
102
RTVSPropertyOp13
 70
     1
102
RTVSPropertyOp14
 70
     1
102
RTVSPropertyOp15
 70
     1
102
RTVSPropertyOp16
 70
     1
102
RTVSPropertyOp17
 70
     1
102
RTVSPropertyOp18
 70
     1
102
RTVSPropertyOp19
 70
     1
102
RTVSPropertyOp20
 70
     1
102
RTVSPropertyOp21
 70
     1
102
RTVSPropertyOp22
 70
     1
102
RTVSPropertyOp23
 70
     1
102
RTVSPropertyOp24
 70
     1
102
RTVSPropertyOp25
 70
     1
102
RTVSPropertyOp26
 70
     1
102
RTVSPropertyOp27
 70
     1
102
RTVSPropertyOp28
 70
     1
102
RTVSPropertyOp29
 70
     1
102
RTVSPropertyOp30
 70
     1
102
RTVSPropertyOp31
 70
     1
102
RTVSPropertyOp32
 70
     1
  0
ENDSEC
  0
EOF
