  0
SECTION
  2
HEADER
  9
$ACADVER
  1
AC1015
  9
$ACADMAINTVER
 70
    20
  9
$DWGCODEPAGE
  3
ANSI_1252
  9
$INSBASE
 10
0.0
 20
0.0
 30
0.0
  9
$EXTMIN
 10
0.3749998174637312
 20
0.3750000666980213
 30
0.0
  9
$EXTMAX
 10
100.9541796741391
 20
64.30719580069435
 30
0.0
  9
$LIMMIN
 10
-0.0000001825362688
 20
0.0000000666980213
  9
$LIMMAX
 10
137.2950467165359
 20
96.22126685758695
  9
$ORTHOMODE
 70
     1
  9
$REGENMODE
 70
     1
  9
$FILLMODE
 70
     1
  9
$QTEXTMODE
 70
     0
  9
$MIRRTEXT
 70
     0
  9
$LTSCALE
 40
1.0
  9
$ATTMODE
 70
     1
  9
$TEXTSIZE
 40
0.125
  9
$TRACEWID
 40
0.05
  9
$TEXTSTYLE
  7
Standard
  9
$CLAYER
  8
0
  9
$CELTYPE
  6
ByLayer
  9
$CECOLOR
 62
   256
  9
$CELTSCALE
 40
0.25
  9
$DISPSILH
 70
     0
  9
$DIMSCALE
 40
1.0
  9
$DIMASZ
 40
0.25
  9
$DIMEXO
 40
0.188
  9
$DIMDLI
 40
0.375
  9
$DIMRND
 40
0.0
  9
$DIMDLE
 40
0.0
  9
$DIMEXE
 40
0.188
  9
$DIMTP
 40
0.0
  9
$DIMTM
 40
0.0
  9
$DIMTXT
 40
0.25
  9
$DIMCEN
 40
-0.0625
  9
$DIMTSZ
 40
0.0
  9
$DIMTOL
 70
     0
  9
$DIMLIM
 70
     0
  9
$DIMTIH
 70
     0
  9
$DIMTOH
 70
     0
  9
$DIMSE1
 70
     0
  9
$DIMSE2
 70
     0
  9
$DIMTAD
 70
     1
  9
$DIMZIN
 70
     0
  9
$DIMBLK
  1

  9
$DIMASO
 70
     1
  9
$DIMSHO
 70
     1
  9
$DIMPOST
  1

  9
$DIMAPOST
  1

  9
$DIMALT
 70
     0
  9
$DIMALTD
 70
     2
  9
$DIMALTF
 40
25.4
  9
$DIMLFAC
 40
1.0
  9
$DIMTOFL
 70
     0
  9
$DIMTVP
 40
0.0
  9
$DIMTIX
 70
     0
  9
$DIMSOXD
 70
     0
  9
$DIMSAH
 70
     0
  9
$DIMBLK1
  1

  9
$DIMBLK2
  1

  9
$DIMSTYLE
  2
Standard
  9
$DIMCLRD
 70
   256
  9
$DIMCLRE
 70
   256
  9
$DIMCLRT
 70
   256
  9
$DIMTFAC
 40
1.0
  9
$DIMGAP
 40
0.094
  9
$DIMJUST
 70
     0
  9
$DIMSD1
 70
     0
  9
$DIMSD2
 70
     0
  9
$DIMTOLJ
 70
     1
  9
$DIMTZIN
 70
     0
  9
$DIMALTZ
 70
     0
  9
$DIMALTTZ
 70
     0
  9
$DIMUPT
 70
     0
  9
$DIMDEC
 70
     4
  9
$DIMTDEC
 70
     4
  9
$DIMALTU
 70
     2
  9
$DIMALTTD
 70
     2
  9
$DIMTXSTY
  7
Standard
  9
$DIMAUNIT
 70
     0
  9
$DIMADEC
 70
     1
  9
$DIMALTRND
 40
0.0
  9
$DIMAZIN
 70
     2
  9
$DIMDSEP
 70
    46
  9
$DIMATFIT
 70
     3
  9
$DIMFRAC
 70
     2
  9
$DIMLDRBLK
  1

  9
$DIMLUNIT
 70
     4
  9
$DIMLWD
 70
    -1
  9
$DIMLWE
 70
    -1
  9
$DIMTMOVE
 70
     0
  9
$LUNITS
 70
     2
  9
$LUPREC
 70
     5
  9
$SKETCHINC
 40
0.1
  9
$FILLETRAD
 40
0.0
  9
$AUNITS
 70
     0
  9
$AUPREC
 70
     0
  9
$MENU
  1
.
  9
$ELEVATION
 40
0.0
  9
$PELEVATION
 40
0.0
  9
$THICKNESS
 40
0.0
  9
$LIMCHECK
 70
     0
  9
$CHAMFERA
 40
0.0
  9
$CHAMFERB
 40
0.0
  9
$CHAMFERC
 40
0.0
  9
$CHAMFERD
 40
0.0
  9
$SKPOLY
 70
     0
  9
$TDCREATE
 40
2454734.432637083
  9
$TDUCREATE
 40
2454734.640970417
  9
$TDUPDATE
 40
2457799.486662858
  9
$TDUUPDATE
 40
2457799.694996192
  9
$TDINDWG
 40
1.3114314815
  9
$TDUSRTIMER
 40
1.3114314815
  9
$USRTIMER
 70
     1
  9
$ANGBASE
 50
0.0
  9
$ANGDIR
 70
     0
  9
$PDMODE
 70
     0
  9
$PDSIZE
 40
0.0
  9
$PLINEWID
 40
0.0
  9
$SPLFRAME
 70
     0
  9
$SPLINETYPE
 70
     6
  9
$SPLINESEGS
 70
     8
  9
$HANDSEED
  5
1B708
  9
$SURFTAB1
 70
     6
  9
$SURFTAB2
 70
     6
  9
$SURFTYPE
 70
     6
  9
$SURFU
 70
     6
  9
$SURFV
 70
     6
  9
$UCSBASE
  2

  9
$UCSNAME
  2

  9
$UCSORG
 10
0.0
 20
0.0
 30
0.0
  9
$UCSXDIR
 10
1.0
 20
0.0
 30
0.0
  9
$UCSYDIR
 10
0.0
 20
1.0
 30
0.0
  9
$UCSORTHOREF
  2

  9
$UCSORTHOVIEW
 70
     0
  9
$UCSORGTOP
 10
0.0
 20
0.0
 30
0.0
  9
$UCSORGBOTTOM
 10
0.0
 20
0.0
 30
0.0
  9
$UCSORGLEFT
 10
0.0
 20
0.0
 30
0.0
  9
$UCSORGRIGHT
 10
0.0
 20
0.0
 30
0.0
  9
$UCSORGFRONT
 10
0.0
 20
0.0
 30
0.0
  9
$UCSORGBACK
 10
0.0
 20
0.0
 30
0.0
  9
$PUCSBASE
  2

  9
$PUCSNAME
  2

  9
$PUCSORG
 10
0.0
 20
0.0
 30
0.0
  9
$PUCSXDIR
 10
1.0
 20
0.0
 30
0.0
  9
$PUCSYDIR
 10
0.0
 20
1.0
 30
0.0
  9
$PUCSORTHOREF
  2

  9
$PUCSORTHOVIEW
 70
     0
  9
$PUCSORGTOP
 10
0.0
 20
0.0
 30
0.0
  9
$PUCSORGBOTTOM
 10
0.0
 20
0.0
 30
0.0
  9
$PUCSORGLEFT
 10
0.0
 20
0.0
 30
0.0
  9
$PUCSORGRIGHT
 10
0.0
 20
0.0
 30
0.0
  9
$PUCSORGFRONT
 10
0.0
 20
0.0
 30
0.0
  9
$PUCSORGBACK
 10
0.0
 20
0.0
 30
0.0
  9
$USERI1
 70
     0
  9
$USERI2
 70
     0
  9
$USERI3
 70
     0
  9
$USERI4
 70
     0
  9
$USERI5
 70
     0
  9
$USERR1
 40
0.0
  9
$USERR2
 40
0.0
  9
$USERR3
 40
0.0
  9
$USERR4
 40
0.0
  9
$USERR5
 40
0.0
  9
$WORLDVIEW
 70
     1
  9
$SHADEDGE
 70
     3
  9
$SHADEDIF
 70
    70
  9
$TILEMODE
 70
     1
  9
$MAXACTVP
 70
    64
  9
$PINSBASE
 10
0.0
 20
0.0
 30
0.0
  9
$PLIMCHECK
 70
     0
  9
$PEXTMIN
 10
0.0
 20
0.0
 30
0.0
  9
$PEXTMAX
 10
0.0
 20
0.0
 30
0.0
  9
$PLIMMIN
 10
0.0
 20
0.0
  9
$PLIMMAX
 10
12.0
 20
9.0
  9
$UNITMODE
 70
     0
  9
$VISRETAIN
 70
     1
  9
$PLINEGEN
 70
     0
  9
$PSLTSCALE
 70
     1
  9
$TREEDEPTH
 70
  3020
  9
$CMLSTYLE
  2
Standard
  9
$CMLJUST
 70
     0
  9
$CMLSCALE
 40
1.0
  9
$PROXYGRAPHICS
 70
     1
  9
$MEASUREMENT
 70
     0
  9
$CELWEIGHT
370
    -1
  9
$ENDCAPS
280
     0
  9
$JOINSTYLE
280
     0
  9
$LWDISPLAY
290
     0
  9
$INSUNITS
 70
     1
  9
$HYPERLINKBASE
  1

  9
$STYLESHEET
  1
monochrome2.ctb
  9
$XEDIT
290
     1
  9
$CEPSNTYPE
380
     0
  9
$PSTYLEMODE
290
     1
  9
$FINGERPRINTGUID
  2
{A9C800CF-C338-4A67-A700-AC62CC5C0D87}
  9
$VERSIONGUID
  2
{72C2E412-703A-4072-BEC0-A98FEFFD0B88}
  9
$EXTNAMES
290
     1
  9
$PSVPSCALE
 40
0.0
  9
$OLESTARTUP
290
     0
  0
ENDSEC
  0
SECTION
  2
CLASSES
  0
CLASS
  1
ACDBDICTIONARYWDFLT
  2
AcDbDictionaryWithDefault
  3
ObjectDBX Classes
 90
        0
280
     0
281
     0
  0
CLASS
  1
ACDBPLACEHOLDER
  2
AcDbPlaceHolder
  3
ObjectDBX Classes
 90
        0
280
     0
281
     0
  0
CLASS
  1
LAYOUT
  2
AcDbLayout
  3
ObjectDBX Classes
 90
        0
280
     0
281
     0
  0
CLASS
  1
DICTIONARYVAR
  2
AcDbDictionaryVar
  3
ObjectDBX Classes
 90
        0
280
     0
281
     0
  0
CLASS
  1
MATERIAL
  2
AcDbMaterial
  3
ObjectDBX Classes
 90
     1153
280
     0
281
     0
  0
CLASS
  1
VISUALSTYLE
  2
AcDbVisualStyle
  3
ObjectDBX Classes
 90
     4095
280
     0
281
     0
  0
CLASS
  1
TABLESTYLE
  2
AcDbTableStyle
  3
ObjectDBX Classes
 90
     4095
280
     0
281
     0
  0
CLASS
  1
SCALE
  2
AcDbScale
  3
ObjectDBX Classes
 90
     1153
280
     0
281
     0
  0
CLASS
  1
MLEADERSTYLE
  2
AcDbMLeaderStyle
  3
ACDB_MLEADERSTYLE_CLASS
 90
     4095
280
     0
281
     0
  0
CLASS
  1
SORTENTSTABLE
  2
AcDbSortentsTable
  3
ObjectDBX Classes
 90
        0
280
     0
281
     0
  0
CLASS
  1
CELLSTYLEMAP
  2
AcDbCellStyleMap
  3
ObjectDBX Classes
 90
     1152
280
     0
281
     0
  0
CLASS
  1
EXACXREFPANELOBJECT
  2
ExAcXREFPanelObject
  3
EXAC_ESW
 90
     1025
280
     0
281
     0
  0
CLASS
  1
NPOCOLLECTION
  2
AcDbImpNonPersistentObjectsCollection
  3
ObjectDBX Classes
 90
     1153
280
     0
281
     0
  0
CLASS
  1
ACAD_EVALUATION_GRAPH
  2
AcDbEvalGraph
  3
ObjectDBX Classes
 90
    33921
280
     0
281
     0
  0
CLASS
  1
ACAECUSTOBJ
  2
AcAeEditorObj
  3
AcAeEditorObj
 90
    33792
280
     0
281
     0
  0
CLASS
  1
ACDB_DYNAMICBLOCKPURGEPREVENTER_VERSION
  2
AcDbDynamicBlockPurgePreventer
  3
ObjectDBX Classes
 90
    33921
280
     0
281
     0
  0
CLASS
  1
DIMASSOC
  2
AcDbDimAssoc
  3
"AcDbDimAssoc|Product Desc:     AcDim ARX App For Dimension|Company:          Autodesk, Inc.|WEB Address:      www.autodesk.com"
 90
    32768
280
     0
281
     0
  0
CLASS
  1
MULTILEADER
  2
AcDbMLeader
  3
ACDB_MLEADER_CLASS
 90
    33793
280
     0
281
     1
  0
CLASS
  1
BREAKDATA
  2
AcDbBreakData
  3
ObjectDBX Classes
 90
    33792
280
     0
281
     0
  0
ENDSEC
  0
SECTION
  2
TABLES
  0
TABLE
  2
VPORT
  5
8
102
{ACAD_XDICTIONARY
360
245B
102
}
330
0
100
AcDbSymbolTable
 70
     1
  0
VPORT
  5
2497
330
8
100
AcDbSymbolTableRecord
100
AcDbViewportTableRecord
  2
*Active
 70
     0
 10
0.0
 20
0.0
 11
1.0
 21
1.0
 12
50.66756232288539
 22
46.28856036771972
 13
0.0
 23
0.0
 14
0.5
 24
0.5
 15
0.5
 25
0.5
 16
0.0
 26
0.0
 36
1.0
 17
0.0
 27
0.0
 37
0.0
 40
92.27115514216015
 41
1.481327800829875
 42
50.0
 43
0.0
 44
0.0
 50
0.0
 51
0.0
 71
     0
 72
  1000
 73
     1
 74
     3
 75
     0
 76
     0
 77
     0
 78
     0
281
     0
 65
     1
110
0.0
120
0.0
130
0.0
111
1.0
121
0.0
131
0.0
112
0.0
122
1.0
132
0.0
 79
     0
146
0.0
1001
ACAD_NAV_VCDISPLAY
1070
     1
  0
ENDTAB
  0
TABLE
  2
LTYPE
  5
5
330
0
100
AcDbSymbolTable
 70
     4
  0
LTYPE
  5
14
330
5
100
AcDbSymbolTableRecord
100
AcDbLinetypeTableRecord
  2
ByBlock
 70
     0
  3

 72
    65
 73
     0
 40
0.0
  0
LTYPE
  5
15
330
5
100
AcDbSymbolTableRecord
100
AcDbLinetypeTableRecord
  2
ByLayer
 70
     0
  3

 72
    65
 73
     0
 40
0.0
  0
LTYPE
  5
16
330
5
100
AcDbSymbolTableRecord
100
AcDbLinetypeTableRecord
  2
Continuous
 70
     0
  3
Solid line
 72
    65
 73
     0
 40
0.0
  0
LTYPE
  5
D1DD
330
5
100
AcDbSymbolTableRecord
100
AcDbLinetypeTableRecord
  2
DASHED
 70
     0
  3
Dashed __ __ __ __ __ __ __ __ __ __ __ __ __ _
 72
    65
 73
     2
 40
0.75
 49
0.5
 74
     0
 49
-0.25
 74
     0
  0
LTYPE
  5
1A60E
330
5
100
AcDbSymbolTableRecord
100
AcDbLinetypeTableRecord
  2
PHANTOM2
 70
     0
  3
Phantom (.5x) ___ _ _ ___ _ _ ___ _ _ ___ _ _
 72
    65
 73
     6
 40
1.25
 49
0.625
 74
     0
 49
-0.125
 74
     0
 49
0.125
 74
     0
 49
-0.125
 74
     0
 49
0.125
 74
     0
 49
-0.125
 74
     0
  0
LTYPE
  5
1B602
330
5
100
AcDbSymbolTableRecord
100
AcDbLinetypeTableRecord
  2
DOT
 70
     0
  3
Dot . . . . . . . . . . . . . . . . . . . . . .
 72
    65
 73
     2
 40
0.25
 49
0.0
 74
     0
 49
-0.25
 74
     0
  0
ENDTAB
  0
TABLE
  2
LAYER
  5
2
102
{ACAD_XDICTIONARY
360
104
102
}
330
0
100
AcDbSymbolTable
 70
     4
  0
LAYER
  5
10
102
{ACAD_XDICTIONARY
360
244E
102
}
330
2
100
AcDbSymbolTableRecord
100
AcDbLayerTableRecord
  2
0
 70
     0
 62
     4
  6
Continuous
370
    -3
390
F
  0
LAYER
  5
2C27
330
2
100
AcDbSymbolTableRecord
100
AcDbLayerTableRecord
  2
FORMAT
 70
     0
 62
     7
  6
Continuous
370
    -3
390
F
1001
AcAecLayerStandard
1000

1000

1001
AcCmTransparency
1071
        0
  0
LAYER
  5
2C2A
330
2
100
AcDbSymbolTableRecord
100
AcDbLayerTableRecord
  2
TEXT
 70
     0
 62
     3
  6
Continuous
370
    -3
390
F
1001
AcAecLayerStandard
1000

1000

1001
AcCmTransparency
1071
        0
  0
LAYER
  5
1B603
330
2
100
AcDbSymbolTableRecord
100
AcDbLayerTableRecord
  2
Kawneer Logo-English
 70
     0
 62
     7
  6
Continuous
370
    -3
390
F
1001
AcAecLayerStandard
1000

1000

1001
AcCmTransparency
1071
        0
  0
ENDTAB
  0
TABLE
  2
STYLE
  5
3
330
0
100
AcDbSymbolTable
 70
     1
  0
STYLE
  5
11
330
3
100
AcDbSymbolTableRecord
100
AcDbTextStyleTableRecord
  2
Standard
 70
     0
 40
0.0
 41
1.0
 50
0.0
 71
     0
 42
0.125
  3
arial.ttf
  4

1001
ACAD
1000
Arial
1071
       34
  0
ENDTAB
  0
TABLE
  2
VIEW
  5
6
330
0
100
AcDbSymbolTable
 70
     0
  0
ENDTAB
  0
TABLE
  2
UCS
  5
7
330
0
100
AcDbSymbolTable
 70
     0
  0
ENDTAB
  0
TABLE
  2
APPID
  5
9
330
0
100
AcDbSymbolTable
 70
    18
  0
APPID
  5
12
330
9
100
AcDbSymbolTableRecord
100
AcDbRegAppTableRecord
  2
ACAD
 70
     0
  0
APPID
  5
262E
330
9
100
AcDbSymbolTableRecord
100
AcDbRegAppTableRecord
  2
ACAD_NAV_VCDISPLAY
 70
     0
  0
APPID
  5
2C28
330
9
100
AcDbSymbolTableRecord
100
AcDbRegAppTableRecord
  2
AcAecLayerStandard
 70
     0
  0
APPID
  5
2C29
330
9
100
AcDbSymbolTableRecord
100
AcDbRegAppTableRecord
  2
AcCmTransparency
 70
     0
  0
APPID
  5
2CFE
330
9
100
AcDbSymbolTableRecord
100
AcDbRegAppTableRecord
  2
ACAD_DSTYLE_DIMJAG
 70
     0
  0
APPID
  5
2CFF
330
9
100
AcDbSymbolTableRecord
100
AcDbRegAppTableRecord
  2
ACAD_DSTYLE_DIMTALN
 70
     0
  0
APPID
  5
1B604
330
9
100
AcDbSymbolTableRecord
100
AcDbRegAppTableRecord
  2
ACAD_EXEMPT_FROM_CAD_STANDARDS
 70
     0
  0
APPID
  5
1B605
330
9
100
AcDbSymbolTableRecord
100
AcDbRegAppTableRecord
  2
GradientColor1ACI
 70
     0
  0
APPID
  5
1B606
330
9
100
AcDbSymbolTableRecord
100
AcDbRegAppTableRecord
  2
GradientColor2ACI
 70
     0
  0
APPID
  5
1B607
330
9
100
AcDbSymbolTableRecord
100
AcDbRegAppTableRecord
  2
ACAD_MLEADERVER
 70
     0
  0
APPID
  5
1B608
330
9
100
AcDbSymbolTableRecord
100
AcDbRegAppTableRecord
  2
ACAD_PSEXT
 70
     0
  0
APPID
  5
1B609
330
9
100
AcDbSymbolTableRecord
100
AcDbRegAppTableRecord
  2
ACAD_DSTYLE_DIMBREAK
 70
     0
  0
APPID
  5
1B60A
330
9
100
AcDbSymbolTableRecord
100
AcDbRegAppTableRecord
  2
AcDbDynamicBlockGUID
 70
     0
  0
APPID
  5
1B60B
330
9
100
AcDbSymbolTableRecord
100
AcDbRegAppTableRecord
  2
ACAUTHENVIRON
 70
     0
  0
APPID
  5
1B60C
330
9
100
AcDbSymbolTableRecord
100
AcDbRegAppTableRecord
  2
AcDbDynamicBlockTrueName
 70
     0
  0
APPID
  5
1B672
330
9
100
AcDbSymbolTableRecord
100
AcDbRegAppTableRecord
  2
ACAD_DSTYLE_DIM_LINETYPE
 70
     0
  0
APPID
  5
1B673
330
9
100
AcDbSymbolTableRecord
100
AcDbRegAppTableRecord
  2
ACAD_DSTYLE_DIM_EXT1_LINETYPE
 70
     0
  0
APPID
  5
1B674
330
9
100
AcDbSymbolTableRecord
100
AcDbRegAppTableRecord
  2
ACAD_DSTYLE_DIM_EXT2_LINETYPE
 70
     0
  0
ENDTAB
  0
TABLE
  2
DIMSTYLE
  5
A
330
0
100
AcDbSymbolTable
 70
     1
100
AcDbDimStyleTable
 71
     1
340
27
  0
DIMSTYLE
105
27
330
A
100
AcDbSymbolTableRecord
100
AcDbDimStyleTableRecord
  2
Standard
 70
     0
 41
0.25
 42
0.188
 43
0.375
 44
0.188
 73
     0
 74
     0
 77
     1
 79
     2
140
0.25
141
-0.0625
147
0.094
176
   256
177
   256
178
   256
179
     1
276
     2
277
     4
340
11
371
    -1
372
    -1
1001
ACAD_DSTYLE_DIMJAG
1070
   388
1040
1.5
1001
ACAD_DSTYLE_DIMTALN
1070
   392
1070
     0
1001
ACAD_DSTYLE_DIM_LINETYPE
1070
   380
1005
15
1001
ACAD_DSTYLE_DIM_EXT1_LINETYPE
1070
   381
1005
15
1001
ACAD_DSTYLE_DIM_EXT2_LINETYPE
1070
   382
1005
15
  0
ENDTAB
  0
TABLE
  2
BLOCK_RECORD
  5
1
330
0
100
AcDbSymbolTable
 70
     2
  0
BLOCK_RECORD
  5
1F
102
{ACAD_XDICTIONARY
360
3083
102
}
330
1
100
AcDbSymbolTableRecord
100
AcDbBlockTableRecord
  2
*Model_Space
340
22
  0
BLOCK_RECORD
  5
58
330
1
100
AcDbSymbolTableRecord
100
AcDbBlockTableRecord
  2
*Paper_Space
340
59
  0
BLOCK_RECORD
  5
5D
330
1
100
AcDbSymbolTableRecord
100
AcDbBlockTableRecord
  2
*Paper_Space0
340
5E
  0
BLOCK_RECORD
  5
1B60D
102
{ACAD_XDICTIONARY
360
1B617
102
}
330
1
100
AcDbSymbolTableRecord
100
AcDbBlockTableRecord
  2
Kawneer Logo English
340
0
102
{BLKREFS
331
1B61B
102
}
1001
ACAD
1000
DesignCenter Data
1002
{
1070
     1
1070
     1
1002
}
  0
ENDTAB
  0
ENDSEC
  0
SECTION
  2
BLOCKS
  0
BLOCK
  5
20
330
1F
100
AcDbEntity
  8
0
100
AcDbBlockBegin
  2
*Model_Space
 70
     0
 10
0.0
 20
0.0
 30
0.0
  3
*Model_Space
  1

  0
ENDBLK
  5
21
330
1F
100
AcDbEntity
  8
0
100
AcDbBlockEnd
  0
BLOCK
  5
5A
330
58
100
AcDbEntity
 67
     1
  8
0
100
AcDbBlockBegin
  2
*Paper_Space
 70
     0
 10
0.0
 20
0.0
 30
0.0
  3
*Paper_Space
  1

  0
ENDBLK
  5
5B
330
58
100
AcDbEntity
 67
     1
  8
0
100
AcDbBlockEnd
  0
BLOCK
  5
5F
330
5D
100
AcDbEntity
 67
     1
  8
0
100
AcDbBlockBegin
  2
*Paper_Space0
 70
     0
 10
0.0
 20
0.0
 30
0.0
  3
*Paper_Space0
  1

  0
ENDBLK
  5
60
330
5D
100
AcDbEntity
 67
     1
  8
0
100
AcDbBlockEnd
  0
BLOCK
  5
1B619
330
1B60D
100
AcDbEntity
  8
0
 48
0.25
100
AcDbBlockBegin
  2
Kawneer Logo English
 70
     0
 10
0.0
 20
0.0
 30
0.0
  3
Kawneer Logo English
  1

  0
MTEXT
  5
1B60E
102
{ACAD_XDICTIONARY
360
1B6C3
102
}
330
1B60D
100
AcDbEntity
  8
Kawneer Logo-English
100
AcDbMText
 10
1.510096758583198
 20
0.0372523876656778
 30
0.0
 40
0.036
 41
0.6125900866323382
 71
     3
 72
     5
  1
{\fArial TUR|b0|i0|c0|p34;\T1.05;AN ARCONIC COMPANY}
 73
     1
 44
1.0
1001
ACAD
1000
ACAD_MTEXT_COLUMN_INFO_BEGIN
1070
    75
1070
     2
1070
    79
1070
     0
1070
    76
1070
     1
1070
    78
1070
     0
1070
    48
1040
0.6125900866323382
1070
    49
1040
1.0
1070
    50
1070
     1
1040
0.0
1000
ACAD_MTEXT_COLUMN_INFO_END
1000
MTEXTBEGIN
1070
    73
1070
     1
1070
    44
1040
1.0
1070
    74
1070
     0
1000
MTEXTEND
  0
HATCH
  5
1B60F
330
1B60D
100
AcDbEntity
  8
Kawneer Logo-English
100
AcDbHatch
 10
0.0
 20
0.0
 30
0.0
210
0.0
220
0.0
230
1.0
  2
SOLID
 70
     1
 71
     0
 91
        1
 92
        1
 93
       81
 72
     1
 10
0.2706169776412204
 20
0.0336337282279411
 11
0.2687512969786691
 21
0.0350329887248546
 72
     1
 10
0.2687512969786696
 20
0.0350329887248547
 11
0.2633408230572721
 21
0.039137486182467
 72
     1
 10
0.2633408230572729
 20
0.0391374861824669
 11
0.2550385441089194
 21
0.0453875164020133
 72
     1
 10
0.2550385441089191
 20
0.0453875164020132
 11
0.2442175962661241
 21
0.053596511317238
 72
     1
 10
0.2442175962661235
 20
0.0535965113172379
 11
0.2314376837276472
 21
0.0632980507625037
 72
     1
 10
0.2314376837276479
 20
0.0632980507625037
 11
0.2172585106922595
 21
0.0741189986052996
 72
     1
 10
0.2172585106922598
 20
0.0741189986052996
 11
0.2019599292593419
 21
0.0856862187131167
 72
     1
 10
0.201959929259341
 20
0.0856862187131167
 11
0.1862882116939105
 21
0.0976265749534437
 72
     1
 10
0.1862882116939102
 20
0.0976265749534437
 11
0.1706164941284813
 21
0.1095669311937706
 72
     1
 10
0.1706164941284811
 20
0.1095669311937709
 11
0.1553179126955632
 21
0.1211341513015875
 72
     1
 10
0.1553179126955642
 20
0.1211341513015876
 11
0.1411387396601757
 21
0.131955099144384
 72
     1
 10
0.1411387396601755
 20
0.1319550991443839
 11
0.1284521111548274
 21
0.141749922622777
 72
     1
 10
0.1284521111548278
 20
0.1417499226227768
 11
0.117631163312031
 21
0.1499589175380016
 72
     1
 10
0.1176311633120304
 20
0.1499589175380017
 11
0.1094221683968068
 21
0.1563022317906752
 72
     1
 10
0.1094221683968062
 20
0.1563022317906754
 11
0.1041049785085351
 21
0.1604067292482882
 72
     1
 10
0.1041049785085351
 20
0.1604067292482878
 11
0.1023325818791119
 21
0.1618992737783286
 72
     1
 10
0.1023325818791116
 20
0.1618992737783289
 11
0.1043848306079176
 21
0.1636716704077524
 72
     1
 10
0.1043848306079194
 20
0.1636716704077524
 11
0.1100751566286996
 21
0.1683358720641301
 72
     1
 10
0.1100751566286986
 20
0.1683358720641301
 11
0.1189371397758159
 21
0.1757053106812067
 72
     1
 10
0.1189371397758161
 20
0.1757053106812067
 11
0.1304110758505067
 21
0.1851269980270901
 72
     1
 10
0.1304110758505059
 20
0.1851269980270902
 11
0.1439372606540007
 21
0.1963210820023967
 72
     1
 10
0.1439372606540017
 20
0.1963210820023967
 11
0.1589559899875385
 21
0.2087278584083611
 72
     1
 10
0.1589559899875379
 20
0.2087278584083611
 11
0.1750941277186041
 21
0.2220674751456017
 72
     1
 10
0.1750941277186047
 20
0.2220674751456017
 11
0.19169868561531
 21
0.2358735120484796
 72
     1
 10
0.1916986856153105
 20
0.2358735120484796
 11
0.208303243512014
 21
0.2495862649182301
 72
     1
 10
0.2083032435120131
 20
0.2495862649182304
 11
0.2244413812430811
 21
0.2628325976223432
 72
     1
 10
0.2244413812430812
 20
0.2628325976223429
 11
0.239460110576618
 21
0.2753326580614352
 72
     1
 10
0.2394601105766174
 20
0.2753326580614351
 11
0.2529862953801122
 21
0.2864334580036143
 72
     1
 10
0.2529862953801132
 20
0.2864334580036143
 11
0.2643669474216756
 21
0.2958551453494973
 72
     1
 10
0.2643669474216757
 20
0.2958551453494973
 11
0.2731356465356649
 21
0.3031312999334466
 72
     1
 10
0.273135646535664
 20
0.3031312999334466
 11
0.2788259725564443
 21
0.3077955015898243
 72
     1
 10
0.278825972556445
 20
0.3077955015898246
 11
0.2807849372521245
 21
0.3094746141861208
 72
     1
 10
0.2807849372521249
 20
0.3094746141861205
 11
0.2798520969208501
 21
0.3094746141861205
 72
     1
 10
0.2798520969208496
 20
0.3094746141861205
 11
0.2769602918938953
 21
0.3095678982192478
 72
     1
 10
0.2769602918938943
 20
0.3095678982192481
 11
0.2724826583037715
 21
0.3095678982192481
 72
     1
 10
0.2724826583037729
 20
0.3095678982192481
 11
0.2666057642167363
 21
0.3095678982192481
 72
     1
 10
0.266605764216735
 20
0.3095678982192481
 11
0.2597027457652953
 21
0.3095678982192481
 72
     1
 10
0.2597027457652956
 20
0.3095678982192481
 11
0.2519601710157094
 21
0.3095678982192481
 72
     1
 10
0.2519601710157104
 20
0.3095678982192481
 11
0.2437511761004851
 21
0.3095678982192481
 72
     1
 10
0.243751176100484
 20
0.3095678982192481
 11
0.2351690450527495
 21
0.3095678982192481
 72
     1
 10
0.2351690450527495
 20
0.3095678982192481
 11
0.2266801980381413
 21
0.3095678982192481
 72
     1
 10
0.2266801980381423
 20
0.3095678982192481
 11
0.2183779190897905
 21
0.3094746141861208
 72
     1
 10
0.2183779190897899
 20
0.3094746141861205
 11
0.2106353443402037
 21
0.3094746141861205
 72
     1
 10
0.2106353443402029
 20
0.3094746141861205
 11
0.2037323258887632
 21
0.3094746141861205
 72
     1
 10
0.203732325888764
 20
0.3094746141861205
 11
0.1978554318017273
 21
0.3094746141861205
 72
     1
 10
0.1978554318017278
 20
0.3094746141861205
 11
0.1932845141784786
 21
0.3094746141861205
 72
     1
 10
0.1932845141784787
 20
0.3094746141861205
 11
0.1903927091515244
 21
0.3094746141861205
 72
     1
 10
0.1903927091515234
 20
0.3094746141861205
 11
0.1893665847871204
 21
0.3094746141861205
 72
     1
 10
0.1893665847871206
 20
0.3094746141861205
 11
0.1879673242902067
 21
0.3077955015898243
 72
     1
 10
0.1879673242902076
 20
0.3077955015898246
 11
0.1841426789319786
 21
0.3030380159003196
 72
     1
 10
0.1841426789319787
 20
0.3030380159003192
 11
0.1780792167786874
 21
0.29576186131637
 72
     1
 10
0.1780792167786873
 20
0.29576186131637
 11
0.170243357995973
 21
0.2862468899373593
 72
     1
 10
0.170243357995973
 20
0.2862468899373593
 11
0.1610082387163447
 21
0.2750528059620528
 72
     1
 10
0.1610082387163438
 20
0.2750528059620528
 11
0.1507469950723126
 21
0.2624594614898328
 72
     1
 10
0.1507469950723133
 20
0.2624594614898328
 11
0.1396461951301336
 21
0.2491198447525922
 72
     1
 10
0.1396461951301333
 20
0.2491198447525922
 11
0.1282655430885727
 21
0.2352205238165866
 72
     1
 10
0.1282655430885726
 20
0.2352205238165868
 11
0.1168848910470102
 21
0.2214144869137089
 72
     1
 10
0.1168848910470102
 20
0.2214144869137087
 11
0.1058773751379587
 21
0.2079815861433408
 72
     1
 10
0.105877375137958
 20
0.2079815861433408
 11
0.0955228474608004
 21
0.1954815257042486
 72
     1
 10
0.0955228474608019
 20
0.1954815257042488
 11
0.0862877281811736
 21
0.1842874417289424
 72
     1
 10
0.0862877281811727
 20
0.1842874417289424
 11
0.0784518693984583
 21
0.1747724703499316
 72
     1
 10
0.0784518693984584
 20
0.1747724703499314
 11
0.0723884072451672
 21
0.1674963157659821
 72
     1
 10
0.0723884072451671
 20
0.1674963157659822
 11
0.0685637618869363
 21
0.1627388300764767
 72
     1
 10
0.0685637618869364
 20
0.1627388300764767
 11
0.0671645013900242
 21
0.1611530015133082
 72
     1
 10
0.0671645013900251
 20
0.1611530015133082
 11
0.0680040576881734
 21
0.1596604569832674
 72
     1
 10
0.0680040576881726
 20
0.1596604569832674
 11
0.0704294425494878
 21
0.1556492435587824
 72
     1
 10
0.0704294425494871
 20
0.1556492435587824
 11
0.0742540879077179
 21
0.1493059293061089
 72
     1
 10
0.0742540879077192
 20
0.1493059293061089
 11
0.0791048576303511
 21
0.1411902184240116
 72
     1
 10
0.0791048576303508
 20
0.1411902184240116
 11
0.0848884676842594
 21
0.1314886789787458
 72
     1
 10
0.0848884676842596
 20
0.1314886789787459
 11
0.0913250659700619
 21
0.1207610151690772
 72
     1
 10
0.0913250659700613
 20
0.1207610151690775
 11
0.0982280844214992
 21
0.1091937950612604
 72
     1
 10
0.0982280844214985
 20
0.1091937950612603
 11
0.1053176709391927
 21
0.0973467228540611
 72
     1
 10
0.105317670939193
 20
0.0973467228540612
 11
0.1124072574568872
 21
0.0854996506468619
 72
     1
 10
0.1124072574568871
 20
0.0854996506468617
 11
0.1193102759083267
 21
0.0739324305390446
 72
     1
 10
0.1193102759083278
 20
0.0739324305390448
 11
0.1257468741941283
 21
0.0632047667293762
 72
     1
 10
0.1257468741941277
 20
0.063204766729376
 11
0.1315304842480362
 21
0.0535032272841102
 72
     1
 10
0.1315304842480365
 20
0.0535032272841104
 11
0.1363812539706702
 21
0.0453875164020132
 72
     1
 10
0.1363812539706699
 20
0.0453875164020132
 11
0.1402058993288989
 21
0.0391374861824667
 72
     1
 10
0.1402058993288988
 20
0.0391374861824669
 11
0.1426312841902157
 21
0.0350329887248546
 72
     1
 10
0.1426312841902164
 20
0.0350329887248547
 11
0.1434708404883648
 21
0.0336337282279412
 72
     1
 10
0.143470840488364
 20
0.0336337282279411
 11
0.2706169776412211
 21
0.0336337282279411
 97
        0
 75
     0
 76
     1
 98
        1
 10
-0.3743130907707726
 20
-0.2500502867693841
1001
ACAD
1010
0.0
1020
0.0
1030
0.0
  0
HATCH
  5
1B610
330
1B60D
100
AcDbEntity
  8
Kawneer Logo-English
100
AcDbHatch
 10
0.0
 20
0.0
 30
0.0
210
0.0
220
0.0
230
1.0
  2
SOLID
 70
     1
 71
     0
 91
        1
 92
        1
 93
       18
 72
     1
 10
0.0001865656044393
 20
0.2563959993365415
 11
-0.0000000024618153
 21
0.113671428651383
 72
     1
 10
-0.0000000024618159
 20
0.1136714286513832
 11
0.0012126899688416
 21
0.1152572572145516
 72
     1
 10
0.0012126899688421
 20
0.1152572572145516
 11
0.0045709151614355
 21
0.1197348908046738
 72
     1
 10
0.004570915161435
 20
0.119734890804674
 11
0.0098881050497044
 21
0.1268244773223682
 72
     1
 10
0.0098881050497044
 20
0.1268244773223682
 11
0.0166978394680158
 21
0.1359663125688683
 72
     1
 10
0.016697839468016
 20
0.1359663125688683
 11
0.0248135503501131
 21
0.1467872604116651
 72
     1
 10
0.024813550350113
 20
0.1467872604116652
 11
0.0338621015634867
 21
0.1588209006851195
 72
     1
 10
0.0338621015634872
 20
0.1588209006851194
 11
0.0434703569756247
 21
0.1716940972567221
 72
     1
 10
0.0434703569756247
 20
0.1716940972567224
 11
0.0534517485202732
 21
0.1850337139939626
 72
     1
 10
0.0534517485202724
 20
0.1850337139939624
 11
0.0634331400649208
 21
0.1983733307312025
 72
     1
 10
0.0634331400649222
 20
0.1983733307312024
 11
0.0730413954770597
 21
0.2112465273028051
 72
     1
 10
0.0730413954770595
 20
0.2112465273028053
 11
0.0820899466904331
 21
0.2233734516093873
 72
     1
 10
0.0820899466904321
 20
0.2233734516093873
 11
0.0902056575725293
 21
0.2341943994521837
 72
     1
 10
0.0902056575725308
 20
0.2341943994521837
 11
0.0970153919908422
 21
0.2433362346986839
 72
     1
 10
0.0970153919908405
 20
0.2433362346986839
 11
0.1022392978459834
 21
0.2503325371832507
 72
     1
 10
0.1022392978459843
 20
0.2503325371832508
 11
0.1056908070717041
 21
0.2549034548065008
 72
     1
 10
0.1056908070717046
 20
0.254903454806501
 11
0.1069034995023621
 21
0.2564892833696694
 72
     1
 10
0.1069034995023625
 20
0.2564892833696695
 11
0.0001865656044399
 21
0.2563959993365418
 97
        0
 75
     0
 76
     1
 98
        1
 10
-0.3743130907707726
 20
-0.2500502867693841
1001
ACAD
1010
0.0
1020
0.0
1030
0.0
  0
HATCH
  5
1B611
330
1B60D
100
AcDbEntity
  8
Kawneer Logo-English
100
AcDbHatch
 10
0.0
 20
0.0
 30
0.0
210
0.0
220
0.0
230
1.0
  2
SOLID
 70
     1
 71
     0
 91
        2
 92
       16
 93
       76
 72
     1
 10
1.358402087941634
 20
0.1650709309046659
 11
1.358402087941634
 21
0.16796273593162
 72
     1
 10
1.358402087941634
 20
0.1679627359316202
 11
1.358402087941634
 21
0.1729067896873803
 72
     1
 10
1.358402087941634
 20
0.1729067896873803
 11
1.358402087941634
 21
0.1791568199069267
 72
     1
 10
1.358402087941634
 20
0.1791568199069267
 11
1.358402087941634
 21
0.1861531223914932
 72
     1
 10
1.358402087941634
 20
0.186153122391493
 11
1.358402087941634
 21
0.1931494248760595
 72
     1
 10
1.358402087941634
 20
0.1931494248760596
 11
1.358402087941634
 21
0.1994927391287338
 72
     1
 10
1.358402087941634
 20
0.1994927391287336
 11
1.358402087941634
 21
0.2044367928844937
 72
     1
 10
1.358402087941634
 20
0.2044367928844937
 11
1.358402087941634
 21
0.2072353138783208
 72
     1
 10
1.358402087941634
 20
0.2072353138783208
 11
1.359894632471676
 21
0.2072353138783208
 72
     1
 10
1.359894632471676
 20
0.2072353138783208
 11
1.362693153465502
 21
0.2072353138783208
 72
     1
 10
1.362693153465502
 20
0.2072353138783208
 11
1.366424514790605
 21
0.2072353138783208
 72
     1
 10
1.366424514790606
 20
0.2072353138783208
 11
1.371088716446983
 21
0.2072353138783208
 72
     1
 10
1.371088716446982
 20
0.2072353138783208
 11
1.376405906335254
 21
0.2072353138783208
 72
     1
 10
1.376405906335254
 20
0.2072353138783208
 11
1.382282800422289
 21
0.2072353138783208
 72
     1
 10
1.38228280042229
 20
0.2072353138783208
 11
1.388346262575581
 21
0.2072353138783208
 72
     1
 10
1.388346262575579
 20
0.2072353138783208
 11
1.394596292795125
 21
0.2072353138783208
 72
     1
 10
1.394596292795125
 20
0.2072353138783208
 11
1.400753038981545
 21
0.2072353138783208
 72
     1
 10
1.400753038981546
 20
0.2072353138783208
 11
1.406723217101709
 21
0.2072353138783208
 72
     1
 10
1.406723217101708
 20
0.2072353138783208
 11
1.412320259089362
 21
0.2072353138783208
 72
     1
 10
1.412320259089362
 20
0.2072353138783208
 11
1.417264312845122
 21
0.2072353138783208
 72
     1
 10
1.417264312845123
 20
0.2072353138783208
 11
1.421368810302735
 21
0.2072353138783208
 72
     1
 10
1.421368810302734
 20
0.2072353138783208
 11
1.424540467429071
 21
0.2072353138783208
 72
     1
 10
1.424540467429072
 20
0.2072353138783208
 11
1.426592716157878
 21
0.2072353138783208
 72
     1
 10
1.426592716157878
 20
0.2072353138783208
 11
1.427338988422898
 21
0.2072353138783208
 72
     1
 10
1.427338988422898
 20
0.2072353138783208
 11
1.430977065714873
 21
0.207142029845193
 72
     1
 10
1.430977065714872
 20
0.207142029845193
 11
1.434335290907465
 21
0.2068621777458102
 72
     1
 10
1.434335290907465
 20
0.2068621777458102
 11
1.435921119470633
 21
0.2066756096795552
 72
     1
 10
1.435921119470633
 20
0.206675609679555
 11
1.437413664000673
 21
0.2063957575801723
 72
     1
 10
1.437413664000674
 20
0.2063957575801723
 11
1.438906208530714
 21
0.2061159054807895
 72
     1
 10
1.438906208530714
 20
0.2061159054807898
 11
1.440398753060756
 21
0.2056494853151523
 72
     1
 10
1.440398753060756
 20
0.2056494853151521
 11
1.441704729524542
 21
0.2050897811163865
 72
     1
 10
1.441704729524542
 20
0.2050897811163866
 11
1.443010705988328
 21
0.204530076917621
 72
     1
 10
1.443010705988329
 20
0.204530076917621
 11
1.444223398418986
 21
0.2036905206194736
 72
     1
 10
1.444223398418985
 20
0.2036905206194736
 11
1.445436090849643
 21
0.2028509643213252
 72
     1
 10
1.445436090849643
 20
0.2028509643213252
 11
1.446555499247174
 21
0.2018248399569224
 72
     1
 10
1.446555499247173
 20
0.2018248399569223
 11
1.447581623611576
 21
0.2007054315593917
 72
     1
 10
1.447581623611578
 20
0.2007054315593915
 11
1.448607747975981
 21
0.1993061710624781
 72
     1
 10
1.448607747975981
 20
0.1993061710624781
 11
1.449540588307258
 21
0.1978136265324374
 72
     1
 10
1.449540588307256
 20
0.1978136265324373
 11
1.450380144605403
 21
0.1961345139361415
 72
     1
 10
1.450380144605404
 20
0.1961345139361415
 11
1.451126416870426
 21
0.1944554013398453
 72
     1
 10
1.451126416870426
 20
0.1944554013398454
 11
1.451592837036063
 21
0.1929628568098046
 72
     1
 10
1.451592837036062
 20
0.1929628568098046
 11
1.451965973168573
 21
0.1913770282466361
 72
     1
 10
1.451965973168574
 20
0.1913770282466361
 11
1.452245825267955
 21
0.1899777677497231
 72
     1
 10
1.452245825267954
 20
0.1899777677497231
 11
1.452432393334211
 21
0.188671791285937
 72
     1
 10
1.452432393334211
 20
0.1886717912859369
 11
1.452432393334211
 21
0.1874590988552789
 72
     1
 10
1.452432393334211
 20
0.1874590988552789
 11
1.452525677367338
 21
0.1863396904577482
 72
     1
 10
1.452525677367337
 20
0.1863396904577481
 11
1.452432393334211
 21
0.1844740097951972
 72
     1
 10
1.452432393334211
 20
0.1844740097951974
 11
1.452245825267955
 21
0.1827948971989012
 72
     1
 10
1.452245825267954
 20
0.1827948971989009
 11
1.451872689135445
 21
0.1810225005694773
 72
     1
 10
1.451872689135446
 20
0.1810225005694774
 11
1.451406268969809
 21
0.1794366720063093
 72
     1
 10
1.451406268969809
 20
0.1794366720063094
 11
1.450846564771043
 21
0.1779441274762682
 72
     1
 10
1.450846564771041
 20
0.1779441274762681
 11
1.450100292506021
 21
0.1764515829462274
 72
     1
 10
1.450100292506023
 20
0.1764515829462275
 11
1.449260736207875
 21
0.1750523224493141
 72
     1
 10
1.449260736207873
 20
0.1750523224493139
 11
1.448327895876597
 21
0.1737463459855283
 72
     1
 10
1.448327895876596
 20
0.1737463459855281
 11
1.44702191941281
 21
0.1723470854886151
 72
     1
 10
1.447021919412811
 20
0.1723470854886151
 11
1.445715942949025
 21
0.1711343930579568
 72
     1
 10
1.445715942949026
 20
0.1711343930579568
 11
1.444316682452114
 21
0.1700149846604262
 72
     1
 10
1.444316682452114
 20
0.1700149846604259
 11
1.442824137922072
 21
0.168988860296023
 72
     1
 10
1.442824137922072
 20
0.168988860296023
 11
1.441238309358904
 21
0.1682425880310024
 72
     1
 10
1.441238309358902
 20
0.1682425880310024
 11
1.439559196762608
 21
0.1674963157659821
 72
     1
 10
1.439559196762608
 20
0.1674963157659822
 11
1.437880084166311
 21
0.1669366115672166
 72
     1
 10
1.437880084166311
 20
0.1669366115672167
 11
1.436107687536888
 21
0.1664701914015788
 72
     1
 10
1.436107687536888
 20
0.1664701914015789
 11
1.434242006874337
 21
0.166003771235941
 72
     1
 10
1.434242006874337
 20
0.1660037712359412
 11
1.432376326211786
 21
0.1657239191365588
 72
     1
 10
1.432376326211785
 20
0.1657239191365585
 11
1.430417361516107
 21
0.1655373510703035
 72
     1
 10
1.430417361516108
 20
0.1655373510703037
 11
1.428458396820429
 21
0.1653507830040482
 72
     1
 10
1.428458396820428
 20
0.1653507830040482
 11
1.424353899362817
 21
0.1651642149377932
 72
     1
 10
1.424353899362817
 20
0.1651642149377932
 11
1.420156117872077
 21
0.1650709309046658
 72
     1
 10
1.420156117872076
 20
0.1650709309046659
 11
1.41773073301076
 21
0.1650709309046659
 72
     1
 10
1.417730733010761
 20
0.1650709309046659
 11
1.411107566658704
 21
0.1650709309046659
 72
     1
 10
1.411107566658702
 20
0.1650709309046659
 11
1.401779163345947
 21
0.1650709309046659
 72
     1
 10
1.401779163345949
 20
0.1650709309046659
 11
1.390958215503152
 21
0.1650709309046659
 72
     1
 10
1.390958215503152
 20
0.1650709309046659
 11
1.379950699594101
 21
0.1650709309046659
 72
     1
 10
1.379950699594099
 20
0.1650709309046659
 11
1.369969308049451
 21
0.1650709309046659
 72
     1
 10
1.369969308049451
 20
0.1650709309046659
 11
1.362320017332992
 21
0.1650709309046659
 72
     1
 10
1.362320017332992
 20
0.1650709309046659
 11
1.358402087941635
 21
0.1650709309046659
 97
        0
 92
        1
 93
      107
 72
     1
 10
1.443756978253348
 20
0.1485596570410883
 11
1.446928635379685
 21
0.1492126452729816
 72
     1
 10
1.446928635379685
 20
0.1492126452729817
 11
1.449540588307256
 21
0.1498656335048746
 72
     1
 10
1.449540588307256
 20
0.1498656335048745
 11
1.451872689135445
 21
0.1506119057698948
 72
     1
 10
1.451872689135446
 20
0.1506119057698946
 11
1.45401822189738
 21
0.1514514620680426
 72
     1
 10
1.45401822189738
 20
0.1514514620680425
 11
1.455883902559929
 21
0.1521977343330632
 72
     1
 10
1.455883902559929
 20
0.1521977343330631
 11
1.457563015156225
 21
0.1530372906312111
 72
     1
 10
1.457563015156225
 20
0.1530372906312111
 11
1.459148843719394
 21
0.1539701309624869
 72
     1
 10
1.459148843719394
 20
0.1539701309624866
 11
1.460641388249434
 21
0.1549029712937624
 72
     1
 10
1.460641388249434
 20
0.1549029712937622
 11
1.462133932779476
 21
0.155835811625038
 72
     1
 10
1.462133932779476
 20
0.155835811625038
 11
1.463439909243262
 21
0.1568619359894408
 72
     1
 10
1.463439909243262
 20
0.1568619359894408
 11
1.464745885707048
 21
0.1579813443869714
 72
     1
 10
1.464745885707047
 20
0.1579813443869716
 11
1.465865294104579
 21
0.1591007527845022
 72
     1
 10
1.465865294104579
 20
0.1591007527845025
 11
1.466984702502109
 21
0.1602201611820331
 72
     1
 10
1.466984702502108
 20
0.1602201611820328
 11
1.468010826866511
 21
0.1613395695795634
 72
     1
 10
1.468010826866511
 20
0.1613395695795637
 11
1.468943667197788
 21
0.1625522620102216
 72
     1
 10
1.468943667197788
 20
0.1625522620102216
 11
1.469876507529063
 21
0.1636716704077522
 72
     1
 10
1.469876507529063
 20
0.1636716704077524
 11
1.470622779794084
 21
0.1648843628384107
 72
     1
 10
1.470622779794084
 20
0.1648843628384107
 11
1.471462336092232
 21
0.1661903393021964
 72
     1
 10
1.471462336092232
 20
0.1661903393021967
 11
1.472115324324125
 21
0.1674030317328546
 72
     1
 10
1.472115324324124
 20
0.1674030317328546
 11
1.472768312556016
 21
0.1686157241635125
 72
     1
 10
1.472768312556017
 20
0.1686157241635125
 11
1.473328016754783
 21
0.1699217006272986
 72
     1
 10
1.473328016754782
 20
0.1699217006272989
 11
1.47379443692042
 21
0.1711343930579568
 72
     1
 10
1.47379443692042
 20
0.1711343930579568
 11
1.474260857086057
 21
0.1724403695217425
 72
     1
 10
1.474260857086058
 20
0.1724403695217424
 11
1.474727277251697
 21
0.1736530619524008
 72
     1
 10
1.474727277251697
 20
0.173653061952401
 11
1.475380265483589
 21
0.1760784468137175
 72
     1
 10
1.475380265483588
 20
0.1760784468137173
 11
1.475846685649225
 21
0.1785038316750338
 72
     1
 10
1.475846685649226
 20
0.1785038316750335
 11
1.476219821781737
 21
0.1808359325032223
 72
     1
 10
1.476219821781738
 20
0.1808359325032223
 11
1.47649967388112
 21
0.1830747492982838
 72
     1
 10
1.47649967388112
 20
0.1830747492982838
 11
1.476592957914248
 21
0.1851269980270901
 72
     1
 10
1.476592957914248
 20
0.1851269980270902
 11
1.476686241947374
 21
0.1870859627227688
 72
     1
 10
1.476686241947375
 20
0.1870859627227687
 11
1.476592957914249
 21
0.1888583593521923
 72
     1
 10
1.476592957914248
 20
0.1888583593521922
 11
1.476499673881119
 21
0.1906307559816158
 72
     1
 10
1.47649967388112
 20
0.1906307559816159
 11
1.476406389847991
 21
0.1924031526110394
 72
     1
 10
1.476406389847991
 20
0.1924031526110394
 11
1.476126537748608
 21
0.1940822652073352
 72
     1
 10
1.476126537748608
 20
0.1940822652073352
 11
1.475846685649226
 21
0.195761377803631
 72
     1
 10
1.475846685649226
 20
0.1957613778036309
 11
1.475566833549843
 21
0.1974404903999272
 72
     1
 10
1.475566833549843
 20
0.1974404903999272
 11
1.475100413384206
 21
0.1990263189630953
 72
     1
 10
1.475100413384205
 20
0.1990263189630952
 11
1.474633993218568
 21
0.2006121475262637
 72
     1
 10
1.474633993218568
 20
0.2006121475262639
 11
1.47416757305293
 21
0.2021046920563051
 72
     1
 10
1.474167573052932
 20
0.2021046920563049
 11
1.473514584821038
 21
0.2035972365863457
 72
     1
 10
1.473514584821037
 20
0.2035972365863459
 11
1.472954880622271
 21
0.2050897811163867
 72
     1
 10
1.472954880622272
 20
0.2050897811163866
 11
1.472208608357252
 21
0.2064890416133
 72
     1
 10
1.472208608357252
 20
0.2064890416133001
 11
1.471462336092232
 21
0.2078883021102135
 72
     1
 10
1.471462336092232
 20
0.2078883021102136
 11
1.470622779794083
 21
0.2091942785739993
 72
     1
 10
1.470622779794084
 20
0.2091942785739991
 11
1.469783223495935
 21
0.2105002550377848
 72
     1
 10
1.469783223495934
 20
0.2105002550377851
 11
1.468850383164659
 21
0.2118062315015707
 72
     1
 10
1.468850383164661
 20
0.2118062315015709
 11
1.467917542833386
 21
0.2130189239322288
 72
     1
 10
1.467917542833385
 20
0.2130189239322289
 11
1.466891418468982
 21
0.2141383323297595
 72
     1
 10
1.466891418468982
 20
0.2141383323297595
 11
1.465772010071451
 21
0.2153510247604178
 72
     1
 10
1.46577201007145
 20
0.215351024760418
 11
1.464652601673919
 21
0.2163771491248209
 72
     1
 10
1.46465260167392
 20
0.2163771491248209
 11
1.463533193276389
 21
0.2174032734892238
 72
     1
 10
1.463533193276389
 20
0.2174032734892238
 11
1.462227216812603
 21
0.2184293978536266
 72
     1
 10
1.462227216812602
 20
0.2184293978536266
 11
1.461014524381945
 21
0.2193622381849024
 72
     1
 10
1.461014524381946
 20
0.2193622381849023
 11
1.459615263885032
 21
0.2202950785161781
 72
     1
 10
1.459615263885031
 20
0.2202950785161782
 11
1.458309287421245
 21
0.2211346348143262
 72
     1
 10
1.458309287421246
 20
0.221134634814326
 11
1.456816742891206
 21
0.221974191112474
 72
     1
 10
1.456816742891206
 20
0.2219741911124738
 11
1.455417482394292
 21
0.2227204633774945
 72
     1
 10
1.455417482394291
 20
0.2227204633774944
 11
1.453831653831122
 21
0.2233734516093874
 72
     1
 10
1.453831653831123
 20
0.2233734516093873
 11
1.452339109301082
 21
0.2240264398412803
 72
     1
 10
1.452339109301082
 20
0.2240264398412803
 11
1.450659996704785
 21
0.2245861440400459
 72
     1
 10
1.450659996704787
 20
0.2245861440400457
 11
1.44907416814162
 21
0.2251458482388108
 72
     1
 10
1.449074168141619
 20
0.2251458482388109
 11
1.447301771512194
 21
0.2256122684044489
 72
     1
 10
1.447301771512194
 20
0.2256122684044488
 11
1.445249522783388
 21
0.2261719726032139
 72
     1
 10
1.445249522783388
 20
0.226171972603214
 11
1.44329055808771
 21
0.2265451087357246
 72
     1
 10
1.443290558087712
 20
0.2265451087357244
 11
1.441145025325778
 21
0.2269182448682345
 72
     1
 10
1.441145025325776
 20
0.2269182448682345
 11
1.438906208530714
 21
0.2271980969676173
 72
     1
 10
1.438906208530714
 20
0.2271980969676173
 11
1.436387539636271
 21
0.2273846650338724
 72
     1
 10
1.436387539636271
 20
0.2273846650338724
 11
1.433495734609316
 21
0.2275712331001274
 72
     1
 10
1.433495734609317
 20
0.2275712331001274
 11
1.430044225383597
 21
0.2276645171332552
 72
     1
 10
1.430044225383597
 20
0.2276645171332549
 11
1.42612629599224
 21
0.2277578011663822
 72
     1
 10
1.42612629599224
 20
0.2277578011663825
 11
1.426033011959112
 21
0.2277578011663825
 72
     1
 10
1.426033011959111
 20
0.2277578011663825
 11
1.33489451159349
 21
0.2277578011663825
 72
     1
 10
1.334894511593491
 20
0.2277578011663825
 11
1.334894511593491
 21
0.0926825211976832
 72
     1
 10
1.334894511593491
 20
0.0926825211976832
 11
1.358588656007891
 21
0.0926825211976832
 72
     1
 10
1.358588656007891
 20
0.0926825211976832
 11
1.358588656007891
 21
0.0947347699264896
 72
     1
 10
1.358588656007891
 20
0.0947347699264896
 11
1.358588656007891
 21
0.1001452438478876
 72
     1
 10
1.358588656007891
 20
0.1001452438478875
 11
1.358588656007891
 21
0.1079811026306024
 72
     1
 10
1.358588656007891
 20
0.1079811026306024
 11
1.358588656007891
 21
0.1170296538439752
 72
     1
 10
1.358588656007891
 20
0.1170296538439753
 11
1.358588656007891
 21
0.1262647731236032
 72
     1
 10
1.358588656007891
 20
0.1262647731236031
 11
1.358588656007891
 21
0.1347536201382103
 72
     1
 10
1.358588656007891
 20
0.1347536201382104
 11
1.358588656007891
 21
0.1412835024571394
 72
     1
 10
1.358588656007891
 20
0.1412835024571393
 11
1.358588656007891
 21
0.1448282957159864
 72
     1
 10
1.358588656007891
 20
0.1448282957159865
 11
1.362320017332992
 21
0.1448282957159865
 72
     1
 10
1.362320017332992
 20
0.1448282957159865
 11
1.369409603850688
 21
0.1448282957159865
 72
     1
 10
1.369409603850688
 20
0.1448282957159865
 11
1.378738007163443
 21
0.1448282957159865
 72
     1
 10
1.378738007163443
 20
0.1448282957159865
 11
1.388999250807475
 21
0.1448282957159865
 72
     1
 10
1.388999250807473
 20
0.1448282957159865
 11
1.399260494451505
 21
0.1448282957159865
 72
     1
 10
1.399260494451506
 20
0.1448282957159865
 11
1.408215761631749
 21
0.1448282957159865
 72
     1
 10
1.408215761631748
 20
0.1448282957159865
 11
1.414745643950677
 21
0.1448282957159865
 72
     1
 10
1.414745643950678
 20
0.1448282957159865
 11
1.41773073301076
 21
0.1448282957159865
 72
     1
 10
1.417730733010761
 20
0.1448282957159865
 11
1.420062833838949
 21
0.1420297747221594
 72
     1
 10
1.420062833838949
 20
0.1420297747221597
 11
1.425193455660966
 21
0.1359663125688683
 72
     1
 10
1.425193455660965
 20
0.1359663125688683
 11
1.432283042178659
 21
0.1275707495873888
 72
     1
 10
1.432283042178659
 20
0.1275707495873886
 11
1.440305469027628
 21
0.1180557782083779
 72
     1
 10
1.440305469027629
 20
0.1180557782083781
 11
1.448234611843471
 21
0.1087273748956225
 72
     1
 10
1.448234611843471
 20
0.1087273748956225
 11
1.455044346261782
 21
0.1006116640135252
 72
     1
 10
1.455044346261782
 20
0.1006116640135252
 11
1.459895115984414
 21
0.0948280539596167
 72
     1
 10
1.459895115984414
 20
0.0948280539596169
 11
1.461760796646965
 21
0.0926825211976832
 72
     1
 10
1.461760796646967
 20
0.0926825211976832
 11
1.49254452757906
 21
0.0926825211976832
 72
     1
 10
1.492544527579059
 20
0.0926825211976832
 11
1.490678846916508
 21
0.0948280539596169
 72
     1
 10
1.490678846916508
 20
0.0948280539596169
 11
1.48564150912762
 21
0.100518379980398
 72
     1
 10
1.48564150912762
 20
0.1005183799803981
 11
1.478458638576797
 21
0.1088206589287502
 72
     1
 10
1.478458638576798
 20
0.1088206589287502
 11
1.470063075595318
 21
0.1183356303077609
 72
     1
 10
1.470063075595317
 20
0.118335630307761
 11
1.461480944547582
 21
0.1282237378192818
 72
     1
 10
1.461480944547582
 20
0.1282237378192818
 11
1.453551801731739
 21
0.1372722890326546
 72
     1
 10
1.45355180173174
 20
0.1372722890326546
 11
1.447395055545323
 21
0.1444551595834761
 72
     1
 10
1.447395055545323
 20
0.1444551595834759
 11
1.443756978253349
 21
0.1485596570410882
 97
        0
 75
     0
 76
     1
 98
        1
 10
-0.3743130907707726
 20
-0.2500502867693841
1001
ACAD
1010
0.0
1020
0.0
1030
0.0
  0
HATCH
  5
1B612
330
1B60D
100
AcDbEntity
  8
Kawneer Logo-English
100
AcDbHatch
 10
0.0
 20
0.0
 30
0.0
210
0.0
220
0.0
230
1.0
  2
SOLID
 70
     1
 71
     0
 91
        1
 92
        1
 93
       87
 72
     1
 10
1.205602841678699
 20
0.1525708704655737
 11
1.207468522341251
 21
0.1525708704655737
 72
     1
 10
1.207468522341252
 20
0.1525708704655737
 11
1.211199883666355
 21
0.1525708704655737
 72
     1
 10
1.211199883666355
 20
0.1525708704655737
 11
1.216517073554626
 21
0.1525708704655737
 72
     1
 10
1.216517073554626
 20
0.1525708704655737
 11
1.223046955873555
 21
0.1525708704655737
 72
     1
 10
1.223046955873553
 20
0.1525708704655737
 11
1.230602962556885
 21
0.1525708704655737
 72
     1
 10
1.230602962556885
 20
0.1525708704655737
 11
1.238998525538365
 21
0.1525708704655737
 72
     1
 10
1.238998525538365
 20
0.1525708704655737
 11
1.247767224652354
 21
0.1525708704655737
 72
     1
 10
1.247767224652355
 20
0.1525708704655737
 11
1.256815775865728
 21
0.1525708704655737
 72
     1
 10
1.256815775865729
 20
0.1525708704655737
 11
1.265771043045974
 21
0.1525708704655737
 72
     1
 10
1.265771043045973
 20
0.1525708704655737
 11
1.274446458126836
 21
0.1525708704655737
 72
     1
 10
1.274446458126837
 20
0.1525708704655737
 11
1.282562169008935
 21
0.1525708704655737
 72
     1
 10
1.282562169008935
 20
0.1525708704655737
 11
1.289745039559756
 21
0.1525708704655737
 72
     1
 10
1.289745039559755
 20
0.1525708704655737
 11
1.295808501713046
 21
0.1525708704655737
 72
     1
 10
1.295808501713046
 20
0.1525708704655737
 11
1.300472703369423
 21
0.1525708704655737
 72
     1
 10
1.300472703369423
 20
0.1525708704655737
 11
1.303457792429505
 21
0.1525708704655737
 72
     1
 10
1.303457792429505
 20
0.1525708704655737
 11
1.304483916793908
 21
0.1525708704655737
 72
     1
 10
1.304483916793908
 20
0.1525708704655737
 11
1.304483916793908
 21
0.1730000737205081
 72
     1
 10
1.304483916793908
 20
0.1730000737205078
 11
1.303457792429505
 21
0.1730000737205078
 72
     1
 10
1.303457792429505
 20
0.1730000737205078
 11
1.300472703369423
 21
0.1730000737205078
 72
     1
 10
1.300472703369423
 20
0.1730000737205078
 11
1.295808501713045
 21
0.1730000737205078
 72
     1
 10
1.295808501713046
 20
0.1730000737205078
 11
1.289745039559754
 21
0.1730000737205078
 72
     1
 10
1.289745039559755
 20
0.1730000737205078
 11
1.282562169008934
 21
0.1730000737205078
 72
     1
 10
1.282562169008935
 20
0.1730000737205078
 11
1.274446458126837
 21
0.1730000737205078
 72
     1
 10
1.274446458126837
 20
0.1730000737205078
 11
1.265771043045975
 21
0.1730000737205078
 72
     1
 10
1.265771043045973
 20
0.1730000737205078
 11
1.256815775865728
 21
0.1730000737205078
 72
     1
 10
1.256815775865729
 20
0.1730000737205078
 11
1.247767224652355
 21
0.1730000737205078
 72
     1
 10
1.247767224652355
 20
0.1730000737205078
 11
1.238998525538365
 21
0.1730000737205078
 72
     1
 10
1.238998525538365
 20
0.1730000737205078
 11
1.230602962556885
 21
0.1730000737205078
 72
     1
 10
1.230602962556885
 20
0.1730000737205078
 11
1.223046955873553
 21
0.1730000737205078
 72
     1
 10
1.223046955873553
 20
0.1730000737205078
 11
1.216517073554625
 21
0.1730000737205078
 72
     1
 10
1.216517073554626
 20
0.1730000737205078
 11
1.211199883666355
 21
0.1730000737205078
 72
     1
 10
1.211199883666355
 20
0.1730000737205078
 11
1.207468522341252
 21
0.1730000737205078
 72
     1
 10
1.207468522341252
 20
0.1730000737205078
 11
1.205602841678701
 21
0.1730000737205078
 72
     1
 10
1.205602841678699
 20
0.1730000737205078
 11
1.205602841678699
 21
0.1754254585818243
 72
     1
 10
1.205602841678699
 20
0.1754254585818245
 11
1.205602841678699
 21
0.1794366720063095
 72
     1
 10
1.205602841678699
 20
0.1794366720063094
 11
1.205602841678699
 21
0.1843807257620694
 72
     1
 10
1.205602841678699
 20
0.1843807257620694
 11
1.205602841678699
 21
0.1898844837165951
 72
     1
 10
1.205602841678699
 20
0.1898844837165951
 11
1.205602841678699
 21
0.1952949576379935
 72
     1
 10
1.205602841678699
 20
0.1952949576379937
 11
1.205602841678699
 21
0.2003322954268815
 72
     1
 10
1.205602841678699
 20
0.2003322954268814
 11
1.205602841678699
 21
0.2042502248182386
 72
     1
 10
1.205602841678699
 20
0.2042502248182386
 11
1.205602841678699
 21
0.206675609679555
 72
     1
 10
1.205602841678699
 20
0.206675609679555
 11
1.207468522341251
 21
0.206675609679555
 72
     1
 10
1.207468522341252
 20
0.206675609679555
 11
1.211293167699483
 21
0.206675609679555
 72
     1
 10
1.211293167699483
 20
0.206675609679555
 11
1.21670364162088
 21
0.206675609679555
 72
     1
 10
1.216703641620879
 20
0.206675609679555
 11
1.223420092006063
 21
0.206675609679555
 72
     1
 10
1.223420092006064
 20
0.206675609679555
 11
1.231255950788778
 21
0.206675609679555
 72
     1
 10
1.231255950788778
 20
0.206675609679555
 11
1.239744797803386
 21
0.206675609679555
 72
     1
 10
1.239744797803385
 20
0.206675609679555
 11
1.248886633049885
 21
0.206675609679555
 72
     1
 10
1.248886633049885
 20
0.206675609679555
 11
1.258121752329513
 21
0.206675609679555
 72
     1
 10
1.258121752329514
 20
0.206675609679555
 11
1.267356871609143
 21
0.206675609679555
 72
     1
 10
1.267356871609142
 20
0.206675609679555
 11
1.276218854756259
 21
0.206675609679555
 72
     1
 10
1.276218854756259
 20
0.206675609679555
 11
1.284521133704611
 21
0.206675609679555
 72
     1
 10
1.284521133704611
 20
0.206675609679555
 11
1.291890572321688
 21
0.206675609679555
 72
     1
 10
1.291890572321688
 20
0.206675609679555
 11
1.298140602541234
 21
0.206675609679555
 72
     1
 10
1.298140602541234
 20
0.206675609679555
 11
1.30289808823074
 21
0.206675609679555
 72
     1
 10
1.30289808823074
 20
0.206675609679555
 11
1.305976461323949
 21
0.206675609679555
 72
     1
 10
1.305976461323949
 20
0.206675609679555
 11
1.30709586972148
 21
0.206675609679555
 72
     1
 10
1.307095869721479
 20
0.206675609679555
 11
1.307095869721479
 21
0.2277578011663822
 72
     1
 10
1.307095869721479
 20
0.2277578011663825
 11
1.304577200827036
 21
0.2277578011663825
 72
     1
 10
1.304577200827037
 20
0.2277578011663825
 11
1.182188549363684
 21
0.2277578011663825
 72
     1
 10
1.182188549363684
 20
0.2277578011663825
 11
1.182188549363684
 21
0.0926825211976832
 72
     1
 10
1.182188549363684
 20
0.0926825211976832
 11
1.311853355410986
 21
0.0926825211976832
 72
     1
 10
1.311853355410985
 20
0.0926825211976832
 11
1.311853355410985
 21
0.113671428651383
 72
     1
 10
1.311853355410985
 20
0.1136714286513832
 11
1.310733947013454
 21
0.1136714286513832
 72
     1
 10
1.310733947013455
 20
0.1136714286513832
 11
1.307469005853991
 21
0.1136714286513832
 72
     1
 10
1.307469005853991
 20
0.1136714286513832
 11
1.302431668065102
 21
0.1136714286513832
 72
     1
 10
1.302431668065103
 20
0.1136714286513832
 11
1.295901785746174
 21
0.1136714286513832
 72
     1
 10
1.295901785746174
 20
0.1136714286513832
 11
1.288159210996586
 21
0.1136714286513832
 72
     1
 10
1.288159210996587
 20
0.1136714286513832
 11
1.279483795915724
 21
0.1136714286513832
 72
     1
 10
1.279483795915723
 20
0.1136714286513832
 11
1.270155392602968
 21
0.1136714286513832
 72
     1
 10
1.270155392602969
 20
0.1136714286513832
 11
1.260547137190832
 21
0.1136714286513832
 72
     1
 10
1.260547137190831
 20
0.1136714286513832
 11
1.250752313712437
 21
0.1136714286513832
 72
     1
 10
1.250752313712437
 20
0.1136714286513832
 11
1.241330626366554
 21
0.1136714286513832
 72
     1
 10
1.241330626366555
 20
0.1136714286513832
 11
1.23237535918631
 21
0.1136714286513832
 72
     1
 10
1.232375359186308
 20
0.1136714286513832
 11
1.224166364271082
 21
0.1136714286513832
 72
     1
 10
1.224166364271083
 20
0.1136714286513832
 11
1.217170061786517
 21
0.1136714286513832
 72
     1
 10
1.217170061786517
 20
0.1136714286513832
 11
1.211479735765737
 21
0.1136714286513832
 72
     1
 10
1.211479735765737
 20
0.1136714286513832
 11
1.20756180637438
 21
0.1136714286513832
 72
     1
 10
1.207561806374379
 20
0.1136714286513832
 11
1.2056028416787
 21
0.1136714286513832
 72
     1
 10
1.205602841678699
 20
0.1136714286513832
 11
1.205602841678699
 21
0.1163766656120825
 72
     1
 10
1.205602841678699
 20
0.1163766656120823
 11
1.205602841678699
 21
0.1209475832353323
 72
     1
 10
1.205602841678699
 20
0.1209475832353325
 11
1.205602841678699
 21
0.1267311932892411
 72
     1
 10
1.205602841678699
 20
0.1267311932892408
 11
1.205602841678699
 21
0.1330745075419143
 72
     1
 10
1.205602841678699
 20
0.1330745075419144
 11
1.205602841678699
 21
0.1395111058277156
 72
     1
 10
1.205602841678699
 20
0.1395111058277158
 11
1.205602841678699
 21
0.1452947158816239
 72
     1
 10
1.205602841678699
 20
0.145294715881624
 11
1.205602841678699
 21
0.1498656335048746
 72
     1
 10
1.205602841678699
 20
0.1498656335048745
 11
1.205602841678699
 21
0.1525708704655738
 97
        0
 75
     0
 76
     1
 98
        1
 10
-0.3743130907707726
 20
-0.2500502867693841
1001
ACAD
1010
0.0
1020
0.0
1030
0.0
  0
HATCH
  5
1B613
330
1B60D
100
AcDbEntity
  8
Kawneer Logo-English
100
AcDbHatch
 10
0.0
 20
0.0
 30
0.0
210
0.0
220
0.0
230
1.0
  2
SOLID
 70
     1
 71
     0
 91
        1
 92
        1
 93
       87
 72
     1
 10
1.049352086190046
 20
0.1525708704655737
 11
1.051217766852597
 21
0.1525708704655737
 72
     1
 10
1.051217766852596
 20
0.1525708704655737
 11
1.054949128177699
 21
0.1525708704655737
 72
     1
 10
1.0549491281777
 20
0.1525708704655737
 11
1.060173034032843
 21
0.1525708704655737
 72
     1
 10
1.060173034032843
 20
0.1525708704655737
 11
1.0667962003849
 21
0.1525708704655737
 72
     1
 10
1.0667962003849
 20
0.1525708704655737
 11
1.074352207068231
 21
0.1525708704655737
 72
     1
 10
1.074352207068232
 20
0.1525708704655737
 11
1.082747770049711
 21
0.1525708704655737
 72
     1
 10
1.082747770049711
 20
0.1525708704655737
 11
1.0915164691637
 21
0.1525708704655737
 72
     1
 10
1.091516469163701
 20
0.1525708704655737
 11
1.100565020377075
 21
0.1525708704655737
 72
     1
 10
1.100565020377073
 20
0.1525708704655737
 11
1.109520287557319
 21
0.1525708704655737
 72
     1
 10
1.10952028755732
 20
0.1525708704655737
 11
1.118195702638183
 21
0.1525708704655737
 72
     1
 10
1.118195702638182
 20
0.1525708704655737
 11
1.126218129487151
 21
0.1525708704655737
 72
     1
 10
1.126218129487152
 20
0.1525708704655737
 11
1.133401000037974
 21
0.1525708704655737
 72
     1
 10
1.133401000037974
 20
0.1525708704655737
 11
1.139557746224391
 21
0.1525708704655737
 72
     1
 10
1.139557746224392
 20
0.1525708704655737
 11
1.14422194788077
 21
0.1525708704655737
 72
     1
 10
1.144221947880769
 20
0.1525708704655737
 11
1.147207036940851
 21
0.1525708704655737
 72
     1
 10
1.147207036940852
 20
0.1525708704655737
 11
1.148233161305255
 21
0.1525708704655737
 72
     1
 10
1.148233161305255
 20
0.1525708704655737
 11
1.148233161305255
 21
0.1730000737205081
 72
     1
 10
1.148233161305255
 20
0.1730000737205078
 11
1.147207036940852
 21
0.1730000737205078
 72
     1
 10
1.147207036940852
 20
0.1730000737205078
 11
1.14422194788077
 21
0.1730000737205078
 72
     1
 10
1.144221947880769
 20
0.1730000737205078
 11
1.139557746224391
 21
0.1730000737205078
 72
     1
 10
1.139557746224392
 20
0.1730000737205078
 11
1.133494284071101
 21
0.1730000737205078
 72
     1
 10
1.133494284071101
 20
0.1730000737205078
 11
1.126218129487152
 21
0.1730000737205078
 72
     1
 10
1.126218129487152
 20
0.1730000737205078
 11
1.118195702638183
 21
0.1730000737205078
 72
     1
 10
1.118195702638182
 20
0.1730000737205078
 11
1.10952028755732
 21
0.1730000737205078
 72
     1
 10
1.10952028755732
 20
0.1730000737205078
 11
1.100565020377074
 21
0.1730000737205078
 72
     1
 10
1.100565020377073
 20
0.1730000737205078
 11
1.0915164691637
 21
0.1730000737205078
 72
     1
 10
1.091516469163701
 20
0.1730000737205078
 11
1.082747770049712
 21
0.1730000737205078
 72
     1
 10
1.082747770049711
 20
0.1730000737205078
 11
1.074352207068231
 21
0.1730000737205078
 72
     1
 10
1.074352207068232
 20
0.1730000737205078
 11
1.0667962003849
 21
0.1730000737205078
 72
     1
 10
1.0667962003849
 20
0.1730000737205078
 11
1.060173034032843
 21
0.1730000737205078
 72
     1
 10
1.060173034032843
 20
0.1730000737205078
 11
1.054949128177701
 21
0.1730000737205078
 72
     1
 10
1.0549491281777
 20
0.1730000737205078
 11
1.051217766852597
 21
0.1730000737205078
 72
     1
 10
1.051217766852596
 20
0.1730000737205078
 11
1.049352086190045
 21
0.1730000737205078
 72
     1
 10
1.049352086190046
 20
0.1730000737205078
 11
1.049352086190046
 21
0.1754254585818243
 72
     1
 10
1.049352086190046
 20
0.1754254585818245
 11
1.049352086190046
 21
0.1794366720063095
 72
     1
 10
1.049352086190046
 20
0.1794366720063094
 11
1.049352086190046
 21
0.1843807257620694
 72
     1
 10
1.049352086190046
 20
0.1843807257620694
 11
1.049352086190046
 21
0.1898844837165951
 72
     1
 10
1.049352086190046
 20
0.1898844837165951
 11
1.049352086190046
 21
0.1952949576379935
 72
     1
 10
1.049352086190046
 20
0.1952949576379937
 11
1.049352086190046
 21
0.2003322954268815
 72
     1
 10
1.049352086190046
 20
0.2003322954268814
 11
1.049352086190046
 21
0.2042502248182386
 72
     1
 10
1.049352086190046
 20
0.2042502248182386
 11
1.049352086190046
 21
0.206675609679555
 72
     1
 10
1.049352086190046
 20
0.206675609679555
 11
1.051217766852597
 21
0.206675609679555
 72
     1
 10
1.051217766852596
 20
0.206675609679555
 11
1.055042412210825
 21
0.206675609679555
 72
     1
 10
1.055042412210827
 20
0.206675609679555
 11
1.060452886132226
 21
0.206675609679555
 72
     1
 10
1.060452886132225
 20
0.206675609679555
 11
1.067169336517409
 21
0.206675609679555
 72
     1
 10
1.06716933651741
 20
0.206675609679555
 11
1.075005195300124
 21
0.206675609679555
 72
     1
 10
1.075005195300123
 20
0.206675609679555
 11
1.083494042314731
 21
0.206675609679555
 72
     1
 10
1.083494042314732
 20
0.206675609679555
 11
1.092542593528105
 21
0.206675609679555
 72
     1
 10
1.092542593528106
 20
0.206675609679555
 11
1.10187099684086
 21
0.206675609679555
 72
     1
 10
1.101870996840861
 20
0.206675609679555
 11
1.111106116120489
 21
0.206675609679555
 72
     1
 10
1.111106116120488
 20
0.206675609679555
 11
1.119968099267605
 21
0.206675609679555
 72
     1
 10
1.119968099267605
 20
0.206675609679555
 11
1.128270378215957
 21
0.206675609679555
 72
     1
 10
1.128270378215957
 20
0.206675609679555
 11
1.135639816833034
 21
0.206675609679555
 72
     1
 10
1.135639816833034
 20
0.206675609679555
 11
1.14188984705258
 21
0.206675609679555
 72
     1
 10
1.141889847052581
 20
0.206675609679555
 11
1.146647332742086
 21
0.206675609679555
 72
     1
 10
1.146647332742086
 20
0.206675609679555
 11
1.149725705835295
 21
0.206675609679555
 72
     1
 10
1.149725705835296
 20
0.206675609679555
 11
1.150845114232827
 21
0.206675609679555
 72
     1
 10
1.150845114232826
 20
0.206675609679555
 11
1.150845114232826
 21
0.2277578011663822
 72
     1
 10
1.150845114232826
 20
0.2277578011663825
 11
1.148326445338383
 21
0.2277578011663825
 72
     1
 10
1.148326445338383
 20
0.2277578011663825
 11
1.025937793875031
 21
0.2277578011663825
 72
     1
 10
1.025937793875032
 20
0.2277578011663825
 11
1.025937793875032
 21
0.0926825211976832
 72
     1
 10
1.025937793875032
 20
0.0926825211976832
 11
1.155602599922332
 21
0.0926825211976832
 72
     1
 10
1.155602599922332
 20
0.0926825211976832
 11
1.155602599922332
 21
0.113671428651383
 72
     1
 10
1.155602599922332
 20
0.1136714286513832
 11
1.154483191524801
 21
0.1136714286513832
 72
     1
 10
1.154483191524799
 20
0.1136714286513832
 11
1.151218250365336
 21
0.1136714286513832
 72
     1
 10
1.151218250365338
 20
0.1136714286513832
 11
1.146180912576449
 21
0.1136714286513832
 72
     1
 10
1.146180912576449
 20
0.1136714286513832
 11
1.13965103025752
 21
0.1136714286513832
 72
     1
 10
1.13965103025752
 20
0.1136714286513832
 11
1.131908455507932
 21
0.1136714286513832
 72
     1
 10
1.131908455507931
 20
0.1136714286513832
 11
1.12323304042707
 21
0.1136714286513832
 72
     1
 10
1.123233040427071
 20
0.1136714286513832
 11
1.113904637114314
 21
0.1136714286513832
 72
     1
 10
1.113904637114314
 20
0.1136714286513832
 11
1.104296381702177
 21
0.1136714286513832
 72
     1
 10
1.104296381702177
 20
0.1136714286513832
 11
1.094501558223783
 21
0.1136714286513832
 72
     1
 10
1.094501558223784
 20
0.1136714286513832
 11
1.085079870877901
 21
0.1136714286513832
 72
     1
 10
1.085079870877899
 20
0.1136714286513832
 11
1.076124603697654
 21
0.1136714286513832
 72
     1
 10
1.076124603697655
 20
0.1136714286513832
 11
1.067915608782429
 21
0.1136714286513832
 72
     1
 10
1.067915608782429
 20
0.1136714286513832
 11
1.060919306297863
 21
0.1136714286513832
 72
     1
 10
1.060919306297863
 20
0.1136714286513832
 11
1.055228980277083
 21
0.1136714286513832
 72
     1
 10
1.055228980277082
 20
0.1136714286513832
 11
1.051311050885725
 21
0.1136714286513832
 72
     1
 10
1.051311050885726
 20
0.1136714286513832
 11
1.049352086190046
 21
0.1136714286513832
 72
     1
 10
1.049352086190046
 20
0.1136714286513832
 11
1.049352086190046
 21
0.1163766656120825
 72
     1
 10
1.049352086190046
 20
0.1163766656120823
 11
1.049352086190046
 21
0.1209475832353323
 72
     1
 10
1.049352086190046
 20
0.1209475832353325
 11
1.049352086190046
 21
0.1267311932892411
 72
     1
 10
1.049352086190046
 20
0.1267311932892408
 11
1.049352086190046
 21
0.1330745075419143
 72
     1
 10
1.049352086190046
 20
0.1330745075419144
 11
1.049352086190046
 21
0.1395111058277156
 72
     1
 10
1.049352086190046
 20
0.1395111058277158
 11
1.049352086190046
 21
0.1452947158816239
 72
     1
 10
1.049352086190046
 20
0.145294715881624
 11
1.049352086190046
 21
0.1498656335048746
 72
     1
 10
1.049352086190046
 20
0.1498656335048745
 11
1.049352086190046
 21
0.1525708704655738
 97
        0
 75
     0
 76
     1
 98
        1
 10
-0.3743130907707726
 20
-0.2500502867693841
1001
ACAD
1010
0.0
1020
0.0
1030
0.0
  0
HATCH
  5
1B614
330
1B60D
100
AcDbEntity
  8
Kawneer Logo-English
100
AcDbHatch
 10
0.0
 20
0.0
 30
0.0
210
0.0
220
0.0
230
1.0
  2
SOLID
 70
     1
 71
     0
 91
        1
 92
        1
 93
       42
 72
     1
 10
0.9725793269260698
 20
0.2277578011663825
 11
0.9725793269260698
 21
0.1354998924032311
 72
     1
 10
0.9725793269260698
 20
0.1354998924032311
 11
0.9729524630585808
 21
0.1264513411898582
 72
     1
 10
0.9729524630585796
 20
0.1264513411898583
 11
0.9729524630585796
 21
0.1255185008585825
 72
     1
 10
0.9729524630585796
 20
0.1255185008585824
 11
0.9731390311248343
 21
0.1238393882622866
 72
     1
 10
0.9731390311248349
 20
0.1238393882622866
 11
0.9717397706279211
 21
0.1254252168254551
 72
     1
 10
0.97173977062792
 20
0.1254252168254551
 11
0.9710867823960281
 21
0.1262647731236031
 72
     1
 10
0.9710867823960294
 20
0.1262647731236031
 11
0.9641837639445897
 21
0.1339140638400625
 72
     1
 10
0.9641837639445899
 20
0.1339140638400624
 11
0.8755639324734129
 21
0.2277578011663823
 72
     1
 10
0.8755639324734115
 20
0.2277578011663825
 11
0.8529891964565429
 21
0.2277578011663825
 72
     1
 10
0.8529891964565434
 20
0.2277578011663825
 11
0.8529891964565434
 21
0.0926825211976832
 72
     1
 10
0.8529891964565434
 20
0.0926825211976832
 11
0.8756572165065401
 21
0.0926825211976832
 72
     1
 10
0.875657216506541
 20
0.0926825211976832
 11
0.875657216506541
 21
0.1927762887435495
 72
     1
 10
0.875657216506541
 20
0.1927762887435495
 11
0.875657216506541
 21
0.1931494248760597
 72
     1
 10
0.875657216506541
 20
0.1931494248760596
 11
0.8755639324734129
 21
0.193988981174208
 72
     1
 10
0.8755639324734115
 20
0.1939889811742079
 11
0.8754706484402849
 21
0.1952949576379935
 72
     1
 10
0.8754706484402859
 20
0.1952949576379937
 11
0.8753773644071577
 21
0.1967875021680344
 72
     1
 10
0.875377364407158
 20
0.1967875021680343
 11
0.8755639324734126
 21
0.1965076500686515
 72
     1
 10
0.8755639324734115
 20
0.1965076500686517
 11
0.8756572165065396
 21
0.1963210820023967
 72
     1
 10
0.875657216506541
 20
0.1963210820023967
 11
0.8764967728046894
 21
0.1954815257042487
 72
     1
 10
0.8764967728046887
 20
0.1954815257042488
 11
0.8781758854009835
 21
0.1936158450416976
 72
     1
 10
0.8781758854009842
 20
0.1936158450416973
 11
0.8797617139641527
 21
0.1917501643791464
 72
     1
 10
0.879761713964152
 20
0.1917501643791466
 11
0.8805079862291723
 21
0.1909106080809982
 72
     1
 10
0.8805079862291727
 20
0.190910608080998
 11
0.8816273946267036
 21
0.1897911996834678
 72
     1
 10
0.8816273946267028
 20
0.1897911996834681
 11
0.884519199653657
 21
0.1867128265902584
 72
     1
 10
0.8845191996536581
 20
0.1867128265902582
 11
0.8891834013100353
 21
0.1818620568676254
 72
     1
 10
0.889183401310035
 20
0.1818620568676252
 11
0.8951535794301982
 21
0.1756120266480794
 72
     1
 10
0.8951535794301985
 20
0.1756120266480794
 11
0.9021498819147662
 21
0.1681493039978751
 72
     1
 10
0.9021498819147669
 20
0.1681493039978752
 11
0.9099857406974814
 21
0.1598470250495227
 72
     1
 10
0.9099857406974813
 20
0.1598470250495225
 11
0.9183813036789613
 21
0.1509850419024051
 72
     1
 10
0.9183813036789612
 20
0.1509850419024052
 11
0.9271500027929521
 21
0.1418432066559046
 72
     1
 10
0.9271500027929509
 20
0.1418432066559046
 11
0.9358254178738118
 21
0.1326080873762767
 72
     1
 10
0.9358254178738132
 20
0.1326080873762767
 11
0.9442209808552931
 21
0.1237461042291589
 72
     1
 10
0.9442209808552931
 20
0.1237461042291589
 11
0.9520568396380092
 21
0.1154438252808068
 72
     1
 10
0.9520568396380092
 20
0.1154438252808068
 11
0.9590531421225751
 21
0.1079811026306025
 72
     1
 10
0.959053142122574
 20
0.1079811026306024
 11
0.9650233202427372
 21
0.101731072411056
 72
     1
 10
0.9650233202427376
 20
0.101731072411056
 11
0.9695942378659868
 21
0.0968803026884232
 72
     1
 10
0.9695942378659871
 20
0.096880302688423
 11
0.9725793269260696
 21
0.0938019295952138
 72
     1
 10
0.9725793269260698
 20
0.093801929595214
 11
0.9736054512904727
 21
0.0926825211976834
 72
     1
 10
0.9736054512904726
 20
0.0926825211976832
 11
0.9952473469760661
 21
0.0926825211976832
 72
     1
 10
0.9952473469760651
 20
0.0926825211976832
 11
0.9952473469760651
 21
0.2277578011663825
 72
     1
 10
0.9952473469760651
 20
0.2277578011663825
 11
0.9927286780816201
 21
0.2277578011663825
 72
     1
 10
0.9927286780816203
 20
0.2277578011663825
 11
0.9725793269260686
 21
0.2277578011663825
 97
        0
 75
     0
 76
     1
 98
        1
 10
-0.3743130907707726
 20
-0.2500502867693841
1001
ACAD
1010
0.0
1020
0.0
1030
0.0
  0
HATCH
  5
1B615
330
1B60D
100
AcDbEntity
  8
Kawneer Logo-English
100
AcDbHatch
 10
0.0
 20
0.0
 30
0.0
210
0.0
220
0.0
230
1.0
  2
SOLID
 70
     1
 71
     0
 91
        2
 92
       16
 93
       32
 72
     1
 10
0.5269615006757409
 20
0.144641727649731
 11
0.5290137494045469
 21
0.148652941074216
 72
     1
 10
0.5290137494045464
 20
0.1486529410742159
 11
0.5322786905640116
 21
0.1551828233931449
 72
     1
 10
0.532278690564012
 20
0.1551828233931452
 11
0.5364764720547521
 21
0.1633918183083696
 72
     1
 10
0.5364764720547526
 20
0.1633918183083696
 11
0.5409541056448736
 21
0.1722538014554874
 72
     1
 10
0.5409541056448726
 20
0.1722538014554873
 11
0.545338455201869
 21
0.1808359325032223
 72
     1
 10
0.5453384552018701
 20
0.1808359325032223
 11
0.5490698165269726
 21
0.1882053711202994
 72
     1
 10
0.549069816526973
 20
0.1882053711202996
 11
0.5515884854214162
 21
0.1932427089091875
 72
     1
 10
0.5515884854214148
 20
0.1932427089091872
 11
0.5526146097858177
 21
0.1952016736048658
 72
     1
 10
0.5526146097858194
 20
0.1952016736048658
 11
0.552801177852074
 21
0.195761377803631
 72
     1
 10
0.5528011778520723
 20
0.1957613778036309
 11
0.5533608820508379
 21
0.1970673542674166
 72
     1
 10
0.5533608820508378
 20
0.1970673542674169
 11
0.5542004383489863
 21
0.1990263189630955
 72
     1
 10
0.5542004383489872
 20
0.1990263189630952
 11
0.5550399946471356
 21
0.2012651357581567
 72
     1
 10
0.5550399946471352
 20
0.2012651357581567
 11
0.5555064148127727
 21
0.2001457273606265
 72
     1
 10
0.5555064148127729
 20
0.2001457273606264
 11
0.5560661190115385
 21
0.198933034929968
 72
     1
 10
0.5560661190115379
 20
0.198933034929968
 11
0.5567191072434298
 21
0.197533774433055
 72
     1
 10
0.5567191072434304
 20
0.197533774433055
 11
0.5574653795084506
 21
0.1959479458698865
 72
     1
 10
0.557465379508451
 20
0.1959479458698865
 11
0.5583049358065995
 21
0.1942688332735902
 72
     1
 10
0.5583049358065986
 20
0.1942688332735903
 11
0.5606370366347874
 21
0.1896046316172126
 72
     1
 10
0.5606370366347871
 20
0.1896046316172126
 11
0.5639952618273804
 21
0.1828881812320289
 72
     1
 10
0.5639952618273814
 20
0.1828881812320287
 11
0.5680064752518651
 21
0.1748657543830587
 72
     1
 10
0.5680064752518637
 20
0.1748657543830589
 11
0.57239082480886
 21
0.1661903393021966
 72
     1
 10
0.5723908248088612
 20
0.1661903393021967
 11
0.5765886062996012
 21
0.1577947763207168
 72
     1
 10
0.5765886062996
 20
0.1577947763207165
 11
0.5803199676247008
 21
0.1503320536705122
 72
     1
 10
0.5803199676247015
 20
0.1503320536705122
 11
0.5831184886185295
 21
0.144641727649731
 72
     1
 10
0.5831184886185295
 20
0.144641727649731
 11
0.5791072751940441
 21
0.144641727649731
 72
     1
 10
0.5791072751940436
 20
0.144641727649731
 11
0.5724841088419869
 21
0.144641727649731
 72
     1
 10
0.5724841088419872
 20
0.144641727649731
 11
0.5641818298936356
 21
0.144641727649731
 72
     1
 10
0.5641818298936352
 20
0.144641727649731
 11
0.5550399946471351
 21
0.144641727649731
 72
     1
 10
0.5550399946471352
 20
0.144641727649731
 11
0.5458981594006351
 21
0.144641727649731
 72
     1
 10
0.5458981594006352
 20
0.144641727649731
 11
0.5375958804522815
 21
0.144641727649731
 72
     1
 10
0.5375958804522814
 20
0.144641727649731
 11
0.5310659981333528
 21
0.144641727649731
 72
     1
 10
0.5310659981333524
 20
0.144641727649731
 11
0.5269615006757405
 21
0.144641727649731
 97
        0
 92
        1
 93
      141
 72
     1
 10
0.5656743744236757
 20
0.2277578011663825
 11
0.544405614870593
 21
0.2277578011663825
 72
     1
 10
0.544405614870593
 20
0.2277578011663825
 11
0.4748157261574382
 21
0.0934287934627039
 72
     1
 10
0.4748157261574378
 20
0.0934287934627039
 11
0.4729500454948865
 21
0.0955743262246376
 72
     1
 10
0.4729500454948874
 20
0.0955743262246376
 11
0.4699649564348049
 21
0.0991191194834847
 72
     1
 10
0.4699649564348043
 20
0.0991191194834847
 11
0.4661403110765752
 21
0.1036900371067346
 72
     1
 10
0.4661403110765754
 20
0.1036900371067347
 11
0.4615693934533244
 21
0.1091005110281331
 72
     1
 10
0.461569393453325
 20
0.109100511028133
 11
0.456345487598182
 21
0.1152572572145517
 72
     1
 10
0.4563454875981812
 20
0.1152572572145516
 11
0.4506551615774008
 21
0.1219737075997353
 72
     1
 10
0.4506551615774015
 20
0.1219737075997354
 11
0.4447782674903648
 21
0.1290632941174296
 72
     1
 10
0.4447782674903636
 20
0.1290632941174296
 11
0.4387148053370722
 21
0.1362461646682511
 72
     1
 10
0.4387148053370727
 20
0.1362461646682512
 11
0.4326513431837832
 21
0.1433357511859454
 72
     1
 10
0.4326513431837844
 20
0.1433357511859453
 11
0.4268677331298759
 21
0.1502387696373844
 72
     1
 10
0.4268677331298756
 20
0.1502387696373844
 11
0.4214572592084763
 21
0.1566753679231857
 72
     1
 10
0.4214572592084754
 20
0.1566753679231858
 11
0.4165132054527153
 21
0.1625522620102216
 72
     1
 10
0.4165132054527163
 20
0.1625522620102216
 11
0.4123154239619763
 21
0.1674963157659821
 72
     1
 10
0.4123154239619753
 20
0.1674963157659822
 11
0.4088639147362555
 21
0.1715075291904667
 72
     1
 10
0.4088639147362568
 20
0.1715075291904669
 11
0.4065318139080681
 21
0.1743993342174211
 72
     1
 10
0.4065318139080665
 20
0.1743993342174211
 11
0.405319121477409
 21
0.1757985947143345
 72
     1
 10
0.4053191214774104
 20
0.1757985947143345
 11
0.4067183819743243
 21
0.1769180031118651
 72
     1
 10
0.4067183819743235
 20
0.1769180031118651
 11
0.4094236189350213
 21
0.1788769678075437
 72
     1
 10
0.4094236189350218
 20
0.1788769678075437
 11
0.4132482642932526
 21
0.1816754888013702
 72
     1
 10
0.4132482642932525
 20
0.1816754888013703
 11
0.4179124659496298
 21
0.1852202820602174
 72
     1
 10
0.417912465949629
 20
0.1852202820602174
 11
0.4232296558379
 21
0.189138211451575
 72
     1
 10
0.4232296558379001
 20
0.1891382114515751
 11
0.4291065499249351
 21
0.1935225610085696
 72
     1
 10
0.4291065499249367
 20
0.1935225610085698
 11
0.4352632961113562
 21
0.1981867626649482
 72
     1
 10
0.4352632961113554
 20
0.1981867626649479
 11
0.4416066103640296
 21
0.2028509643213252
 72
     1
 10
0.4416066103640293
 20
0.2028509643213252
 11
0.4479499246167016
 21
0.2076084500108307
 72
     1
 10
0.4479499246167018
 20
0.2076084500108307
 11
0.4540133867699932
 21
0.2120860836009535
 72
     1
 10
0.4540133867699927
 20
0.2120860836009535
 11
0.4596104287576467
 21
0.2162838650916932
 72
     1
 10
0.4596104287576468
 20
0.216283865091693
 11
0.4646477665465351
 21
0.2200152264167952
 72
     1
 10
0.464647766546535
 20
0.2200152264167951
 11
0.4689388320704013
 21
0.223186883543132
 72
     1
 10
0.4689388320704016
 20
0.2231868835431323
 11
0.4721104891967386
 21
0.2256122684044488
 72
     1
 10
0.4721104891967376
 20
0.2256122684044488
 11
0.4742560219586717
 21
0.2271980969676172
 72
     1
 10
0.4742560219586727
 20
0.2271980969676173
 11
0.475002294223693
 21
0.2277578011663825
 72
     1
 10
0.4750022942236929
 20
0.2277578011663825
 11
0.4674462875403612
 21
0.2277578011663825
 72
     1
 10
0.4674462875403611
 20
0.2277578011663825
 11
0.4395543616352215
 21
0.2277578011663825
 72
     1
 10
0.439554361635222
 20
0.2277578011663825
 11
0.4386215213039473
 21
0.2270115289013622
 72
     1
 10
0.4386215213039466
 20
0.2270115289013622
 11
0.4359162843432469
 21
0.2250525642056836
 72
     1
 10
0.4359162843432465
 20
0.2250525642056836
 11
0.4318117868856346
 21
0.2220674751456017
 72
     1
 10
0.4318117868856351
 20
0.2220674751456017
 11
0.4264013129642376
 21
0.2180562617211167
 72
     1
 10
0.4264013129642379
 20
0.2180562617211168
 11
0.4200579987115638
 21
0.2132987760316117
 72
     1
 10
0.4200579987115641
 20
0.2132987760316114
 11
0.4128751281607416
 21
0.2079815861433408
 72
     1
 10
0.4128751281607408
 20
0.2079815861433408
 11
0.4051325534111546
 21
0.20229126012256
 72
     1
 10
0.4051325534111552
 20
0.20229126012256
 11
0.397016842529058
 21
0.1963210820023964
 72
     1
 10
0.3970168425290583
 20
0.1963210820023967
 11
0.3889011316469611
 21
0.1903509038822331
 72
     1
 10
0.3889011316469611
 20
0.190350903882233
 11
0.3808787047979902
 21
0.1844740097951972
 72
     1
 10
0.3808787047979898
 20
0.1844740097951974
 11
0.3733226981146581
 21
0.1787836837744166
 72
     1
 10
0.373322698114658
 20
0.1787836837744166
 11
0.3663263956300919
 21
0.173653061952401
 72
     1
 10
0.3663263956300931
 20
0.173653061952401
 11
0.3601696494436735
 21
0.169082144329151
 72
     1
 10
0.3601696494436726
 20
0.1690821443291508
 11
0.3550390276216579
 21
0.1653507830040483
 72
     1
 10
0.3550390276216584
 20
0.1653507830040482
 11
0.3513076662965558
 21
0.1625522620102218
 72
     1
 10
0.3513076662965551
 20
0.1625522620102216
 11
0.3490688495014928
 21
0.1609664334470531
 72
     1
 10
0.3490688495014926
 20
0.1609664334470531
 11
0.3490688495014926
 21
0.1631119662089868
 72
     1
 10
0.3490688495014926
 20
0.1631119662089868
 11
0.3490688495014926
 21
0.1662836233353237
 72
     1
 10
0.3490688495014926
 20
0.1662836233353238
 11
0.3490688495014926
 21
0.1702948367598088
 72
     1
 10
0.3490688495014926
 20
0.1702948367598088
 11
0.3490688495014926
 21
0.1749590384161865
 72
     1
 10
0.3490688495014926
 20
0.1749590384161865
 11
0.3490688495014926
 21
0.1801829442713294
 72
     1
 10
0.3490688495014926
 20
0.1801829442713296
 11
0.3490688495014926
 21
0.185779986258983
 72
     1
 10
0.3490688495014926
 20
0.1857799862589829
 11
0.3490688495014926
 21
0.1916568803460187
 72
     1
 10
0.3490688495014926
 20
0.1916568803460186
 11
0.3490688495014926
 21
0.1975337744330549
 72
     1
 10
0.3490688495014926
 20
0.197533774433055
 11
0.3490688495014926
 21
0.2033173844869632
 72
     1
 10
0.3490688495014926
 20
0.2033173844869631
 11
0.3490688495014926
 21
0.2088211424414888
 72
     1
 10
0.3490688495014926
 20
0.2088211424414888
 11
0.3490688495014926
 21
0.2139517642635044
 72
     1
 10
0.3490688495014926
 20
0.2139517642635044
 11
0.3490688495014926
 21
0.2185226818867544
 72
     1
 10
0.3490688495014926
 20
0.2185226818867545
 11
0.3490688495014926
 21
0.2222540432118567
 72
     1
 10
0.3490688495014926
 20
0.2222540432118567
 11
0.3490688495014926
 21
0.2252391322719387
 72
     1
 10
0.3490688495014926
 20
0.2252391322719387
 11
0.3490688495014926
 21
0.2271048129344895
 72
     1
 10
0.3490688495014926
 20
0.2271048129344895
 11
0.3490688495014926
 21
0.2277578011663825
 72
     1
 10
0.3490688495014926
 20
0.2277578011663825
 11
0.3258411252527322
 21
0.2277578011663825
 72
     1
 10
0.3258411252527336
 20
0.2277578011663825
 11
0.3258411252527336
 21
0.0926825211976832
 72
     1
 10
0.3258411252527336
 20
0.0926825211976832
 11
0.3486957133689848
 21
0.0926825211976832
 72
     1
 10
0.3486957133689845
 20
0.0926825211976832
 11
0.3486957133689845
 21
0.0943616337939795
 72
     1
 10
0.3486957133689845
 20
0.0943616337939795
 11
0.3486957133689845
 21
0.0988392673841017
 72
     1
 10
0.3486957133689845
 20
0.0988392673841017
 11
0.3486957133689845
 21
0.1051825816367752
 72
     1
 10
0.3486957133689845
 20
0.1051825816367753
 11
0.3486957133689845
 21
0.1125520202538523
 72
     1
 10
0.3486957133689845
 20
0.1125520202538524
 11
0.3486957133689845
 21
0.1200147429040567
 72
     1
 10
0.3486957133689845
 20
0.1200147429040567
 11
0.3486957133689845
 21
0.1267311932892408
 72
     1
 10
0.3486957133689845
 20
0.1267311932892408
 11
0.3486957133689845
 21
0.1317685310781287
 72
     1
 10
0.3486957133689845
 20
0.1317685310781289
 11
0.3486957133689845
 21
0.1342871999725727
 72
     1
 10
0.3486957133689845
 20
0.1342871999725725
 11
0.3507479620977905
 21
0.1356864604694859
 72
     1
 10
0.35074796209779
 20
0.1356864604694859
 11
0.3548524595554018
 21
0.1387648335626952
 72
     1
 10
0.3548524595554015
 20
0.1387648335626952
 11
0.3605427855761835
 21
0.1428693310203079
 72
     1
 10
0.3605427855761842
 20
0.1428693310203079
 11
0.3668860998288565
 21
0.1476268167098129
 72
     1
 10
0.3668860998288568
 20
0.1476268167098129
 11
0.373322698114659
 21
0.1522910183661906
 72
     1
 10
0.373322698114658
 20
0.1522910183661908
 11
0.3791995922016947
 21
0.1565820838900582
 72
     1
 10
0.3791995922016946
 20
0.1565820838900582
 11
0.3836772257918156
 21
0.1599403090826502
 72
     1
 10
0.3836772257918159
 20
0.1599403090826503
 11
0.386195894686261
 21
0.1618059897452011
 72
     1
 10
0.3861958946862609
 20
0.1618059897452011
 11
0.3873153030837921
 21
0.1604067292482882
 72
     1
 10
0.3873153030837915
 20
0.1604067292482878
 11
0.3894608358457238
 21
0.1577947763207163
 72
     1
 10
0.3894608358457248
 20
0.1577947763207165
 11
0.3925392089389353
 21
0.1541566990287417
 72
     1
 10
0.3925392089389348
 20
0.1541566990287417
 11
0.396457138330292
 21
0.149492497372364
 72
     1
 10
0.3964571383302933
 20
0.149492497372364
 11
0.4009347719204161
 21
0.1442685915172211
 72
     1
 10
0.4009347719204146
 20
0.1442685915172209
 11
0.4057855416430466
 21
0.138391697430185
 72
     1
 10
0.4057855416430463
 20
0.1383916974301853
 11
0.4109161634650628
 21
0.1322349512437666
 72
     1
 10
0.410916163465064
 20
0.1322349512437666
 11
0.4162333533533335
 21
0.1259849210242201
 72
     1
 10
0.4162333533533334
 20
0.1259849210242201
 11
0.4215505432416044
 21
0.1196416067715466
 72
     1
 10
0.4215505432416045
 20
0.1196416067715466
 11
0.4265878810304927
 21
0.113671428651383
 72
     1
 10
0.4265878810304931
 20
0.1136714286513832
 11
0.4312520826868704
 21
0.1079811026306024
 72
     1
 10
0.4312520826868696
 20
0.1079811026306024
 11
0.4355431482107378
 21
0.1029437648417141
 72
     1
 10
0.435543148210738
 20
0.1029437648417139
 11
0.4390879414695842
 21
0.0987459833509739
 72
     1
 10
0.4390879414695843
 20
0.0987459833509741
 11
0.4417931784302841
 21
0.0954810421915098
 72
     1
 10
0.4417931784302845
 20
0.0954810421915096
 11
0.4435655750597076
 21
0.0934287934627037
 72
     1
 10
0.4435655750597074
 20
0.0934287934627039
 11
0.4442185632915993
 21
0.0926825211976832
 72
     1
 10
0.4442185632915985
 20
0.0926825211976832
 11
0.4743493059918004
 21
0.0926825211976832
 72
     1
 10
0.4743493059918001
 20
0.0926825211976832
 11
0.4753754303562029
 21
0.0926825211976832
 72
     1
 10
0.4753754303562033
 20
0.0926825211976832
 11
0.5008419714000258
 21
0.0926825211976832
 72
     1
 10
0.5008419714000265
 20
0.0926825211976832
 11
0.5014949596319184
 21
0.0939884976614689
 72
     1
 10
0.501494959631919
 20
0.0939884976614688
 11
0.5031740722282155
 21
0.0973467228540609
 72
     1
 10
0.503174072228215
 20
0.0973467228540612
 11
0.5055061730564038
 21
0.1021042085435666
 72
     1
 10
0.505506173056403
 20
0.1021042085435665
 11
0.5083046940502291
 21
0.1077012505312196
 72
     1
 10
0.5083046940502292
 20
0.1077012505312194
 11
0.5111032150440553
 21
0.1134848605851279
 72
     1
 10
0.5111032150440549
 20
0.1134848605851281
 11
0.5137151679716264
 21
0.1186154824071433
 72
     1
 10
0.5137151679716277
 20
0.1186154824071433
 11
0.5156741326673071
 21
0.1226266958316283
 72
     1
 10
0.5156741326673076
 20
0.122626695831628
 11
0.5167002570317104
 21
0.1247722285935621
 72
     1
 10
0.5167002570317103
 20
0.1247722285935622
 11
0.5180062334954961
 21
0.1247722285935622
 72
     1
 10
0.5180062334954961
 20
0.1247722285935622
 11
0.5207114704561957
 21
0.1247722285935622
 72
     1
 10
0.5207114704561944
 20
0.1247722285935622
 11
0.5246293998475517
 21
0.1247722285935622
 72
     1
 10
0.5246293998475525
 20
0.1247722285935622
 11
0.5295734536033125
 21
0.1247722285935622
 72
     1
 10
0.5295734536033115
 20
0.1247722285935622
 11
0.5352637796240919
 21
0.1247722285935622
 72
     1
 10
0.5352637796240929
 20
0.1247722285935622
 11
0.5415138098436386
 21
0.1247722285935622
 72
     1
 10
0.5415138098436394
 20
0.1247722285935622
 11
0.5482302602288245
 21
0.1247722285935622
 72
     1
 10
0.5482302602288236
 20
0.1247722285935622
 11
0.5551332786802616
 21
0.1247722285935622
 72
     1
 10
0.5551332786802608
 20
0.1247722285935622
 11
0.5620362971317004
 21
0.1247722285935622
 72
     1
 10
0.5620362971317015
 20
0.1247722285935622
 11
0.5687527475168847
 21
0.1247722285935622
 72
     1
 10
0.5687527475168839
 20
0.1247722285935622
 11
0.5750027777364317
 21
0.1247722285935622
 72
     1
 10
0.5750027777364322
 20
0.1247722285935622
 11
0.5806931037572126
 21
0.1247722285935622
 72
     1
 10
0.5806931037572119
 20
0.1247722285935622
 11
0.585637157512972
 21
0.1247722285935622
 72
     1
 10
0.5856371575129727
 20
0.1247722285935622
 11
0.5895550869043299
 21
0.1247722285935622
 72
     1
 10
0.5895550869043289
 20
0.1247722285935622
 11
0.5922603238650286
 21
0.1247722285935622
 72
     1
 10
0.5922603238650291
 20
0.1247722285935622
 11
0.5935663003288148
 21
0.1247722285935622
 72
     1
 10
0.5935663003288148
 20
0.1247722285935622
 11
0.5945924246932176
 21
0.1226266958316281
 72
     1
 10
0.5945924246932175
 20
0.122626695831628
 11
0.5965513893888953
 21
0.1186154824071431
 72
     1
 10
0.5965513893888957
 20
0.1186154824071433
 11
0.5991633423164672
 21
0.1134848605851281
 72
     1
 10
0.5991633423164667
 20
0.1134848605851281
 11
0.6019618633102946
 21
0.1077012505312196
 72
     1
 10
0.6019618633102959
 20
0.1077012505312194
 11
0.604760384304122
 21
0.1021042085435664
 72
     1
 10
0.6047603843041221
 20
0.1021042085435665
 11
0.6070924851323109
 21
0.0973467228540611
 72
     1
 10
0.6070924851323101
 20
0.0973467228540612
 11
0.6087715977286067
 21
0.0939884976614691
 72
     1
 10
0.6087715977286062
 20
0.0939884976614688
 11
0.609424585960498
 21
0.0926825211976832
 72
     1
 10
0.6094245859604986
 20
0.0926825211976832
 11
0.6363836715343633
 21
0.0926825211976832
 72
     1
 10
0.6363836715343641
 20
0.0926825211976832
 11
0.5671669189537184
 21
0.2277578011663825
 72
     1
 10
0.5671669189537179
 20
0.2277578011663825
 11
0.5656743744236758
 21
0.2277578011663825
 97
        0
 75
     0
 76
     1
 98
        1
 10
-0.3743130907707726
 20
-0.2500502867693841
1001
ACAD
1010
0.0
1020
0.0
1030
0.0
  0
HATCH
  5
1B616
330
1B60D
100
AcDbEntity
  8
Kawneer Logo-English
100
AcDbHatch
 10
0.0
 20
0.0
 30
0.0
210
0.0
220
0.0
230
1.0
  2
SOLID
 70
     1
 71
     0
 91
        1
 92
        1
 93
       69
 72
     1
 10
0.8092389849197205
 20
0.2277578011663825
 11
0.778921674153266
 21
0.1309289747799811
 72
     1
 10
0.778921674153267
 20
0.1309289747799809
 11
0.7781754018882468
 21
0.1287834420180468
 72
     1
 10
0.7781754018882468
 20
0.1287834420180467
 11
0.7776156976894812
 21
0.1270110453886236
 72
     1
 10
0.7776156976894813
 20
0.1270110453886237
 11
0.7771492775238438
 21
0.1253319327923275
 72
     1
 10
0.7771492775238436
 20
0.1253319327923274
 11
0.7766828573582045
 21
0.1238393882622867
 72
     1
 10
0.7766828573582046
 20
0.1238393882622866
 11
0.7764030052588217
 21
0.1248655126266895
 72
     1
 10
0.776403005258822
 20
0.1248655126266896
 11
0.7761231531594392
 21
0.1259849210242202
 72
     1
 10
0.7761231531594391
 20
0.1259849210242201
 11
0.7759365850931844
 21
0.1268244773223681
 72
     1
 10
0.7759365850931843
 20
0.1268244773223682
 11
0.7758433010600562
 21
0.1271976134548783
 72
     1
 10
0.7758433010600552
 20
0.1271976134548783
 11
0.7755634489606744
 21
0.1280371697530267
 72
     1
 10
0.775563448960674
 20
0.1280371697530267
 11
0.7750970287950349
 21
0.1291565781505569
 72
     1
 10
0.7750970287950363
 20
0.1291565781505568
 11
0.773977620397507
 21
0.1323282352768938
 72
     1
 10
0.7739776203975062
 20
0.1323282352768939
 11
0.7721119397349549
 21
0.1372722890326544
 72
     1
 10
0.7721119397349554
 20
0.1372722890326546
 11
0.7697798389067666
 21
0.1436156032853281
 72
     1
 10
0.769779838906767
 20
0.1436156032853281
 11
0.7670746019460673
 21
0.1511716099686602
 72
     1
 10
0.7670746019460668
 20
0.15117160996866
 11
0.7639962288528581
 21
0.1595671729501399
 72
     1
 10
0.7639962288528582
 20
0.15956717295014
 11
0.7606380036602665
 21
0.1686157241635125
 72
     1
 10
0.7606380036602652
 20
0.1686157241635125
 11
0.7572797784676718
 21
0.1778508434431408
 72
     1
 10
0.7572797784676726
 20
0.1778508434431408
 11
0.753921553275081
 21
0.187179246755896
 72
     1
 10
0.7539215532750814
 20
0.1871792467558961
 11
0.7505633280824898
 21
0.1962277979692689
 72
     1
 10
0.7505633280824902
 20
0.1962277979692689
 11
0.7474849549892814
 21
0.2046233609507488
 72
     1
 10
0.7474849549892797
 20
0.2046233609507488
 11
0.74477971802858
 21
0.2121793676340809
 72
     1
 10
0.7447797180285814
 20
0.2121793676340809
 11
0.7424476172003926
 21
0.2185226818867544
 72
     1
 10
0.7424476172003929
 20
0.2185226818867545
 11
0.7405819365378416
 21
0.2234667356425151
 72
     1
 10
0.7405819365378408
 20
0.2234667356425151
 11
0.7394625281403098
 21
0.2266383927688516
 72
     1
 10
0.7394625281403103
 20
0.2266383927688516
 11
0.7390893920078009
 21
0.2277578011663822
 72
     1
 10
0.7390893920078004
 20
0.2277578011663825
 11
0.7191266089185034
 21
0.2277578011663825
 72
     1
 10
0.7191266089185029
 20
0.2277578011663825
 11
0.6843316645619254
 21
0.1336342117406798
 72
     1
 10
0.6843316645619267
 20
0.1336342117406795
 11
0.6832122561643957
 21
0.130649122680598
 72
     1
 10
0.6832122561643961
 20
0.1306491226805981
 11
0.6823726998662476
 21
0.1282237378192816
 72
     1
 10
0.6823726998662468
 20
0.1282237378192818
 11
0.6817197116343549
 21
0.1260782050573481
 72
     1
 10
0.6817197116343552
 20
0.1260782050573481
 11
0.6811600074355896
 21
0.1241192403616695
 72
     1
 10
0.6811600074355884
 20
0.1241192403616695
 11
0.6808801553362055
 21
0.1250520806929446
 72
     1
 10
0.6808801553362059
 20
0.1250520806929445
 11
0.6805070192036949
 21
0.1261714890904751
 72
     1
 10
0.680507019203696
 20
0.1261714890904752
 11
0.6802271671043131
 21
0.1272908974880058
 72
     1
 10
0.680227167104313
 20
0.1272908974880061
 11
0.6798540309718037
 21
0.1286901579849195
 72
     1
 10
0.6798540309718031
 20
0.1286901579849194
 11
0.6794808948392922
 21
0.12980956638245
 72
     1
 10
0.6794808948392932
 20
0.1298095663824503
 11
0.6784547704748904
 21
0.1328879394756595
 72
     1
 10
0.67845477047489
 20
0.1328879394756595
 11
0.6769622259448497
 21
0.1378319932314196
 72
     1
 10
0.6769622259448496
 20
0.1378319932314196
 11
0.6750032612491701
 21
0.1441753074840938
 72
     1
 10
0.6750032612491697
 20
0.1441753074840937
 11
0.6725778763878547
 21
0.1516380301342981
 72
     1
 10
0.6725778763878556
 20
0.1516380301342981
 11
0.6699659234602841
 21
0.160033593115778
 72
     1
 10
0.6699659234602829
 20
0.160033593115778
 11
0.6671674024664549
 21
0.168988860296023
 72
     1
 10
0.6671674024664554
 20
0.168988860296023
 11
0.6642755974395012
 21
0.1782239795756509
 72
     1
 10
0.6642755974395019
 20
0.178223979575651
 11
0.6613837924125477
 21
0.1874590988552789
 72
     1
 10
0.6613837924125466
 20
0.1874590988552789
 11
0.6585852714187205
 21
0.1964143660355239
 72
     1
 10
0.6585852714187204
 20
0.1964143660355237
 11
0.6559733184911489
 21
0.2047166449838762
 72
     1
 10
0.6559733184911494
 20
0.2047166449838765
 11
0.6536412176629606
 21
0.2122726516672082
 72
     1
 10
0.6536412176629614
 20
0.2122726516672082
 11
0.6515889689341538
 21
0.2186159659198823
 72
     1
 10
0.6515889689341537
 20
0.2186159659198821
 11
0.6500964244041133
 21
0.2234667356425149
 72
     1
 10
0.6500964244041132
 20
0.2234667356425151
 11
0.6490703000397104
 21
0.2266383927688516
 72
     1
 10
0.6490703000397105
 20
0.2266383927688516
 11
0.6487904479403276
 21
0.2277578011663822
 72
     1
 10
0.648790447940328
 20
0.2277578011663825
 11
0.6237903270621445
 21
0.2277578011663825
 72
     1
 10
0.6237903270621437
 20
0.2277578011663825
 11
0.6676338226320932
 21
0.0926825211976832
 72
     1
 10
0.6676338226320926
 20
0.0926825211976832
 11
0.6922608073777669
 21
0.0926825211976832
 72
     1
 10
0.6922608073777666
 20
0.0926825211976832
 11
0.726029627369941
 21
0.1855001341596003
 72
     1
 10
0.7260296273699423
 20
0.1855001341596003
 11
0.7269624677012189
 21
0.1882986551534267
 72
     1
 10
0.7269624677012177
 20
0.1882986551534266
 11
0.7278020239993661
 21
0.1906307559816158
 72
     1
 10
0.727802023999367
 20
0.1906307559816159
 11
0.7284550122312589
 21
0.1927762887435496
 72
     1
 10
0.7284550122312581
 20
0.1927762887435495
 11
0.7290147164300237
 21
0.1947352534392281
 72
     1
 10
0.7290147164300232
 20
0.1947352534392282
 11
0.7298542727281716
 21
0.192216584544784
 72
     1
 10
0.729854272728173
 20
0.1922165845447839
 11
0.7306938290263214
 21
0.1894180635509575
 72
     1
 10
0.7306938290263206
 20
0.1894180635509575
 11
0.7318132374238499
 21
0.1863396904577483
 72
     1
 10
0.7318132374238511
 20
0.1863396904577481
 11
0.7331192138876387
 21
0.1827016131657736
 72
     1
 10
0.7331192138876382
 20
0.1827016131657737
 11
0.7654887733828987
 21
0.0926825211976834
 72
     1
 10
0.7654887733828986
 20
0.0926825211976832
 11
0.7895560539298075
 21
0.0926825211976832
 72
     1
 10
0.7895560539298075
 20
0.0926825211976832
 11
0.8341458217647785
 21
0.2277578011663825
 72
     1
 10
0.8341458217647783
 20
0.2277578011663825
 11
0.830601028505932
 21
0.2277578011663825
 72
     1
 10
0.8306010285059324
 20
0.2277578011663825
 11
0.8092389849197216
 21
0.2277578011663825
 97
        0
 75
     0
 76
     1
 98
        1
 10
-0.3743130907707726
 20
-0.2500502867693841
1001
ACAD
1010
0.0
1020
0.0
1030
0.0
  0
ENDBLK
  5
1B61A
330
1B60D
100
AcDbEntity
  8
0
 48
0.25
100
AcDbBlockEnd
  0
ENDSEC
  0
SECTION
  2
ENTITIES
  0
LWPOLYLINE
  5
562A
330
1F
100
AcDbEntity
  8
FORMAT
100
AcDbPolyline
 90
        3
 70
     0
 43
0.0
 10
100.9541796741391
 20
0.3750000666980213
 10
0.3749998174637312
 20
0.3750000666980213
 10
0.3749998174637312
 20
64.30719580069435
  0
LWPOLYLINE
  5
1A8B8
330
1F
100
AcDbEntity
  8
0
100
AcDbPolyline
 90
        4
 70
     1
 43
0.0
 10
7.695836016931359
 20
38.43959157168004
 10
7.945836016931302
 20
38.43959157168004
 10
7.945836016931302
 20
33.43959247167987
 10
7.695836016931359
 20
33.43959247167987
  0
LWPOLYLINE
  5
1A8B9
330
1F
100
AcDbEntity
  8
0
100
AcDbPolyline
 90
        4
 70
     1
 43
0.0
 10
22.44583301693205
 20
27.68959367167963
 10
22.69583301693193
 20
27.68959367167963
 10
22.69583301693193
 20
38.43959157168004
 10
22.44583301693205
 20
38.43959157168004
  0
LWPOLYLINE
  5
1A8BA
330
1F
100
AcDbEntity
  8
0
100
AcDbPolyline
 90
        4
 70
     1
 43
0.0
 10
36.94583031693247
 20
38.43959157168007
 10
36.69583031693252
 20
38.43959157168007
 10
36.69583031693252
 20
27.68959367167963
 10
36.94583031693247
 20
27.68959367167963
  0
LWPOLYLINE
  5
1A8BB
330
1F
100
AcDbEntity
  8
0
100
AcDbPolyline
 90
        4
 70
     1
 43
0.0
 10
11.38333526693156
 20
38.18959157168007
 10
11.63333526693144
 20
38.18959157168007
 10
11.63333526693144
 20
33.68959247167988
 10
11.38333526693156
 20
33.68959247167988
  0
LWPOLYLINE
  5
1A8BC
330
1F
100
AcDbEntity
  8
0
100
AcDbPolyline
 90
        4
 70
     1
 43
0.0
 10
15.0708345169317
 20
38.18959157168007
 10
15.32083451693164
 20
38.18959157168007
 10
15.32083451693164
 20
33.68959247167988
 10
15.0708345169317
 20
33.68959247167988
  0
LWPOLYLINE
  5
1A8BD
330
1F
100
AcDbEntity
  8
0
100
AcDbPolyline
 90
        4
 70
     1
 43
0.0
 10
18.75833376693185
 20
38.18959157168007
 10
19.00833376693179
 20
38.18959157168007
 10
19.00833376693179
 20
33.68959247167988
 10
18.75833376693185
 20
33.68959247167988
  0
LWPOLYLINE
  5
1A8BE
330
1F
100
AcDbEntity
  8
0
100
AcDbPolyline
 90
        4
 70
     1
 43
0.0
 10
22.44583301693205
 20
38.43959157168004
 10
7.945836016931302
 20
38.43959157168004
 10
7.945836016931302
 20
38.18959157168007
 10
22.44583301693205
 20
38.18959157168007
  0
LWPOLYLINE
  5
1A8BF
330
1F
100
AcDbEntity
  8
0
100
AcDbPolyline
 90
        4
 70
     1
 43
0.0
 10
7.945836016931302
 20
33.68959247167988
 10
22.44583301693205
 20
33.68959247167988
 10
22.44583301693205
 20
33.43959247167987
 10
7.945836016931302
 20
33.43959247167987
  0
LINE
  5
1A8C0
330
1F
100
AcDbEntity
  8
TEXT
100
AcDbLine
 10
7.260777977612058
 20
35.81459202167997
 30
0.0
 11
8.436745403865295
 21
35.81459202167997
 31
0.0
  0
CIRCLE
  5
1A8C1
330
1F
100
AcDbEntity
  8
TEXT
100
AcDbCircle
 10
6.716639777229481
 20
35.81459202167997
 30
0.0
 40
0.5441382003825708
  0
TEXT
  5
1A8C2
330
1F
100
AcDbEntity
  8
TEXT
100
AcDbText
 10
6.436939913655129
 20
35.63459202167997
 30
0.0
 40
0.36
  1
12
 72
     1
 11
6.716639777229481
 21
35.81459202167997
 31
0.0
100
AcDbText
 73
     2
  0
LINE
  5
1A8C3
330
1F
100
AcDbEntity
  8
TEXT
100
AcDbLine
 10
10.94827722761226
 20
35.81459202167997
 30
0.0
 11
12.12424465386549
 21
35.81459202167997
 31
0.0
  0
CIRCLE
  5
1A8C4
330
1F
100
AcDbEntity
  8
TEXT
100
AcDbCircle
 10
10.40413902722968
 20
35.81459202167997
 30
0.0
 40
0.5441382003825708
  0
TEXT
  5
1A8C5
330
1F
100
AcDbEntity
  8
TEXT
100
AcDbText
 10
10.12443916365533
 20
35.63459202167997
 30
0.0
 40
0.36
  1
13
 72
     1
 11
10.40413902722968
 21
35.81459202167997
 31
0.0
100
AcDbText
 73
     2
  0
LINE
  5
1A8C6
330
1F
100
AcDbEntity
  8
TEXT
100
AcDbLine
 10
14.63577647761234
 20
35.81459202167997
 30
0.0
 11
15.81174390386558
 21
35.81459202167997
 31
0.0
  0
CIRCLE
  5
1A8C7
330
1F
100
AcDbEntity
  8
TEXT
100
AcDbCircle
 10
14.09163827722977
 20
35.81459202167997
 30
0.0
 40
0.5441382003825708
  0
TEXT
  5
1A8C8
330
1F
100
AcDbEntity
  8
TEXT
100
AcDbText
 10
13.81193841365542
 20
35.63459202167997
 30
0.0
 40
0.36
  1
13
 72
     1
 11
14.09163827722977
 21
35.81459202167997
 31
0.0
100
AcDbText
 73
     2
  0
LINE
  5
1A8C9
330
1F
100
AcDbEntity
  8
TEXT
100
AcDbLine
 10
18.32327572761254
 20
35.81459202167997
 30
0.0
 11
19.49924315386578
 21
35.81459202167997
 31
0.0
  0
CIRCLE
  5
1A8CA
330
1F
100
AcDbEntity
  8
TEXT
100
AcDbCircle
 10
17.77913752722997
 20
35.81459202167997
 30
0.0
 40
0.5441382003825708
  0
TEXT
  5
1A8CB
330
1F
100
AcDbEntity
  8
TEXT
100
AcDbText
 10
17.49943766365562
 20
35.63459202167997
 30
0.0
 40
0.36
  1
13
 72
     1
 11
17.77913752722997
 21
35.81459202167997
 31
0.0
100
AcDbText
 73
     2
  0
LINE
  5
1A8CC
330
1F
100
AcDbEntity
  8
TEXT
100
AcDbLine
 10
22.01077497761275
 20
35.81459202167997
 30
0.0
 11
23.18674240386599
 21
35.81459202167997
 31
0.0
  0
CIRCLE
  5
1A8CD
330
1F
100
AcDbEntity
  8
TEXT
100
AcDbCircle
 10
21.46663677723017
 20
35.81459202167997
 30
0.0
 40
0.5441382003825708
  0
TEXT
  5
1A8CE
330
1F
100
AcDbEntity
  8
TEXT
100
AcDbText
 10
21.18693691365582
 20
35.63459202167997
 30
0.0
 40
0.36
  1
14
 72
     1
 11
21.46663677723017
 21
35.81459202167997
 31
0.0
100
AcDbText
 73
     2
  0
LINE
  5
1A8CF
330
1F
100
AcDbEntity
  8
TEXT
100
AcDbLine
 10
36.0779894844087
 20
34.29617897731839
 30
0.0
 11
37.25395691066193
 21
34.29617897731839
 31
0.0
  0
CIRCLE
  5
1A8D0
330
1F
100
AcDbEntity
  8
TEXT
100
AcDbCircle
 10
37.79809511104451
 20
34.29617897731839
 30
0.0
 40
0.5441382003825708
  0
TEXT
  5
1A8D1
330
1F
100
AcDbEntity
  8
TEXT
100
AcDbText
 10
37.51839524747016
 20
34.11617897731839
 30
0.0
 40
0.36
  1
12
 72
     1
 11
37.79809511104451
 21
34.29617897731839
 31
0.0
100
AcDbText
 73
     2
  0
TEXT
  5
1A8D2
330
1F
100
AcDbEntity
  8
TEXT
100
AcDbText
 10
37.19719470176757
 20
33.28536956212367
 30
0.0
 40
0.36
  1
OPP.
 72
     1
 11
37.79809511104451
 21
33.46536956212367
 31
0.0
100
AcDbText
 73
     2
  0
LWPOLYLINE
  5
1A8D3
330
1F
100
AcDbEntity
  8
0
100
AcDbPolyline
 90
        4
 70
     1
 43
0.0
 10
27.19583211693219
 20
38.18959157168007
 10
27.44583211693213
 20
38.18959157168007
 10
27.44583211693213
 20
27.93959367167963
 10
27.19583211693213
 20
27.93959367167963
  0
LINE
  5
1A8D4
330
1F
100
AcDbEntity
  8
TEXT
100
AcDbLine
 10
27.85526822782511
 20
34.29617897731839
 30
0.0
 11
26.67930080157188
 21
34.29617897731839
 31
0.0
  0
CIRCLE
  5
1A8D5
330
1F
100
AcDbEntity
  8
TEXT
100
AcDbCircle
 10
28.39940642820769
 20
34.29617897731839
 30
0.0
 40
0.5441382003825708
  0
TEXT
  5
1A8D6
330
1F
100
AcDbEntity
  8
TEXT
100
AcDbText
 10
28.08778296299624
 20
34.11617897731839
 30
0.0
 40
0.36
  1
13
 72
     1
 11
28.36748282657059
 21
34.29617897731839
 31
0.0
100
AcDbText
 73
     2
  0
LWPOLYLINE
  5
1A8D7
330
1F
100
AcDbEntity
  8
0
100
AcDbPolyline
 90
        4
 70
     1
 43
0.0
 10
31.94583121693233
 20
38.18959157168007
 10
32.19583121693233
 20
38.18959157168007
 10
32.19583121693227
 20
27.93959367167963
 10
31.94583121693233
 20
27.93959367167963
  0
LINE
  5
1A8D8
330
1F
100
AcDbEntity
  8
TEXT
100
AcDbLine
 10
32.60731352921411
 20
34.29617897731839
 30
0.0
 11
31.43134610296087
 21
34.29617897731839
 31
0.0
  0
CIRCLE
  5
1A8D9
330
1F
100
AcDbEntity
  8
TEXT
100
AcDbCircle
 10
33.15145172959668
 20
34.29617897731839
 30
0.0
 40
0.5441382003825708
  0
TEXT
  5
1A8DA
330
1F
100
AcDbEntity
  8
TEXT
100
AcDbText
 10
32.83982826438523
 20
34.11617897731839
 30
0.0
 40
0.36
  1
13
 72
     1
 11
33.11952812795958
 21
34.29617897731839
 31
0.0
100
AcDbText
 73
     2
  0
LINE
  5
1A8DB
330
1F
100
AcDbEntity
  8
TEXT
100
AcDbLine
 10
29.69583166693217
 20
37.79792655231478
 30
0.0
 11
29.69583166693217
 21
38.97389397856802
 31
0.0
  0
CIRCLE
  5
1A8DC
330
1F
100
AcDbEntity
  8
TEXT
100
AcDbCircle
 10
29.69583166693217
 20
39.51803217895059
 30
0.0
 40
0.5441382003825708
  0
TEXT
  5
1A8DD
330
1F
100
AcDbEntity
  8
TEXT
100
AcDbText
 10
29.555981735145
 20
39.33803217895059
 30
0.0
 40
0.36
  1
1
 72
     1
 11
29.69583166693217
 21
39.51803217895059
 31
0.0
100
AcDbText
 73
     2
  0
LINE
  5
1A8DE
330
1F
100
AcDbEntity
  8
TEXT
100
AcDbLine
 10
29.69583166693223
 20
28.53599426256355
 30
0.0
 11
29.69583166693223
 21
27.36002683631054
 31
0.0
  0
CIRCLE
  5
1A8DF
330
1F
100
AcDbEntity
  8
TEXT
100
AcDbCircle
 10
29.69583166693223
 20
26.81588863592796
 30
0.0
 40
0.5441382003825708
  0
TEXT
  5
1A8E0
330
1F
100
AcDbEntity
  8
TEXT
100
AcDbText
 10
29.41613180335788
 20
26.63588863592796
 30
0.0
 40
0.36
  1
10
 72
     1
 11
29.69583166693223
 21
26.81588863592796
 31
0.0
100
AcDbText
 73
     2
  0
LINE
  5
1A8E1
330
1F
100
AcDbEntity
  8
TEXT
100
AcDbLine
 10
29.69583166693229
 20
31.28599366256367
 30
0.0
 11
29.69583166693229
 21
30.11002623631066
 31
0.0
  0
CIRCLE
  5
1A8E2
330
1F
100
AcDbEntity
  8
TEXT
100
AcDbCircle
 10
29.69583166693229
 20
31.8301318629463
 30
0.0
 40
0.5441382003825708
  0
TEXT
  5
1A8E3
330
1F
100
AcDbEntity
  8
TEXT
100
AcDbText
 10
29.55598173514511
 20
31.6501318629463
 30
0.0
 40
0.36
  1
6
 72
     1
 11
29.69583166693229
 21
31.8301318629463
 31
0.0
100
AcDbText
 73
     2
  0
LINE
  5
1A8E4
330
1F
100
AcDbEntity
  8
TEXT
100
AcDbLine
 10
20.73891413041621
 20
34.28599306256382
 30
0.0
 11
20.73891413041621
 21
33.11002563631081
 31
0.0
  0
CIRCLE
  5
1A8E5
330
1F
100
AcDbEntity
  8
TEXT
100
AcDbCircle
 10
20.73891413041621
 20
32.56588743592824
 30
0.0
 40
0.5441382003825708
  0
TEXT
  5
1A8E6
330
1F
100
AcDbEntity
  8
TEXT
100
AcDbText
 10
20.43097415770134
 20
32.38588743592823
 30
0.0
 40
0.36
  1
5A
 72
     1
 11
20.73891413041621
 21
32.56588743592824
 31
0.0
100
AcDbText
 73
     2
  0
LINE
  5
1A8E7
330
1F
100
AcDbEntity
  8
TEXT
100
AcDbLine
 10
20.76593834483099
 20
37.79792655231484
 30
0.0
 11
20.76593834483099
 21
38.97389397856807
 31
0.0
  0
CIRCLE
  5
1A8E8
330
1F
100
AcDbEntity
  8
TEXT
100
AcDbCircle
 10
20.76593834483099
 20
39.51803217895065
 30
0.0
 40
0.5441382003825708
  0
TEXT
  5
1A8E9
330
1F
100
AcDbEntity
  8
TEXT
100
AcDbText
 10
20.62608841304382
 20
39.33803217895065
 30
0.0
 40
0.36
  1
1
 72
     1
 11
20.76593834483099
 21
39.51803217895065
 31
0.0
100
AcDbText
 73
     2
  0
LINE
  5
1A8EA
330
1F
100
AcDbEntity
  8
TEXT
100
AcDbLine
 10
22.01077497761275
 20
29.4021675797083
 30
0.0
 11
23.18674240386599
 21
29.4021675797083
 31
0.0
  0
CIRCLE
  5
1A8EB
330
1F
100
AcDbEntity
  8
TEXT
100
AcDbCircle
 10
21.46663677723017
 20
29.4021675797083
 30
0.0
 40
0.5441382003825708
  0
TEXT
  5
1A8EC
330
1F
100
AcDbEntity
  8
TEXT
100
AcDbText
 10
21.18693691365582
 20
29.22216757970831
 30
0.0
 40
0.36
  1
12
 72
     1
 11
21.46663677723017
 21
29.4021675797083
 31
0.0
100
AcDbText
 73
     2
  0
LWPOLYLINE
  5
1A8ED
330
1F
100
AcDbEntity
  8
0
100
AcDbPolyline
 90
        4
 70
     1
 43
0.0
 10
22.69583301693193
 20
38.18959157168007
 10
36.69583031693252
 20
38.18959157168007
 10
36.69583031693252
 20
38.43959157168007
 10
22.69583301693193
 20
38.43959157168007
  0
LWPOLYLINE
  5
1A8EE
330
1F
100
AcDbEntity
  8
0
100
AcDbPolyline
 90
        4
 70
     1
 43
0.0
 10
22.69583301693193
 20
27.68959367167963
 10
36.69583031693252
 20
27.68959367167963
 10
36.69583031693252
 20
27.93959367167957
 10
22.69583301693193
 20
27.93959367167957
  0
LWPOLYLINE
  5
1A8EF
330
1F
100
AcDbEntity
  8
0
100
AcDbPolyline
 90
        4
 70
     1
 43
0.0
 10
22.69583301693193
 20
30.93959307167978
 10
27.19583211693213
 20
30.93959307167978
 10
27.19583211693213
 20
30.68959307167975
 10
22.69583301693193
 20
30.68959307167975
  0
LWPOLYLINE
  5
1A8F0
330
1F
100
AcDbEntity
  8
0
100
AcDbPolyline
 90
        4
 70
     1
 43
0.0
 10
27.44583211693207
 20
30.93959307167978
 10
31.94583121693227
 20
30.93959307167978
 10
31.94583121693227
 20
30.68959307167975
 10
27.44583211693207
 20
30.68959307167975
  0
LWPOLYLINE
  5
1A8F1
330
1F
100
AcDbEntity
  8
0
100
AcDbPolyline
 90
        4
 70
     1
 43
0.0
 10
32.19583121693233
 20
30.93959307167978
 10
36.69583031693252
 20
30.93959307167978
 10
36.69583031693252
 20
30.68959307167975
 10
32.19583121693233
 20
30.68959307167975
  0
LINE
  5
1A8F2
330
1F
100
AcDbEntity
  8
0
  6
PHANTOM2
 48
4.0
100
AcDbLine
 10
4.726725299860326
 20
27.68959367167963
 30
0.0
 11
98.34231187403791
 21
27.68959367167963
 31
0.0
  0
LWPOLYLINE
  5
1A8F3
330
1F
100
AcDbEntity
  8
0
100
AcDbPolyline
 90
        4
 70
     1
 43
0.0
 10
7.695836016931359
 20
53.73790669327542
 10
7.945836016931302
 20
53.73790669327542
 10
7.945836016931302
 20
42.987908793275
 10
7.695836016931359
 20
42.987908793275
  0
LWPOLYLINE
  5
1A8F4
330
1F
100
AcDbEntity
  8
0
100
AcDbPolyline
 90
        4
 70
     1
 43
0.0
 10
22.44583301693205
 20
42.987908793275
 10
22.69583301693193
 20
42.987908793275
 10
22.69583301693193
 20
53.73790669327542
 10
22.44583301693205
 20
53.73790669327542
  0
LWPOLYLINE
  5
1A8F5
330
1F
100
AcDbEntity
  8
0
100
AcDbPolyline
 90
        4
 70
     1
 43
0.0
 10
36.94583031693247
 20
53.73790669327545
 10
36.69583031693252
 20
53.73790669327545
 10
36.69583031693252
 20
42.987908793275
 10
36.94583031693247
 20
42.987908793275
  0
LWPOLYLINE
  5
1A8F6
330
1F
100
AcDbEntity
  8
0
100
AcDbPolyline
 90
        4
 70
     1
 43
0.0
 10
11.38333526693156
 20
53.48790669327545
 10
11.63333526693144
 20
53.48790669327545
 10
11.63333526693144
 20
43.23790879327501
 10
11.38333526693156
 20
43.23790879327501
  0
LWPOLYLINE
  5
1A8F7
330
1F
100
AcDbEntity
  8
0
100
AcDbPolyline
 90
        4
 70
     1
 43
0.0
 10
15.0708345169317
 20
53.48790669327545
 10
15.32083451693164
 20
53.48790669327545
 10
15.32083451693164
 20
43.23790879327501
 10
15.0708345169317
 20
43.23790879327501
  0
LWPOLYLINE
  5
1A8F8
330
1F
100
AcDbEntity
  8
0
100
AcDbPolyline
 90
        4
 70
     1
 43
0.0
 10
18.75833376693185
 20
53.48790669327545
 10
19.00833376693179
 20
53.48790669327545
 10
19.00833376693179
 20
43.23790879327501
 10
18.75833376693185
 20
43.23790879327501
  0
LWPOLYLINE
  5
1A8F9
330
1F
100
AcDbEntity
  8
0
100
AcDbPolyline
 90
        4
 70
     1
 43
0.0
 10
22.44583301693205
 20
53.73790669327542
 10
7.945836016931302
 20
53.73790669327542
 10
7.945836016931302
 20
53.48790669327545
 10
22.44583301693205
 20
53.48790669327545
  0
LWPOLYLINE
  5
1A8FA
330
1F
100
AcDbEntity
  8
0
100
AcDbPolyline
 90
        4
 70
     1
 43
0.0
 10
7.945836016931302
 20
43.23790879327501
 10
22.44583301693205
 20
43.23790879327501
 10
22.44583301693205
 20
42.987908793275
 10
7.945836016931302
 20
42.987908793275
  0
LINE
  5
1A8FB
330
1F
100
AcDbEntity
  8
TEXT
100
AcDbLine
 10
7.223383041352001
 20
48.36290774327522
 30
0.0
 11
8.399350467605238
 21
48.36290774327522
 31
0.0
  0
CIRCLE
  5
1A8FC
330
1F
100
AcDbEntity
  8
TEXT
100
AcDbCircle
 10
6.679244840969424
 20
48.36290774327522
 30
0.0
 40
0.5441382003825708
  0
TEXT
  5
1A8FD
330
1F
100
AcDbEntity
  8
TEXT
100
AcDbText
 10
6.399544977395072
 20
48.18290774327523
 30
0.0
 40
0.36
  1
12
 72
     1
 11
6.679244840969424
 21
48.36290774327522
 31
0.0
100
AcDbText
 73
     2
  0
LINE
  5
1A8FE
330
1F
100
AcDbEntity
  8
TEXT
100
AcDbLine
 10
10.94827722761226
 20
48.36290774327522
 30
0.0
 11
12.12424465386549
 21
48.36290774327522
 31
0.0
  0
CIRCLE
  5
1A8FF
330
1F
100
AcDbEntity
  8
TEXT
100
AcDbCircle
 10
10.40413902722968
 20
48.36290774327522
 30
0.0
 40
0.5441382003825708
  0
TEXT
  5
1A900
330
1F
100
AcDbEntity
  8
TEXT
100
AcDbText
 10
10.12443916365533
 20
48.18290774327523
 30
0.0
 40
0.36
  1
13
 72
     1
 11
10.40413902722968
 21
48.36290774327522
 31
0.0
100
AcDbText
 73
     2
  0
TEXT
  5
1A901
330
1F
100
AcDbEntity
  8
TEXT
100
AcDbText
 10
37.3247382234194
 20
48.75343653825456
 30
0.0
 40
0.36
  1
OPP.
 72
     1
 11
37.92563863269634
 21
48.93343653825457
 31
0.0
100
AcDbText
 73
     2
  0
LWPOLYLINE
  5
1A902
330
1F
100
AcDbEntity
  8
0
100
AcDbPolyline
 90
        4
 70
     1
 43
0.0
 10
27.19583211693219
 20
53.48790669327545
 10
27.44583211693213
 20
53.48790669327545
 10
27.44583211693213
 20
43.23790879327501
 10
27.19583211693213
 20
43.23790879327501
  0
LWPOLYLINE
  5
1A903
330
1F
100
AcDbEntity
  8
0
100
AcDbPolyline
 90
        4
 70
     1
 43
0.0
 10
31.94583121693233
 20
53.48790669327545
 10
32.19583121693233
 20
53.48790669327545
 10
32.19583121693227
 20
43.23790879327501
 10
31.94583121693233
 20
43.23790879327501
  0
LINE
  5
1A904
330
1F
100
AcDbEntity
  8
TEXT
100
AcDbLine
 10
20.64311341178364
 20
52.97288504935043
 30
0.0
 11
20.64311341178364
 21
54.14885247560366
 31
0.0
  0
CIRCLE
  5
1A905
330
1F
100
AcDbEntity
  8
TEXT
100
AcDbCircle
 10
20.64311341178364
 20
54.69299067598623
 30
0.0
 40
0.5441382003825708
  0
TEXT
  5
1A906
330
1F
100
AcDbEntity
  8
TEXT
100
AcDbText
 10
20.50326347999646
 20
54.51299067598624
 30
0.0
 40
0.36
  1
1
 72
     1
 11
20.64311341178364
 21
54.69299067598623
 31
0.0
100
AcDbText
 73
     2
  0
LWPOLYLINE
  5
1A907
330
1F
100
AcDbEntity
  8
0
100
AcDbPolyline
 90
        4
 70
     1
 43
0.0
 10
22.69583301693193
 20
53.48790669327545
 10
36.69583031693252
 20
53.48790669327545
 10
36.69583031693252
 20
53.73790669327545
 10
22.69583301693193
 20
53.73790669327545
  0
LWPOLYLINE
  5
1A908
330
1F
100
AcDbEntity
  8
0
100
AcDbPolyline
 90
        4
 70
     1
 43
0.0
 10
22.69583301693193
 20
42.987908793275
 10
36.69583031693252
 20
42.987908793275
 10
36.69583031693252
 20
43.23790879327498
 10
22.69583301693193
 20
43.23790879327498
  0
LWPOLYLINE
  5
1A909
330
1F
100
AcDbEntity
  8
0
100
AcDbPolyline
 90
        4
 70
     1
 43
0.0
 10
22.69583301693193
 20
46.23790819327516
 10
27.19583211693213
 20
46.23790819327516
 10
27.19583211693213
 20
45.98790819327513
 10
22.69583301693193
 20
45.98790819327513
  0
LWPOLYLINE
  5
1A90A
330
1F
100
AcDbEntity
  8
0
100
AcDbPolyline
 90
        4
 70
     1
 43
0.0
 10
27.44583211693207
 20
46.23790819327516
 10
31.94583121693227
 20
46.23790819327516
 10
31.94583121693227
 20
45.98790819327513
 10
27.44583211693207
 20
45.98790819327513
  0
LWPOLYLINE
  5
1A90B
330
1F
100
AcDbEntity
  8
0
100
AcDbPolyline
 90
        4
 70
     1
 43
0.0
 10
32.19583121693233
 20
46.23790819327516
 10
36.69583031693252
 20
46.23790819327516
 10
36.69583031693252
 20
45.98790819327513
 10
32.19583121693233
 20
45.98790819327513
  0
LINE
  5
1A90C
330
1F
100
AcDbEntity
  8
0
  6
PHANTOM2
 48
4.0
100
AcDbLine
 10
4.726725299860326
 20
42.987908793275
 30
0.0
 11
98.34231187403791
 21
42.987908793275
 31
0.0
  0
LWPOLYLINE
  5
1A90D
330
1F
100
AcDbEntity
  8
0
100
AcDbPolyline
 90
        4
 70
     1
 43
0.0
 10
44.22227904338336
 20
53.73790669327542
 10
44.4722790433833
 20
53.73790669327542
 10
44.4722790433833
 20
48.73790759327525
 10
44.22227904338336
 20
48.73790759327525
  0
LWPOLYLINE
  5
1A90E
330
1F
100
AcDbEntity
  8
0
100
AcDbPolyline
 90
        4
 70
     1
 43
0.0
 10
58.97227604338403
 20
42.987908793275
 10
59.22227604338392
 20
42.987908793275
 10
59.22227604338392
 20
53.73790669327542
 10
58.97227604338403
 20
53.73790669327542
  0
LWPOLYLINE
  5
1A90F
330
1F
100
AcDbEntity
  8
0
100
AcDbPolyline
 90
        4
 70
     1
 43
0.0
 10
73.47227334338445
 20
53.73790669327545
 10
73.2222733433845
 20
53.73790669327545
 10
73.2222733433845
 20
42.987908793275
 10
73.47227334338445
 20
42.987908793275
  0
LWPOLYLINE
  5
1A910
330
1F
100
AcDbEntity
  8
0
100
AcDbPolyline
 90
        4
 70
     1
 43
0.0
 10
47.9097782933835
 20
53.48790669327545
 10
48.15977829338351
 20
53.48790669327545
 10
48.15977829338351
 20
48.98790759327525
 10
47.9097782933835
 20
48.98790759327525
  0
LWPOLYLINE
  5
1A911
330
1F
100
AcDbEntity
  8
0
100
AcDbPolyline
 90
        4
 70
     1
 43
0.0
 10
51.59727754338369
 20
53.48790669327545
 10
51.84727754338363
 20
53.48790669327545
 10
51.84727754338363
 20
48.98790759327525
 10
51.59727754338369
 20
48.98790759327525
  0
LWPOLYLINE
  5
1A912
330
1F
100
AcDbEntity
  8
0
100
AcDbPolyline
 90
        4
 70
     1
 43
0.0
 10
55.28477679338383
 20
53.48790669327545
 10
55.53477679338377
 20
53.48790669327545
 10
55.53477679338377
 20
48.98790759327525
 10
55.28477679338383
 20
48.98790759327525
  0
LWPOLYLINE
  5
1A913
330
1F
100
AcDbEntity
  8
0
100
AcDbPolyline
 90
        4
 70
     1
 43
0.0
 10
58.97227604338403
 20
53.73790669327542
 10
44.4722790433833
 20
53.73790669327542
 10
44.4722790433833
 20
53.48790669327545
 10
58.97227604338403
 20
53.48790669327545
  0
LWPOLYLINE
  5
1A914
330
1F
100
AcDbEntity
  8
0
100
AcDbPolyline
 90
        4
 70
     1
 43
0.0
 10
44.4722790433833
 20
48.98790759327525
 10
58.97227604338403
 20
48.98790759327525
 10
58.97227604338403
 20
48.73790759327525
 10
44.4722790433833
 20
48.73790759327525
  0
LINE
  5
1A915
330
1F
100
AcDbEntity
  8
TEXT
100
AcDbLine
 10
43.78722100406405
 20
51.11290714327535
 30
0.0
 11
44.96318843031729
 21
51.11290714327535
 31
0.0
  0
CIRCLE
  5
1A916
330
1F
100
AcDbEntity
  8
TEXT
100
AcDbCircle
 10
43.24308280368148
 20
51.11290714327535
 30
0.0
 40
0.5441382003825708
  0
TEXT
  5
1A917
330
1F
100
AcDbEntity
  8
TEXT
100
AcDbText
 10
42.96338294010713
 20
50.93290714327535
 30
0.0
 40
0.36
  1
12
 72
     1
 11
43.24308280368148
 21
51.11290714327535
 31
0.0
100
AcDbText
 73
     2
  0
LINE
  5
1A918
330
1F
100
AcDbEntity
  8
TEXT
100
AcDbLine
 10
47.4747202540642
 20
51.11290714327535
 30
0.0
 11
48.65068768031743
 21
51.11290714327535
 31
0.0
  0
CIRCLE
  5
1A919
330
1F
100
AcDbEntity
  8
TEXT
100
AcDbCircle
 10
46.93058205368163
 20
51.11290714327535
 30
0.0
 40
0.5441382003825708
  0
TEXT
  5
1A91A
330
1F
100
AcDbEntity
  8
TEXT
100
AcDbText
 10
46.65088219010727
 20
50.93290714327535
 30
0.0
 40
0.36
  1
13
 72
     1
 11
46.93058205368163
 21
51.11290714327535
 31
0.0
100
AcDbText
 73
     2
  0
LINE
  5
1A91B
330
1F
100
AcDbEntity
  8
TEXT
100
AcDbLine
 10
51.16221950406439
 20
51.11290714327535
 30
0.0
 11
52.33818693031762
 21
51.11290714327535
 31
0.0
  0
CIRCLE
  5
1A91C
330
1F
100
AcDbEntity
  8
TEXT
100
AcDbCircle
 10
50.61808130368181
 20
51.11290714327535
 30
0.0
 40
0.5441382003825708
  0
TEXT
  5
1A91D
330
1F
100
AcDbEntity
  8
TEXT
100
AcDbText
 10
50.33838144010746
 20
50.93290714327535
 30
0.0
 40
0.36
  1
13
 72
     1
 11
50.61808130368181
 21
51.11290714327535
 31
0.0
100
AcDbText
 73
     2
  0
LINE
  5
1A91E
330
1F
100
AcDbEntity
  8
TEXT
100
AcDbLine
 10
54.84971875406452
 20
51.11290714327535
 30
0.0
 11
56.02568618031776
 21
51.11290714327535
 31
0.0
  0
CIRCLE
  5
1A91F
330
1F
100
AcDbEntity
  8
TEXT
100
AcDbCircle
 10
54.30558055368194
 20
51.11290714327535
 30
0.0
 40
0.5441382003825708
  0
TEXT
  5
1A920
330
1F
100
AcDbEntity
  8
TEXT
100
AcDbText
 10
54.0258806901076
 20
50.93290714327535
 30
0.0
 40
0.36
  1
13
 72
     1
 11
54.30558055368194
 21
51.11290714327535
 31
0.0
100
AcDbText
 73
     2
  0
LINE
  5
1A921
330
1F
100
AcDbEntity
  8
TEXT
100
AcDbLine
 10
58.53721800406472
 20
51.11290714327535
 30
0.0
 11
59.71318543031796
 21
51.11290714327535
 31
0.0
  0
CIRCLE
  5
1A922
330
1F
100
AcDbEntity
  8
TEXT
100
AcDbCircle
 10
57.99307980368215
 20
51.11290714327535
 30
0.0
 40
0.5441382003825708
  0
TEXT
  5
1A923
330
1F
100
AcDbEntity
  8
TEXT
100
AcDbText
 10
57.7133799401078
 20
50.93290714327535
 30
0.0
 40
0.36
  1
16
 72
     1
 11
57.99307980368215
 21
51.11290714327535
 31
0.0
100
AcDbText
 73
     2
  0
LINE
  5
1A924
330
1F
100
AcDbEntity
  8
TEXT
100
AcDbLine
 10
72.60443251086062
 20
49.96642717969473
 30
0.0
 11
73.78039993711386
 21
49.96642717969473
 31
0.0
  0
CIRCLE
  5
1A925
330
1F
100
AcDbEntity
  8
TEXT
100
AcDbCircle
 10
74.32453813749643
 20
49.96642717969473
 30
0.0
 40
0.5441382003825708
  0
TEXT
  5
1A926
330
1F
100
AcDbEntity
  8
TEXT
100
AcDbText
 10
74.04483827392208
 20
49.78642717969473
 30
0.0
 40
0.36
  1
12
 72
     1
 11
74.32453813749643
 21
49.96642717969473
 31
0.0
100
AcDbText
 73
     2
  0
TEXT
  5
1A927
330
1F
100
AcDbEntity
  8
TEXT
100
AcDbText
 10
73.72363772821948
 20
48.95561776450001
 30
0.0
 40
0.36
  1
OPP.
 72
     1
 11
74.32453813749643
 21
49.13561776450001
 31
0.0
100
AcDbText
 73
     2
  0
LWPOLYLINE
  5
1A928
330
1F
100
AcDbEntity
  8
0
100
AcDbPolyline
 90
        4
 70
     1
 43
0.0
 10
63.72227514338416
 20
53.73790669327545
 10
63.9722751433841
 20
53.73790669327545
 10
63.97227514338405
 20
42.987908793275
 10
63.72227514338416
 20
42.987908793275
  0
LINE
  5
1A929
330
1F
100
AcDbEntity
  8
TEXT
100
AcDbLine
 10
63.03721710406486
 20
49.96642717969473
 30
0.0
 11
64.2131845303181
 21
49.96642717969473
 31
0.0
  0
CIRCLE
  5
1A92A
330
1F
100
AcDbEntity
  8
TEXT
100
AcDbCircle
 10
64.75732273070068
 20
49.96642717969473
 30
0.0
 40
0.5441382003825708
  0
TEXT
  5
1A92B
330
1F
100
AcDbEntity
  8
TEXT
100
AcDbText
 10
64.47762286712633
 20
49.78642717969473
 30
0.0
 40
0.36
  1
17
 72
     1
 11
64.75732273070068
 21
49.96642717969473
 31
0.0
100
AcDbText
 73
     2
  0
LWPOLYLINE
  5
1A92C
330
1F
100
AcDbEntity
  8
0
100
AcDbPolyline
 90
        4
 70
     1
 43
0.0
 10
68.47227424338436
 20
53.48790669327545
 10
68.72227424338425
 20
53.48790669327545
 10
68.72227424338425
 20
43.23790879327501
 10
68.47227424338431
 20
43.23790879327501
  0
LINE
  5
1A92D
330
1F
100
AcDbEntity
  8
TEXT
100
AcDbLine
 10
67.78721620406506
 20
49.96642717969473
 30
0.0
 11
68.9631836303183
 21
49.96642717969473
 31
0.0
  0
CIRCLE
  5
1A92E
330
1F
100
AcDbEntity
  8
TEXT
100
AcDbCircle
 10
69.50732183070087
 20
49.96642717969473
 30
0.0
 40
0.5441382003825708
  0
TEXT
  5
1A92F
330
1F
100
AcDbEntity
  8
TEXT
100
AcDbText
 10
69.22762196712652
 20
49.78642717969473
 30
0.0
 40
0.36
  1
13
 72
     1
 11
69.50732183070087
 21
49.96642717969473
 31
0.0
100
AcDbText
 73
     2
  0
LINE
  5
1A930
330
1F
100
AcDbEntity
  8
TEXT
100
AcDbLine
 10
70.94170294497954
 20
52.97288504935039
 30
0.0
 11
70.94170294497954
 21
54.14885247560363
 31
0.0
  0
CIRCLE
  5
1A931
330
1F
100
AcDbEntity
  8
TEXT
100
AcDbCircle
 10
70.94170294497954
 20
54.69299067598621
 30
0.0
 40
0.5441382003825708
  0
TEXT
  5
1A932
330
1F
100
AcDbEntity
  8
TEXT
100
AcDbText
 10
70.80185301319236
 20
54.51299067598621
 30
0.0
 40
0.36
  1
1
 72
     1
 11
70.94170294497954
 21
54.69299067598621
 31
0.0
100
AcDbText
 73
     2
  0
LINE
  5
1A933
330
1F
100
AcDbEntity
  8
TEXT
100
AcDbLine
 10
70.9417029449796
 20
43.83430938415893
 30
0.0
 11
70.9417029449796
 21
42.65834195790591
 31
0.0
  0
CIRCLE
  5
1A934
330
1F
100
AcDbEntity
  8
TEXT
100
AcDbCircle
 10
70.9417029449796
 20
42.11420375752334
 30
0.0
 40
0.5441382003825708
  0
TEXT
  5
1A935
330
1F
100
AcDbEntity
  8
TEXT
100
AcDbText
 10
70.66200308140524
 20
41.93420375752334
 30
0.0
 40
0.36
  1
10
 72
     1
 11
70.9417029449796
 21
42.11420375752334
 31
0.0
100
AcDbText
 73
     2
  0
LINE
  5
1A936
330
1F
100
AcDbEntity
  8
TEXT
100
AcDbLine
 10
57.18090218511142
 20
49.58430818415919
 30
0.0
 11
57.18090218511142
 21
48.40834075790619
 31
0.0
  0
CIRCLE
  5
1A937
330
1F
100
AcDbEntity
  8
TEXT
100
AcDbCircle
 10
57.18090218511142
 20
47.86420255752361
 30
0.0
 40
0.5441382003825708
  0
LINE
  5
1A938
330
1F
100
AcDbEntity
  8
TEXT
100
AcDbLine
 10
57.20792639952614
 20
52.97288504935043
 30
0.0
 11
57.20792639952614
 21
54.14885247560366
 31
0.0
  0
CIRCLE
  5
1A939
330
1F
100
AcDbEntity
  8
TEXT
100
AcDbCircle
 10
57.20792639952614
 20
54.69299067598623
 30
0.0
 40
0.5441382003825708
  0
TEXT
  5
1A93A
330
1F
100
AcDbEntity
  8
TEXT
100
AcDbText
 10
57.06807646773897
 20
54.51299067598624
 30
0.0
 40
0.36
  1
1
 72
     1
 11
57.20792639952614
 21
54.69299067598623
 31
0.0
100
AcDbText
 73
     2
  0
LINE
  5
1A93B
330
1F
100
AcDbEntity
  8
TEXT
100
AcDbLine
 10
58.53721800406472
 20
45.8493676575348
 30
0.0
 11
59.71318543031796
 21
45.8493676575348
 31
0.0
  0
CIRCLE
  5
1A93C
330
1F
100
AcDbEntity
  8
TEXT
100
AcDbCircle
 10
57.99307980368215
 20
45.8493676575348
 30
0.0
 40
0.5441382003825708
  0
TEXT
  5
1A93D
330
1F
100
AcDbEntity
  8
TEXT
100
AcDbText
 10
57.7133799401078
 20
45.6693676575348
 30
0.0
 40
0.36
  1
15
 72
     1
 11
57.99307980368215
 21
45.8493676575348
 31
0.0
100
AcDbText
 73
     2
  0
LWPOLYLINE
  5
1A93E
330
1F
100
AcDbEntity
  8
0
100
AcDbPolyline
 90
        4
 70
     1
 43
0.0
 10
63.9722751433841
 20
53.48790669327541
 10
73.2222733433845
 20
53.48790669327545
 10
73.2222733433845
 20
53.73790669327545
 10
63.9722751433841
 20
53.73790669327545
  0
LWPOLYLINE
  5
1A93F
330
1F
100
AcDbEntity
  8
0
100
AcDbPolyline
 90
        4
 70
     1
 43
0.0
 10
63.97227514338405
 20
42.987908793275
 10
73.2222733433845
 20
42.987908793275
 10
73.2222733433845
 20
43.23790879327498
 10
63.97227514338405
 20
43.23790879327495
  0
TEXT
  5
1A940
330
1F
100
AcDbEntity
  8
TEXT
100
AcDbText
 10
68.90642142142393
 20
48.95561776450001
 30
0.0
 40
0.36
  1
OPP.
 72
     1
 11
69.50732183070087
 21
49.13561776450001
 31
0.0
100
AcDbText
 73
     2
  0
LWPOLYLINE
  5
1A941
330
1F
100
AcDbEntity
  8
0
100
AcDbPolyline
 90
        4
 70
     1
 43
0.0
 10
59.22227604338392
 20
53.73790669327545
 10
63.72227514338416
 20
53.73790669327545
 10
63.72227514338416
 20
53.48790669327545
 10
59.22227604338392
 20
53.48790669327545
  0
LWPOLYLINE
  5
1A942
330
1F
100
AcDbEntity
  8
0
  6
DASHED
 48
2.0
100
AcDbPolyline
 90
        3
 70
     0
 43
0.0
 10
59.22227604338392
 20
53.48790669327545
 10
63.72227514338416
 20
48.36290774327522
 10
59.22227604338392
 20
42.987908793275
  0
LINE
  5
1A943
330
1F
100
AcDbEntity
  8
TEXT
100
AcDbLine
 10
61.47227559338407
 20
52.97288504935039
 30
0.0
 11
61.47227559338407
 21
54.14885247560363
 31
0.0
  0
CIRCLE
  5
1A944
330
1F
100
AcDbEntity
  8
TEXT
100
AcDbCircle
 10
61.47227559338407
 20
54.69299067598621
 30
0.0
 40
0.5441382003825708
  0
TEXT
  5
1A945
330
1F
100
AcDbEntity
  8
TEXT
100
AcDbText
 10
61.33242566159689
 20
54.51299067598621
 30
0.0
 40
0.36
  1
2
 72
     1
 11
61.47227559338407
 21
54.69299067598621
 31
0.0
100
AcDbText
 73
     2
  0
LWPOLYLINE
  5
1A946
330
1F
100
AcDbEntity
  8
0
100
AcDbPolyline
 90
        4
 70
     1
 43
0.0
 10
21.76987892458492
 20
20.20625223238403
 10
26.26987802458512
 20
20.20625223238403
 10
26.26987802458512
 20
19.956252232384
 10
21.76987892458492
 20
19.956252232384
  0
LWPOLYLINE
  5
1A947
330
1F
100
AcDbEntity
  8
0
100
AcDbPolyline
 90
        4
 70
     1
 43
0.0
 10
21.76987892458492
 20
22.20625433238359
 10
26.26987802458512
 20
22.20625433238359
 10
26.26987802458512
 20
21.95625433238356
 10
21.76987892458492
 20
21.95625433238356
  0
LINE
  5
1A948
330
1F
100
AcDbEntity
  8
TEXT
100
AcDbLine
 10
24.01987847458502
 20
21.3013369119181
 30
0.0
 11
24.01987847458502
 21
22.47730433817133
 31
0.0
  0
CIRCLE
  5
1A949
330
1F
100
AcDbEntity
  8
TEXT
100
AcDbCircle
 10
24.01987847458502
 20
23.02144253855392
 30
0.0
 40
0.5441382003825708
  0
TEXT
  5
1A94A
330
1F
100
AcDbEntity
  8
TEXT
100
AcDbText
 10
23.88002854279784
 20
22.84144253855391
 30
0.0
 40
0.36
  1
1
 72
     1
 11
24.01987847458502
 21
23.02144253855392
 31
0.0
100
AcDbText
 73
     2
  0
LWPOLYLINE
  5
1A94B
330
1F
100
AcDbEntity
  8
0
100
AcDbPolyline
 90
        4
 70
     1
 43
0.0
 10
21.76987892458475
 20
22.20625433238359
 10
21.51987892458487
 20
22.20625433238359
 10
21.51987892458487
 20
9.456254332383593
 10
21.76987892458475
 20
9.456254332383593
  0
LWPOLYLINE
  5
1A94C
330
1F
100
AcDbEntity
  8
0
100
AcDbPolyline
 90
        4
 70
     1
 43
0.0
 10
26.26987802458512
 20
22.20625433238359
 10
26.51987802458506
 20
22.20625433238359
 10
26.51987802458506
 20
9.456254332383593
 10
26.26987802458512
 20
9.456254332383593
  0
LWPOLYLINE
  5
1A94D
330
1F
100
AcDbEntity
  8
0
  6
DASHED
 48
2.0
100
AcDbPolyline
 90
        3
 70
     0
 43
0.0
 10
21.76987892458475
 20
19.956252232384
 10
26.26987802458501
 20
14.83125328238381
 10
21.76987892458475
 20
9.456254332383593
  0
LINE
  5
1A94E
330
1F
100
AcDbEntity
  8
TEXT
100
AcDbLine
 10
21.15520109975943
 20
16.19166220994111
 30
0.0
 11
22.33116852601267
 21
16.19166220994111
 31
0.0
  0
CIRCLE
  5
1A94F
330
1F
100
AcDbEntity
  8
TEXT
100
AcDbCircle
 10
20.61106289937685
 20
16.19166220994111
 30
0.0
 40
0.5441382003825708
  0
TEXT
  5
1A950
330
1F
100
AcDbEntity
  8
TEXT
100
AcDbText
 10
20.3313630358025
 20
16.01166220994111
 30
0.0
 40
0.36
  1
15
 72
     1
 11
20.61106289937685
 21
16.19166220994111
 31
0.0
100
AcDbText
 73
     2
  0
LINE
  5
1A951
330
1F
100
AcDbEntity
  8
TEXT
100
AcDbLine
 10
25.64159609597441
 20
16.19166220994111
 30
0.0
 11
26.81756352222765
 21
16.19166220994111
 31
0.0
  0
CIRCLE
  5
1A952
330
1F
100
AcDbEntity
  8
TEXT
100
AcDbCircle
 10
27.36170172261023
 20
16.19166220994111
 30
0.0
 40
0.5441382003825708
  0
TEXT
  5
1A953
330
1F
100
AcDbEntity
  8
TEXT
100
AcDbText
 10
27.08200185903588
 20
16.01166220994111
 30
0.0
 40
0.36
  1
15
 72
     1
 11
27.36170172261023
 21
16.19166220994111
 31
0.0
100
AcDbText
 73
     2
  0
TEXT
  5
1A954
330
1F
100
AcDbEntity
  8
TEXT
100
AcDbText
 10
26.76080131333328
 20
15.18085279474639
 30
0.0
 40
0.36
  1
OPP.
 72
     1
 11
27.36170172261023
 21
15.36085279474639
 31
0.0
100
AcDbText
 73
     2
  0
LINE
  5
1A955
330
1F
100
AcDbEntity
  8
TEXT
100
AcDbLine
 10
21.15520109975943
 20
21.03090079782948
 30
0.0
 11
22.33116852601267
 21
21.03090079782948
 31
0.0
  0
CIRCLE
  5
1A956
330
1F
100
AcDbEntity
  8
TEXT
100
AcDbCircle
 10
20.61106289937685
 20
21.03090079782948
 30
0.0
 40
0.5441382003825708
  0
TEXT
  5
1A957
330
1F
100
AcDbEntity
  8
TEXT
100
AcDbText
 10
20.3313630358025
 20
20.85090079782947
 30
0.0
 40
0.36
  1
20
 72
     1
 11
20.61106289937685
 21
21.03090079782948
 31
0.0
100
AcDbText
 73
     2
  0
LINE
  5
1A958
330
1F
100
AcDbEntity
  8
TEXT
100
AcDbLine
 10
24.01987847458502
 20
19.2917809494383
 30
0.0
 11
24.01987847458502
 21
20.46774837569154
 31
0.0
  0
CIRCLE
  5
1A959
330
1F
100
AcDbEntity
  8
TEXT
100
AcDbCircle
 10
24.01987847458502
 20
18.74764274905573
 30
0.0
 40
0.5441382003825708
  0
TEXT
  5
1A95A
330
1F
100
AcDbEntity
  8
TEXT
100
AcDbText
 10
23.65644054825487
 20
18.56764274905573
 30
0.0
 40
0.36
  1
7-9
 72
     1
 11
24.01987847458502
 21
18.74764274905573
 31
0.0
100
AcDbText
 73
     2
  0
LINE
  5
1A95B
330
1F
100
AcDbEntity
  8
0
  6
PHANTOM2
 48
4.0
100
AcDbLine
 10
4.726725299860326
 20
9.456254332383593
 30
0.0
 11
98.34231187403791
 21
9.456254332383593
 31
0.0
  0
LWPOLYLINE
  5
1A95C
330
1F
100
AcDbEntity
  8
0
100
AcDbPolyline
 90
        4
 70
     1
 43
0.0
 10
41.7735336822971
 20
38.43959157168004
 10
42.02353368229704
 20
38.43959157168004
 10
42.02353368229704
 20
33.43959247167987
 10
41.7735336822971
 20
33.43959247167987
  0
LWPOLYLINE
  5
1A95D
330
1F
100
AcDbEntity
  8
0
100
AcDbPolyline
 90
        4
 70
     1
 43
0.0
 10
49.14853218229749
 20
27.68959367167963
 10
49.39853218229738
 20
27.68959367167963
 10
49.39853218229738
 20
38.43959157168004
 10
49.14853218229749
 20
38.43959157168004
  0
LWPOLYLINE
  5
1A95E
330
1F
100
AcDbEntity
  8
0
100
AcDbPolyline
 90
        4
 70
     1
 43
0.0
 10
63.6485294822979
 20
38.43959157168007
 10
63.39852948229796
 20
38.43959157168007
 10
63.39852948229796
 20
33.43959247167987
 10
63.6485294822979
 20
33.43959247167987
  0
LWPOLYLINE
  5
1A95F
330
1F
100
AcDbEntity
  8
0
100
AcDbPolyline
 90
        4
 70
     1
 43
0.0
 10
45.46103293229725
 20
38.18959157168007
 10
45.71103293229724
 20
38.18959157168007
 10
45.71103293229724
 20
33.68959247167988
 10
45.46103293229725
 20
33.68959247167988
  0
LWPOLYLINE
  5
1A960
330
1F
100
AcDbEntity
  8
0
100
AcDbPolyline
 90
        4
 70
     1
 43
0.0
 10
49.14853218229749
 20
38.43959157168004
 10
42.02353368229704
 20
38.43959157168004
 10
42.02353368229704
 20
38.18959157168007
 10
49.14853218229749
 20
38.18959157168007
  0
LWPOLYLINE
  5
1A961
330
1F
100
AcDbEntity
  8
0
100
AcDbPolyline
 90
        4
 70
     1
 43
0.0
 10
42.02353368229704
 20
33.68959247167988
 10
49.14853218229749
 20
33.68959247167988
 10
49.14853218229749
 20
33.43959247167987
 10
42.02353368229704
 20
33.43959247167987
  0
LINE
  5
1A962
330
1F
100
AcDbEntity
  8
TEXT
100
AcDbLine
 10
41.3384756429778
 20
35.81459202167997
 30
0.0
 11
42.51444306923104
 21
35.81459202167997
 31
0.0
  0
CIRCLE
  5
1A963
330
1F
100
AcDbEntity
  8
TEXT
100
AcDbCircle
 10
40.79433744259523
 20
35.81459202167997
 30
0.0
 40
0.5441382003825708
  0
TEXT
  5
1A964
330
1F
100
AcDbEntity
  8
TEXT
100
AcDbText
 10
40.51463757902087
 20
35.63459202167997
 30
0.0
 40
0.36
  1
12
 72
     1
 11
40.79433744259523
 21
35.81459202167997
 31
0.0
100
AcDbText
 73
     2
  0
LINE
  5
1A965
330
1F
100
AcDbEntity
  8
TEXT
100
AcDbLine
 10
45.02597489297794
 20
35.81459202167997
 30
0.0
 11
46.20194231923118
 21
35.81459202167997
 31
0.0
  0
CIRCLE
  5
1A966
330
1F
100
AcDbEntity
  8
TEXT
100
AcDbCircle
 10
44.48183669259537
 20
35.81459202167997
 30
0.0
 40
0.5441382003825708
  0
TEXT
  5
1A967
330
1F
100
AcDbEntity
  8
TEXT
100
AcDbText
 10
44.20213682902102
 20
35.63459202167997
 30
0.0
 40
0.36
  1
13
 72
     1
 11
44.48183669259537
 21
35.81459202167997
 31
0.0
100
AcDbText
 73
     2
  0
LINE
  5
1A968
330
1F
100
AcDbEntity
  8
TEXT
100
AcDbLine
 10
48.71347414297819
 20
35.81459202167997
 30
0.0
 11
49.88944156923142
 21
35.81459202167997
 31
0.0
  0
CIRCLE
  5
1A969
330
1F
100
AcDbEntity
  8
TEXT
100
AcDbCircle
 10
48.16933594259562
 20
35.81459202167997
 30
0.0
 40
0.5441382003825708
  0
TEXT
  5
1A96A
330
1F
100
AcDbEntity
  8
TEXT
100
AcDbText
 10
47.88963607902126
 20
35.63459202167997
 30
0.0
 40
0.36
  1
16
 72
     1
 11
48.16933594259562
 21
35.81459202167997
 31
0.0
100
AcDbText
 73
     2
  0
LINE
  5
1A96B
330
1F
100
AcDbEntity
  8
TEXT
100
AcDbLine
 10
62.78068864977408
 20
35.81459202167997
 30
0.0
 11
63.95665607602731
 21
35.81459202167997
 31
0.0
  0
CIRCLE
  5
1A96C
330
1F
100
AcDbEntity
  8
TEXT
100
AcDbCircle
 10
64.50079427640989
 20
35.81459202167997
 30
0.0
 40
0.5441382003825708
  0
TEXT
  5
1A96D
330
1F
100
AcDbEntity
  8
TEXT
100
AcDbText
 10
64.22109441283554
 20
35.63459202167997
 30
0.0
 40
0.36
  1
12
 72
     1
 11
64.50079427640989
 21
35.81459202167997
 31
0.0
100
AcDbText
 73
     2
  0
TEXT
  5
1A96E
330
1F
100
AcDbEntity
  8
TEXT
100
AcDbText
 10
63.89989386713295
 20
34.80378260648525
 30
0.0
 40
0.36
  1
OPP.
 72
     1
 11
64.50079427640989
 21
34.98378260648525
 31
0.0
100
AcDbText
 73
     2
  0
LWPOLYLINE
  5
1A96F
330
1F
100
AcDbEntity
  8
0
100
AcDbPolyline
 90
        4
 70
     1
 43
0.0
 10
53.89853128229763
 20
38.43959157168007
 10
54.14853128229757
 20
38.43959157168007
 10
54.14853128229751
 20
27.68959367167963
 10
53.89853128229763
 20
27.68959367167963
  0
LINE
  5
1A970
330
1F
100
AcDbEntity
  8
TEXT
100
AcDbLine
 10
53.21347324297832
 20
35.81459202167997
 30
0.0
 11
54.38944066923156
 21
35.81459202167997
 31
0.0
  0
CIRCLE
  5
1A971
330
1F
100
AcDbEntity
  8
TEXT
100
AcDbCircle
 10
54.93357886961414
 20
35.81459202167997
 30
0.0
 40
0.5441382003825708
  0
TEXT
  5
1A972
330
1F
100
AcDbEntity
  8
TEXT
100
AcDbText
 10
54.65387900603978
 20
35.63459202167997
 30
0.0
 40
0.36
  1
17
 72
     1
 11
54.93357886961414
 21
35.81459202167997
 31
0.0
100
AcDbText
 73
     2
  0
LWPOLYLINE
  5
1A973
330
1F
100
AcDbEntity
  8
0
100
AcDbPolyline
 90
        4
 70
     1
 43
0.0
 10
58.64853038229782
 20
38.18959157168007
 10
58.8985303822977
 20
38.18959157168007
 10
58.8985303822977
 20
33.68959247167988
 10
58.64853038229776
 20
33.68959247167988
  0
LINE
  5
1A974
330
1F
100
AcDbEntity
  8
TEXT
100
AcDbLine
 10
57.96347234297852
 20
35.81459202167997
 30
0.0
 11
59.13943976923175
 21
35.81459202167997
 31
0.0
  0
CIRCLE
  5
1A975
330
1F
100
AcDbEntity
  8
TEXT
100
AcDbCircle
 10
59.68357796961433
 20
35.81459202167997
 30
0.0
 40
0.5441382003825708
  0
TEXT
  5
1A976
330
1F
100
AcDbEntity
  8
TEXT
100
AcDbText
 10
59.40387810603998
 20
35.63459202167997
 30
0.0
 40
0.36
  1
13
 72
     1
 11
59.68357796961433
 21
35.81459202167997
 31
0.0
100
AcDbText
 73
     2
  0
LINE
  5
1A977
330
1F
100
AcDbEntity
  8
TEXT
100
AcDbLine
 10
61.18244643084088
 20
37.79792655231481
 30
0.0
 11
61.18244643084088
 21
38.97389397856804
 31
0.0
  0
CIRCLE
  5
1A978
330
1F
100
AcDbEntity
  8
TEXT
100
AcDbCircle
 10
61.18244643084088
 20
39.51803217895062
 30
0.0
 40
0.5441382003825708
  0
TEXT
  5
1A979
330
1F
100
AcDbEntity
  8
TEXT
100
AcDbText
 10
61.04259649905371
 20
39.33803217895062
 30
0.0
 40
0.36
  1
1
 72
     1
 11
61.18244643084088
 21
39.51803217895062
 31
0.0
100
AcDbText
 73
     2
  0
LINE
  5
1A97A
330
1F
100
AcDbEntity
  8
TEXT
100
AcDbLine
 10
61.18244643084094
 20
34.28599306256382
 30
0.0
 11
61.18244643084094
 21
33.11002563631081
 31
0.0
  0
CIRCLE
  5
1A97B
330
1F
100
AcDbEntity
  8
TEXT
100
AcDbCircle
 10
61.18244643084094
 20
32.56588743592824
 30
0.0
 40
0.5441382003825708
  0
TEXT
  5
1A97C
330
1F
100
AcDbEntity
  8
TEXT
100
AcDbText
 10
61.04259649905376
 20
32.38588743592823
 30
0.0
 40
0.36
  1
5
 72
     1
 11
61.18244643084094
 21
32.56588743592824
 31
0.0
100
AcDbText
 73
     2
  0
LINE
  5
1A97D
330
1F
100
AcDbEntity
  8
TEXT
100
AcDbLine
 10
47.44695002228808
 20
34.28599306256382
 30
0.0
 11
47.44695002228808
 21
33.11002563631081
 31
0.0
  0
CIRCLE
  5
1A97E
330
1F
100
AcDbEntity
  8
TEXT
100
AcDbCircle
 10
47.44695002228808
 20
32.56588743592824
 30
0.0
 40
0.5441382003825708
  0
LINE
  5
1A97F
330
1F
100
AcDbEntity
  8
TEXT
100
AcDbLine
 10
47.47397423670281
 20
37.79792655231484
 30
0.0
 11
47.47397423670281
 21
38.97389397856807
 31
0.0
  0
CIRCLE
  5
1A980
330
1F
100
AcDbEntity
  8
TEXT
100
AcDbCircle
 10
47.47397423670281
 20
39.51803217895065
 30
0.0
 40
0.5441382003825708
  0
TEXT
  5
1A981
330
1F
100
AcDbEntity
  8
TEXT
100
AcDbText
 10
47.33412430491563
 20
39.33803217895065
 30
0.0
 40
0.36
  1
1
 72
     1
 11
47.47397423670281
 21
39.51803217895065
 31
0.0
100
AcDbText
 73
     2
  0
LINE
  5
1A982
330
1F
100
AcDbEntity
  8
TEXT
100
AcDbLine
 10
48.71347414297819
 20
30.55105253593939
 30
0.0
 11
49.88944156923142
 21
30.55105253593939
 31
0.0
  0
CIRCLE
  5
1A983
330
1F
100
AcDbEntity
  8
TEXT
100
AcDbCircle
 10
48.16933594259562
 20
30.55105253593939
 30
0.0
 40
0.5441382003825708
  0
TEXT
  5
1A984
330
1F
100
AcDbEntity
  8
TEXT
100
AcDbText
 10
47.88963607902126
 20
30.37105253593939
 30
0.0
 40
0.36
  1
15
 72
     1
 11
48.16933594259562
 21
30.55105253593939
 31
0.0
100
AcDbText
 73
     2
  0
LWPOLYLINE
  5
1A985
330
1F
100
AcDbEntity
  8
0
100
AcDbPolyline
 90
        4
 70
     1
 43
0.0
 10
54.14853128229757
 20
38.18959157168004
 10
63.39852948229796
 20
38.18959157168007
 10
63.39852948229796
 20
38.43959157168007
 10
54.14853128229757
 20
38.43959157168007
  0
LWPOLYLINE
  5
1A986
330
1F
100
AcDbEntity
  8
0
100
AcDbPolyline
 90
        4
 70
     1
 43
0.0
 10
54.14853128229751
 20
33.43959247167987
 10
63.39852948229796
 20
33.43959247167987
 10
63.39852948229796
 20
33.68959247167982
 10
54.14853128229751
 20
33.68959247167982
  0
TEXT
  5
1A987
330
1F
100
AcDbEntity
  8
TEXT
100
AcDbText
 10
59.08267756033739
 20
34.80378260648525
 30
0.0
 40
0.36
  1
OPP.
 72
     1
 11
59.68357796961433
 21
34.98378260648525
 31
0.0
100
AcDbText
 73
     2
  0
LWPOLYLINE
  5
1A989
330
1F
100
AcDbEntity
  8
0
100
AcDbPolyline
 90
        4
 70
     1
 43
0.0
 10
49.39853218229738
 20
38.43959157168007
 10
53.89853128229763
 20
38.43959157168007
 10
53.89853128229763
 20
38.18959157168007
 10
49.39853218229738
 20
38.18959157168007
  0
LWPOLYLINE
  5
1A98A
330
1F
100
AcDbEntity
  8
0
  6
DASHED
 48
2.0
100
AcDbPolyline
 90
        3
 70
     0
 43
0.0
 10
49.39853218229738
 20
38.18959157168007
 10
53.89853128229763
 20
33.06459262167985
 10
49.39853218229738
 20
27.68959367167963
  0
LINE
  5
1A98B
330
1F
100
AcDbEntity
  8
TEXT
100
AcDbLine
 10
51.64853173229754
 20
37.79792655231481
 30
0.0
 11
51.64853173229754
 21
38.97389397856804
 31
0.0
  0
CIRCLE
  5
1A98C
330
1F
100
AcDbEntity
  8
TEXT
100
AcDbCircle
 10
51.64853173229754
 20
39.51803217895062
 30
0.0
 40
0.5441382003825708
  0
TEXT
  5
1A98D
330
1F
100
AcDbEntity
  8
TEXT
100
AcDbText
 10
51.50868180051036
 20
39.33803217895062
 30
0.0
 40
0.36
  1
2
 72
     1
 11
51.64853173229754
 21
39.51803217895062
 31
0.0
100
AcDbText
 73
     2
  0
LINE
  5
1A98E
330
1F
100
AcDbEntity
  8
TEXT
100
AcDbLine
 10
53.21347324297832
 20
30.55105253593939
 30
0.0
 11
54.38944066923156
 21
30.55105253593939
 31
0.0
  0
CIRCLE
  5
1A98F
330
1F
100
AcDbEntity
  8
TEXT
100
AcDbCircle
 10
54.93357886961414
 20
30.55105253593939
 30
0.0
 40
0.5441382003825708
  0
TEXT
  5
1A990
330
1F
100
AcDbEntity
  8
TEXT
100
AcDbText
 10
54.65387900603978
 20
30.37105253593939
 30
0.0
 40
0.36
  1
15
 72
     1
 11
54.93357886961414
 21
30.55105253593939
 31
0.0
100
AcDbText
 73
     2
  0
TEXT
  5
1A991
330
1F
100
AcDbEntity
  8
TEXT
100
AcDbText
 10
54.33267846033719
 20
29.54024312074467
 30
0.0
 40
0.36
  1
OPP.
 72
     1
 11
54.93357886961414
 21
29.72024312074467
 31
0.0
100
AcDbText
 73
     2
  0
LWPOLYLINE
  5
1A992
330
1F
100
AcDbEntity
  8
0
100
AcDbPolyline
 90
        4
 70
     1
 43
0.0
 10
68.41430385071473
 20
38.43959157168004
 10
68.66430385071473
 20
38.43959157168004
 10
68.66430385071473
 20
33.43959247167987
 10
68.41430385071473
 20
33.43959247167987
  0
LWPOLYLINE
  5
1A993
330
1F
100
AcDbEntity
  8
0
100
AcDbPolyline
 90
        4
 70
     1
 43
0.0
 10
72.10180310071499
 20
27.68959367167963
 10
72.35180310071488
 20
27.68959367167963
 10
72.35180310071488
 20
38.43959157168004
 10
72.10180310071499
 20
38.43959157168004
  0
LWPOLYLINE
  5
1A994
330
1F
100
AcDbEntity
  8
0
100
AcDbPolyline
 90
        4
 70
     1
 43
0.0
 10
86.60180040071541
 20
38.43959157168007
 10
86.35180040071546
 20
38.43959157168007
 10
86.35180040071546
 20
27.68959367167963
 10
86.60180040071541
 20
27.68959367167963
  0
LWPOLYLINE
  5
1A995
330
1F
100
AcDbEntity
  8
0
100
AcDbPolyline
 90
        4
 70
     1
 43
0.0
 10
72.10180310071499
 20
38.43959157168004
 10
68.66430385071473
 20
38.43959157168004
 10
68.66430385071473
 20
38.18959157168007
 10
72.10180310071499
 20
38.18959157168007
  0
LWPOLYLINE
  5
1A996
330
1F
100
AcDbEntity
  8
0
100
AcDbPolyline
 90
        4
 70
     1
 43
0.0
 10
68.66430385071473
 20
33.68959247167988
 10
72.10180310071499
 20
33.68959247167988
 10
72.10180310071499
 20
33.43959247167987
 10
68.66430385071473
 20
33.43959247167987
  0
LINE
  5
1A997
330
1F
100
AcDbEntity
  8
TEXT
100
AcDbLine
 10
67.97924581139543
 20
35.81459202167997
 30
0.0
 11
69.15521323764867
 21
35.81459202167997
 31
0.0
  0
CIRCLE
  5
1A998
330
1F
100
AcDbEntity
  8
TEXT
100
AcDbCircle
 10
67.43510761101285
 20
35.81459202167997
 30
0.0
 40
0.5441382003825708
  0
TEXT
  5
1A999
330
1F
100
AcDbEntity
  8
TEXT
100
AcDbText
 10
67.1554077474385
 20
35.63459202167997
 30
0.0
 40
0.36
  1
12
 72
     1
 11
67.43510761101285
 21
35.81459202167997
 31
0.0
100
AcDbText
 73
     2
  0
LINE
  5
1A99A
330
1F
100
AcDbEntity
  8
TEXT
100
AcDbLine
 10
71.66674506139568
 20
35.81459202167997
 30
0.0
 11
72.84271248764892
 21
35.81459202167997
 31
0.0
  0
CIRCLE
  5
1A99B
330
1F
100
AcDbEntity
  8
TEXT
100
AcDbCircle
 10
71.12260686101311
 20
35.81459202167997
 30
0.0
 40
0.5441382003825708
  0
TEXT
  5
1A99C
330
1F
100
AcDbEntity
  8
TEXT
100
AcDbText
 10
70.84290699743876
 20
35.63459202167997
 30
0.0
 40
0.36
  1
16
 72
     1
 11
71.12260686101311
 21
35.81459202167997
 31
0.0
100
AcDbText
 73
     2
  0
LINE
  5
1A99D
330
1F
100
AcDbEntity
  8
TEXT
100
AcDbLine
 10
85.73395956819158
 20
35.81459202167997
 30
0.0
 11
86.90992699444482
 21
35.81459202167997
 31
0.0
  0
CIRCLE
  5
1A99E
330
1F
100
AcDbEntity
  8
TEXT
100
AcDbCircle
 10
87.4540651948274
 20
35.81459202167997
 30
0.0
 40
0.5441382003825708
  0
TEXT
  5
1A99F
330
1F
100
AcDbEntity
  8
TEXT
100
AcDbText
 10
87.17436533125304
 20
35.63459202167997
 30
0.0
 40
0.36
  1
12
 72
     1
 11
87.4540651948274
 21
35.81459202167997
 31
0.0
100
AcDbText
 73
     2
  0
TEXT
  5
1A9A0
330
1F
100
AcDbEntity
  8
TEXT
100
AcDbText
 10
86.85316478555044
 20
34.80378260648525
 30
0.0
 40
0.36
  1
OPP.
 72
     1
 11
87.4540651948274
 21
34.98378260648525
 31
0.0
100
AcDbText
 73
     2
  0
LWPOLYLINE
  5
1A9A1
330
1F
100
AcDbEntity
  8
0
100
AcDbPolyline
 90
        4
 70
     1
 43
0.0
 10
76.85180220071512
 20
38.43959157168007
 10
77.10180220071507
 20
38.43959157168007
 10
77.10180220071501
 20
27.68959367167963
 10
76.85180220071512
 20
27.68959367167963
  0
LINE
  5
1A9A2
330
1F
100
AcDbEntity
  8
TEXT
100
AcDbLine
 10
76.16674416139582
 20
35.81459202167997
 30
0.0
 11
77.34271158764906
 21
35.81459202167997
 31
0.0
  0
CIRCLE
  5
1A9A3
330
1F
100
AcDbEntity
  8
TEXT
100
AcDbCircle
 10
77.88684978803164
 20
35.81459202167997
 30
0.0
 40
0.5441382003825708
  0
TEXT
  5
1A9A4
330
1F
100
AcDbEntity
  8
TEXT
100
AcDbText
 10
77.60714992445729
 20
35.63459202167997
 30
0.0
 40
0.36
  1
17
 72
     1
 11
77.88684978803164
 21
35.81459202167997
 31
0.0
100
AcDbText
 73
     2
  0
LWPOLYLINE
  5
1A9A5
330
1F
100
AcDbEntity
  8
0
100
AcDbPolyline
 90
        4
 70
     1
 43
0.0
 10
81.60180130071532
 20
38.18959157168007
 10
81.8518013007152
 20
38.18959157168007
 10
81.8518013007152
 20
27.68959367167963
 10
81.60180130071527
 20
27.68959367167963
  0
LINE
  5
1A9A6
330
1F
100
AcDbEntity
  8
TEXT
100
AcDbLine
 10
80.91674326139601
 20
35.81459202167997
 30
0.0
 11
82.09271068764925
 21
35.81459202167997
 31
0.0
  0
CIRCLE
  5
1A9A7
330
1F
100
AcDbEntity
  8
TEXT
100
AcDbCircle
 10
82.63684888803183
 20
35.81459202167997
 30
0.0
 40
0.5441382003825708
  0
TEXT
  5
1A9A8
330
1F
100
AcDbEntity
  8
TEXT
100
AcDbText
 10
82.18905898352979
 20
35.63459202167997
 30
0.0
 40
0.36
  1
14A
 72
     1
 11
82.63684888803183
 21
35.81459202167997
 31
0.0
100
AcDbText
 73
     2
  0
LINE
  5
1A9A9
330
1F
100
AcDbEntity
  8
TEXT
100
AcDbLine
 10
79.35180175071511
 20
37.79792655231481
 30
0.0
 11
79.35180175071511
 21
38.97389397856804
 31
0.0
  0
CIRCLE
  5
1A9AA
330
1F
100
AcDbEntity
  8
TEXT
100
AcDbCircle
 10
79.35180175071511
 20
39.51803217895062
 30
0.0
 40
0.5441382003825708
  0
TEXT
  5
1A9AB
330
1F
100
AcDbEntity
  8
TEXT
100
AcDbText
 10
79.21195181892793
 20
39.33803217895062
 30
0.0
 40
0.36
  1
1
 72
     1
 11
79.35180175071511
 21
39.51803217895062
 31
0.0
100
AcDbText
 73
     2
  0
LINE
  5
1A9AC
330
1F
100
AcDbEntity
  8
TEXT
100
AcDbLine
 10
79.35180175071517
 20
34.28599306256379
 30
0.0
 11
79.35180175071517
 21
33.11002563631078
 31
0.0
  0
CIRCLE
  5
1A9AD
330
1F
100
AcDbEntity
  8
TEXT
100
AcDbCircle
 10
79.35180175071517
 20
32.5658874359282
 30
0.0
 40
0.5441382003825708
  0
TEXT
  5
1A9AE
330
1F
100
AcDbEntity
  8
TEXT
100
AcDbText
 10
79.04386177800029
 20
32.38588743592821
 30
0.0
 40
0.36
  1
5A
 72
     1
 11
79.35180175071517
 21
32.5658874359282
 31
0.0
100
AcDbText
 73
     2
  0
LINE
  5
1A9AF
330
1F
100
AcDbEntity
  8
TEXT
100
AcDbLine
 10
70.40022094070557
 20
34.28599306256382
 30
0.0
 11
70.40022094070557
 21
33.11002563631081
 31
0.0
  0
CIRCLE
  5
1A9B0
330
1F
100
AcDbEntity
  8
TEXT
100
AcDbCircle
 10
70.40022094070557
 20
32.56588743592824
 30
0.0
 40
0.5441382003825708
  0
LINE
  5
1A9B1
330
1F
100
AcDbEntity
  8
TEXT
100
AcDbLine
 10
70.42724515512029
 20
37.79792655231484
 30
0.0
 11
70.42724515512029
 21
38.97389397856807
 31
0.0
  0
CIRCLE
  5
1A9B2
330
1F
100
AcDbEntity
  8
TEXT
100
AcDbCircle
 10
70.42724515512029
 20
39.51803217895065
 30
0.0
 40
0.5441382003825708
  0
TEXT
  5
1A9B3
330
1F
100
AcDbEntity
  8
TEXT
100
AcDbText
 10
70.2873952233331
 20
39.33803217895065
 30
0.0
 40
0.36
  1
1
 72
     1
 11
70.42724515512029
 21
39.51803217895065
 31
0.0
100
AcDbText
 73
     2
  0
LINE
  5
1A9B4
330
1F
100
AcDbEntity
  8
TEXT
100
AcDbLine
 10
71.66674506139568
 20
30.55105253593939
 30
0.0
 11
72.84271248764892
 21
30.55105253593939
 31
0.0
  0
CIRCLE
  5
1A9B5
330
1F
100
AcDbEntity
  8
TEXT
100
AcDbCircle
 10
71.12260686101311
 20
30.55105253593939
 30
0.0
 40
0.5441382003825708
  0
TEXT
  5
1A9B6
330
1F
100
AcDbEntity
  8
TEXT
100
AcDbText
 10
70.84290699743876
 20
30.37105253593939
 30
0.0
 40
0.36
  1
15
 72
     1
 11
71.12260686101311
 21
30.55105253593939
 31
0.0
100
AcDbText
 73
     2
  0
LWPOLYLINE
  5
1A9B7
330
1F
100
AcDbEntity
  8
0
100
AcDbPolyline
 90
        4
 70
     1
 43
0.0
 10
77.10180220071507
 20
38.18959157168004
 10
86.35180040071546
 20
38.18959157168007
 10
86.35180040071546
 20
38.43959157168007
 10
77.10180220071507
 20
38.43959157168007
  0
LWPOLYLINE
  5
1A9B8
330
1F
100
AcDbEntity
  8
0
100
AcDbPolyline
 90
        4
 70
     1
 43
0.0
 10
77.10180220071501
 20
33.43959247167987
 10
81.60180130071532
 20
33.43959247167987
 10
81.60180130071532
 20
33.68959247167985
 10
77.10180220071501
 20
33.68959247167982
  0
TEXT
  5
1A9B9
330
1F
100
AcDbEntity
  8
TEXT
100
AcDbText
 10
82.03594847875489
 20
34.80378260648525
 30
0.0
 40
0.36
  1
OPP.
 72
     1
 11
82.63684888803183
 21
34.98378260648525
 31
0.0
100
AcDbText
 73
     2
  0
LWPOLYLINE
  5
1A9BB
330
1F
100
AcDbEntity
  8
0
100
AcDbPolyline
 90
        4
 70
     1
 43
0.0
 10
72.35180310071488
 20
38.43959157168007
 10
76.85180220071512
 20
38.43959157168007
 10
76.85180220071512
 20
38.18959157168007
 10
72.35180310071488
 20
38.18959157168007
  0
LWPOLYLINE
  5
1A9BC
330
1F
100
AcDbEntity
  8
0
  6
DASHED
 48
2.0
100
AcDbPolyline
 90
        3
 70
     0
 43
0.0
 10
72.35180310071488
 20
38.18959157168007
 10
76.85180220071512
 20
33.06459262167985
 10
72.35180310071488
 20
27.68959367167963
  0
LINE
  5
1A9BD
330
1F
100
AcDbEntity
  8
TEXT
100
AcDbLine
 10
74.60180265071503
 20
37.79792655231481
 30
0.0
 11
74.60180265071503
 21
38.97389397856804
 31
0.0
  0
CIRCLE
  5
1A9BE
330
1F
100
AcDbEntity
  8
TEXT
100
AcDbCircle
 10
74.60180265071503
 20
39.51803217895062
 30
0.0
 40
0.5441382003825708
  0
TEXT
  5
1A9BF
330
1F
100
AcDbEntity
  8
TEXT
100
AcDbText
 10
74.46195271892785
 20
39.33803217895062
 30
0.0
 40
0.36
  1
2
 72
     1
 11
74.60180265071503
 21
39.51803217895062
 31
0.0
100
AcDbText
 73
     2
  0
LINE
  5
1A9C0
330
1F
100
AcDbEntity
  8
TEXT
100
AcDbLine
 10
76.16674416139582
 20
30.55105253593939
 30
0.0
 11
77.34271158764906
 21
30.55105253593939
 31
0.0
  0
CIRCLE
  5
1A9C1
330
1F
100
AcDbEntity
  8
TEXT
100
AcDbCircle
 10
77.88684978803164
 20
30.55105253593939
 30
0.0
 40
0.5441382003825708
  0
TEXT
  5
1A9C2
330
1F
100
AcDbEntity
  8
TEXT
100
AcDbText
 10
77.60714992445729
 20
30.37105253593939
 30
0.0
 40
0.36
  1
15
 72
     1
 11
77.88684978803164
 21
30.55105253593939
 31
0.0
100
AcDbText
 73
     2
  0
TEXT
  5
1A9C3
330
1F
100
AcDbEntity
  8
TEXT
100
AcDbText
 10
77.28594937875469
 20
29.54024312074467
 30
0.0
 40
0.36
  1
OPP.
 72
     1
 11
77.88684978803164
 21
29.72024312074467
 31
0.0
100
AcDbText
 73
     2
  0
LWPOLYLINE
  5
1A9C4
330
1F
100
AcDbEntity
  8
0
100
AcDbPolyline
 90
        4
 70
     1
 43
0.0
 10
81.8518013007152
 20
27.68959367167963
 10
86.3518004007154
 20
27.68959367167966
 10
86.3518004007154
 20
27.93959367167963
 10
81.8518013007152
 20
27.93959367167957
  0
LINE
  5
1A9C5
330
1F
100
AcDbEntity
  8
TEXT
100
AcDbLine
 10
84.1018008507153
 20
34.28599306256379
 30
0.0
 11
84.1018008507153
 21
33.11002563631078
 31
0.0
  0
CIRCLE
  5
1A9C6
330
1F
100
AcDbEntity
  8
TEXT
100
AcDbCircle
 10
84.1018008507153
 20
32.5658874359282
 30
0.0
 40
0.5441382003825708
  0
TEXT
  5
1A9C7
330
1F
100
AcDbEntity
  8
TEXT
100
AcDbText
 10
83.96195091892812
 20
32.38588743592821
 30
0.0
 40
0.36
  1
6
 72
     1
 11
84.1018008507153
 21
32.5658874359282
 31
0.0
100
AcDbText
 73
     2
  0
LWPOLYLINE
  5
1A9C8
330
1F
100
AcDbEntity
  8
0
100
AcDbPolyline
 90
        4
 70
     1
 43
0.0
 10
81.8518013007152
 20
33.43959247167987
 10
86.35180040071546
 20
33.43959247167987
 10
86.35180040071546
 20
33.68959247167985
 10
81.8518013007152
 20
33.68959247167982
  0
LINE
  5
1A9C9
330
1F
100
AcDbEntity
  8
TEXT
100
AcDbLine
 10
82.25826811545156
 20
30.55105253593939
 30
0.0
 11
81.08230068919832
 21
30.55105253593939
 31
0.0
  0
CIRCLE
  5
1A9CA
330
1F
100
AcDbEntity
  8
TEXT
100
AcDbCircle
 10
82.80240631583414
 20
30.55105253593939
 30
0.0
 40
0.5441382003825708
  0
TEXT
  5
1A9CB
330
1F
100
AcDbEntity
  8
TEXT
100
AcDbText
 10
82.49446634311929
 20
30.37105253593939
 30
0.0
 40
0.36
  1
12
 72
     1
 11
82.77416620669365
 21
30.55105253593939
 31
0.0
100
AcDbText
 73
     2
  0
LINE
  5
1A9CC
330
1F
100
AcDbEntity
  8
TEXT
100
AcDbLine
 10
84.1018008507153
 20
28.53599426256352
 30
0.0
 11
84.1018008507153
 21
27.36002683631051
 31
0.0
  0
CIRCLE
  5
1A9CD
330
1F
100
AcDbEntity
  8
TEXT
100
AcDbCircle
 10
84.1018008507153
 20
26.81588863592793
 30
0.0
 40
0.5441382003825708
  0
TEXT
  5
1A9CE
330
1F
100
AcDbEntity
  8
TEXT
100
AcDbText
 10
83.82210098714095
 20
26.63588863592794
 30
0.0
 40
0.36
  1
10
 72
     1
 11
84.1018008507153
 21
26.81588863592793
 31
0.0
100
AcDbText
 73
     2
  0
LWPOLYLINE
  5
1A9CF
330
1F
100
AcDbEntity
  8
0
100
AcDbPolyline
 90
        4
 70
     1
 43
0.0
 10
32.00911853255745
 20
22.20625433238354
 10
32.25911853255739
 20
22.20625433238354
 10
32.25911853255739
 20
15.20625313238383
 10
32.00911853255745
 20
15.20625313238383
  0
LWPOLYLINE
  5
1A9D0
330
1F
100
AcDbEntity
  8
0
100
AcDbPolyline
 90
        4
 70
     1
 43
0.0
 10
35.69661778255765
 20
9.456254332383593
 10
35.94661778255753
 20
9.456254332383593
 10
35.94661778255753
 20
22.20625433238354
 10
35.69661778255765
 20
22.20625433238354
  0
LWPOLYLINE
  5
1A9D1
330
1F
100
AcDbEntity
  8
0
100
AcDbPolyline
 90
        4
 70
     1
 43
0.0
 10
50.19661508255811
 20
22.20625433238359
 10
49.94661508255812
 20
22.20625433238359
 10
49.94661508255812
 20
9.456254332383593
 10
50.19661508255811
 20
9.456254332383593
  0
LWPOLYLINE
  5
1A9D2
330
1F
100
AcDbEntity
  8
0
100
AcDbPolyline
 90
        4
 70
     1
 43
0.0
 10
35.69661778255765
 20
22.20625433238354
 10
32.25911853255739
 20
22.20625433238354
 10
32.25911853255739
 20
21.95625433238356
 10
35.69661778255765
 20
21.95625433238356
  0
LWPOLYLINE
  5
1A9D3
330
1F
100
AcDbEntity
  8
0
100
AcDbPolyline
 90
        4
 70
     1
 43
0.0
 10
32.25911853255739
 20
15.45625313238381
 10
35.69661778255765
 20
15.45625313238381
 10
35.69661778255765
 20
15.20625313238383
 10
32.25911853255739
 20
15.20625313238383
  0
LINE
  5
1A9D4
330
1F
100
AcDbEntity
  8
TEXT
100
AcDbLine
 10
31.57406049323814
 20
17.5812526823839
 30
0.0
 11
32.75002791949138
 21
17.5812526823839
 31
0.0
  0
CIRCLE
  5
1A9D5
330
1F
100
AcDbEntity
  8
TEXT
100
AcDbCircle
 10
31.02992229285557
 20
17.5812526823839
 30
0.0
 40
0.5441382003825708
  0
TEXT
  5
1A9D6
330
1F
100
AcDbEntity
  8
TEXT
100
AcDbText
 10
30.75022242928122
 20
17.4012526823839
 30
0.0
 40
0.36
  1
12
 72
     1
 11
31.02992229285557
 21
17.5812526823839
 31
0.0
100
AcDbText
 73
     2
  0
LINE
  5
1A9D7
330
1F
100
AcDbEntity
  8
TEXT
100
AcDbLine
 10
35.26155974323835
 20
17.5812526823839
 30
0.0
 11
36.43752716949158
 21
17.5812526823839
 31
0.0
  0
CIRCLE
  5
1A9D8
330
1F
100
AcDbEntity
  8
TEXT
100
AcDbCircle
 10
34.71742154285577
 20
17.5812526823839
 30
0.0
 40
0.5441382003825708
  0
TEXT
  5
1A9D9
330
1F
100
AcDbEntity
  8
TEXT
100
AcDbText
 10
34.43772167928142
 20
17.4012526823839
 30
0.0
 40
0.36
  1
16
 72
     1
 11
34.71742154285577
 21
17.5812526823839
 31
0.0
100
AcDbText
 73
     2
  0
LINE
  5
1A9DA
330
1F
100
AcDbEntity
  8
TEXT
100
AcDbLine
 10
49.32877425003429
 20
17.5812526823839
 30
0.0
 11
50.50474167628753
 21
17.5812526823839
 31
0.0
  0
CIRCLE
  5
1A9DB
330
1F
100
AcDbEntity
  8
TEXT
100
AcDbCircle
 10
51.04887987667011
 20
17.5812526823839
 30
0.0
 40
0.5441382003825708
  0
TEXT
  5
1A9DC
330
1F
100
AcDbEntity
  8
TEXT
100
AcDbText
 10
50.76918001309575
 20
17.4012526823839
 30
0.0
 40
0.36
  1
12
 72
     1
 11
51.04887987667011
 21
17.5812526823839
 31
0.0
100
AcDbText
 73
     2
  0
TEXT
  5
1A9DD
330
1F
100
AcDbEntity
  8
TEXT
100
AcDbText
 10
50.44797946739316
 20
16.57044326718918
 30
0.0
 40
0.36
  1
OPP.
 72
     1
 11
51.04887987667011
 21
16.75044326718918
 31
0.0
100
AcDbText
 73
     2
  0
LWPOLYLINE
  5
1A9DE
330
1F
100
AcDbEntity
  8
0
100
AcDbPolyline
 90
        4
 70
     1
 43
0.0
 10
40.44661688255784
 20
22.20625433238359
 10
40.69661688255773
 20
22.20625433238359
 10
40.69661688255773
 20
9.456254332383593
 10
40.44661688255778
 20
9.456254332383593
  0
LINE
  5
1A9DF
330
1F
100
AcDbEntity
  8
TEXT
100
AcDbLine
 10
39.76155884323854
 20
17.5812526823839
 30
0.0
 11
40.93752626949178
 21
17.5812526823839
 31
0.0
  0
CIRCLE
  5
1A9E0
330
1F
100
AcDbEntity
  8
TEXT
100
AcDbCircle
 10
41.48166446987435
 20
17.5812526823839
 30
0.0
 40
0.5441382003825708
  0
TEXT
  5
1A9E1
330
1F
100
AcDbEntity
  8
TEXT
100
AcDbText
 10
41.2019646063
 20
17.4012526823839
 30
0.0
 40
0.36
  1
17
 72
     1
 11
41.48166446987435
 21
17.5812526823839
 31
0.0
100
AcDbText
 73
     2
  0
LWPOLYLINE
  5
1A9E2
330
1F
100
AcDbEntity
  8
0
100
AcDbPolyline
 90
        4
 70
     1
 43
0.0
 10
45.19661598255797
 20
21.95625433238356
 10
45.44661598255792
 20
21.95625433238356
 10
45.44661598255792
 20
9.706254332383565
 10
45.19661598255792
 20
9.706254332383565
  0
LINE
  5
1A9E3
330
1F
100
AcDbEntity
  8
TEXT
100
AcDbLine
 10
45.83961622391155
 20
17.5812526823839
 30
0.0
 11
44.66364879765832
 21
17.5812526823839
 31
0.0
  0
CIRCLE
  5
1A9E4
330
1F
100
AcDbEntity
  8
TEXT
100
AcDbCircle
 10
46.38375442429413
 20
17.5812526823839
 30
0.0
 40
0.5441382003825708
  0
TEXT
  5
1A9E5
330
1F
100
AcDbEntity
  8
TEXT
100
AcDbText
 10
46.07213095908267
 20
17.4012526823839
 30
0.0
 40
0.36
  1
13
 72
     1
 11
46.35183082265703
 21
17.5812526823839
 31
0.0
100
AcDbText
 73
     2
  0
LINE
  5
1A9E6
330
1F
100
AcDbEntity
  8
TEXT
100
AcDbLine
 10
33.99503562254822
 20
16.05265372326778
 30
0.0
 11
33.99503562254822
 21
14.87668629701477
 31
0.0
  0
CIRCLE
  5
1A9E7
330
1F
100
AcDbEntity
  8
TEXT
100
AcDbCircle
 10
33.99503562254822
 20
14.33254809663219
 30
0.0
 40
0.5441382003825708
  0
LWPOLYLINE
  5
1A9E8
330
1F
100
AcDbEntity
  8
0
100
AcDbPolyline
 90
        4
 70
     1
 43
0.0
 10
40.69661688255773
 20
21.95625433238354
 10
49.94661508255812
 20
21.95625433238356
 10
49.94661508255812
 20
22.20625433238359
 10
40.69661688255773
 20
22.20625433238357
  0
LWPOLYLINE
  5
1A9E9
330
1F
100
AcDbEntity
  8
0
100
AcDbPolyline
 90
        4
 70
     1
 43
0.0
 10
40.69661688255773
 20
15.20625313238381
 10
45.19661598255797
 20
15.20625313238383
 10
45.19661598255797
 20
15.45625313238381
 10
40.69661688255773
 20
15.45625313238378
  0
TEXT
  5
1A9EA
330
1F
100
AcDbEntity
  8
TEXT
100
AcDbText
 10
45.80225374216589
 20
16.57044326718918
 30
0.0
 40
0.36
  1
OPP.
 72
     1
 11
46.40315415144284
 21
16.75044326718918
 31
0.0
100
AcDbText
 73
     2
  0
LWPOLYLINE
  5
1A9EC
330
1F
100
AcDbEntity
  8
0
100
AcDbPolyline
 90
        4
 70
     1
 43
0.0
 10
35.94661778255753
 20
20.20625223238403
 10
40.44661688255784
 20
20.20625223238403
 10
40.44661688255784
 20
19.956252232384
 10
35.94661778255753
 20
19.956252232384
  0
LWPOLYLINE
  5
1A9ED
330
1F
100
AcDbEntity
  8
0
  6
DASHED
 48
2.0
100
AcDbPolyline
 90
        3
 70
     0
 43
0.0
 10
35.94661778255753
 20
19.956252232384
 10
40.44661688255784
 20
14.83125328238381
 10
35.94661778255753
 20
9.456254332383593
  0
LWPOLYLINE
  5
1A9EE
330
1F
100
AcDbEntity
  8
0
100
AcDbPolyline
 90
        4
 70
     1
 43
0.0
 10
40.69661688255773
 20
9.456254332383593
 10
49.94661508255812
 20
9.456254332383622
 10
49.94661508255812
 20
9.706254332383565
 10
40.69661688255773
 20
9.706254332383537
  0
LINE
  5
1A9EF
330
1F
100
AcDbEntity
  8
TEXT
100
AcDbLine
 10
47.69661553255802
 20
16.05265372326772
 30
0.0
 11
47.69661553255802
 21
14.87668629701474
 31
0.0
  0
CIRCLE
  5
1A9F0
330
1F
100
AcDbEntity
  8
TEXT
100
AcDbCircle
 10
47.69661553255802
 20
14.33254809663216
 30
0.0
 40
0.5441382003825708
  0
TEXT
  5
1A9F1
330
1F
100
AcDbEntity
  8
TEXT
100
AcDbText
 10
47.55676560077084
 20
14.15254809663216
 30
0.0
 40
0.36
  1
6
 72
     1
 11
47.69661553255802
 21
14.33254809663216
 31
0.0
100
AcDbText
 73
     2
  0
LWPOLYLINE
  5
1A9F2
330
1F
100
AcDbEntity
  8
0
100
AcDbPolyline
 90
        4
 70
     1
 43
0.0
 10
45.44661598255792
 20
15.20625313238381
 10
49.94661508255812
 20
15.20625313238383
 10
49.94661508255812
 20
15.45625313238381
 10
45.44661598255792
 20
15.45625313238378
  0
LINE
  5
1A9F3
330
1F
100
AcDbEntity
  8
TEXT
100
AcDbLine
 10
47.69661553255802
 20
10.30265492326748
 30
0.0
 11
47.69661553255802
 21
9.126687497014472
 31
0.0
  0
CIRCLE
  5
1A9F4
330
1F
100
AcDbEntity
  8
TEXT
100
AcDbCircle
 10
47.69661553255802
 20
8.582549296631896
 30
0.0
 40
0.5441382003825708
  0
TEXT
  5
1A9F5
330
1F
100
AcDbEntity
  8
TEXT
100
AcDbText
 10
47.41691566898366
 20
8.402549296631896
 30
0.0
 40
0.36
  1
10
 72
     1
 11
47.69661553255802
 21
8.582549296631896
 31
0.0
100
AcDbText
 73
     2
  0
LWPOLYLINE
  5
1A9F6
330
1F
100
AcDbEntity
  8
0
100
AcDbPolyline
 90
        4
 70
     1
 43
0.0
 10
35.94661778255753
 20
22.20625433238359
 10
40.44661688255784
 20
22.20625433238359
 10
40.44661688255784
 20
21.95625433238356
 10
35.94661778255753
 20
21.95625433238356
  0
LINE
  5
1A9F7
330
1F
100
AcDbEntity
  8
TEXT
100
AcDbLine
 10
35.26155974323835
 20
20.62128995398564
 30
0.0
 11
36.43752716949158
 21
20.62128995398564
 31
0.0
  0
CIRCLE
  5
1A9F8
330
1F
100
AcDbEntity
  8
TEXT
100
AcDbCircle
 10
34.71742154285577
 20
20.62128995398564
 30
0.0
 40
0.5441382003825708
  0
TEXT
  5
1A9F9
330
1F
100
AcDbEntity
  8
TEXT
100
AcDbText
 10
34.43772167928142
 20
20.44128995398564
 30
0.0
 40
0.36
  1
18
 72
     1
 11
34.71742154285577
 21
20.62128995398564
 31
0.0
100
AcDbText
 73
     2
  0
LINE
  5
1A9FA
330
1F
100
AcDbEntity
  8
TEXT
100
AcDbLine
 10
39.76155884323854
 20
20.62128995398564
 30
0.0
 11
40.93752626949178
 21
20.62128995398564
 31
0.0
  0
CIRCLE
  5
1A9FB
330
1F
100
AcDbEntity
  8
TEXT
100
AcDbCircle
 10
41.48166446987435
 20
20.62128995398564
 30
0.0
 40
0.5441382003825708
  0
TEXT
  5
1A9FC
330
1F
100
AcDbEntity
  8
TEXT
100
AcDbText
 10
41.2019646063
 20
20.44128995398564
 30
0.0
 40
0.36
  1
19
 72
     1
 11
41.48166446987435
 21
20.62128995398564
 31
0.0
100
AcDbText
 73
     2
  0
LINE
  5
1A9FD
330
1F
100
AcDbEntity
  8
TEXT
100
AcDbLine
 10
14.6357764776124
 20
48.36290774327522
 30
0.0
 11
15.81174390386564
 21
48.36290774327522
 31
0.0
  0
CIRCLE
  5
1A9FE
330
1F
100
AcDbEntity
  8
TEXT
100
AcDbCircle
 10
14.09163827722982
 20
48.36290774327522
 30
0.0
 40
0.5441382003825708
  0
TEXT
  5
1A9FF
330
1F
100
AcDbEntity
  8
TEXT
100
AcDbText
 10
13.81193841365547
 20
48.18290774327523
 30
0.0
 40
0.36
  1
13
 72
     1
 11
14.09163827722982
 21
48.36290774327522
 31
0.0
100
AcDbText
 73
     2
  0
LINE
  5
1AA00
330
1F
100
AcDbEntity
  8
TEXT
100
AcDbLine
 10
18.32327572761254
 20
48.36290774327522
 30
0.0
 11
19.49924315386578
 21
48.36290774327522
 31
0.0
  0
CIRCLE
  5
1AA01
330
1F
100
AcDbEntity
  8
TEXT
100
AcDbCircle
 10
17.77913752722997
 20
48.36290774327522
 30
0.0
 40
0.5441382003825708
  0
TEXT
  5
1AA02
330
1F
100
AcDbEntity
  8
TEXT
100
AcDbText
 10
17.49943766365562
 20
48.18290774327523
 30
0.0
 40
0.36
  1
13
 72
     1
 11
17.77913752722997
 21
48.36290774327522
 31
0.0
100
AcDbText
 73
     2
  0
LINE
  5
1AA03
330
1F
100
AcDbEntity
  8
TEXT
100
AcDbLine
 10
22.01077497761269
 20
48.36290774327522
 30
0.0
 11
23.18674240386593
 21
48.36290774327522
 31
0.0
  0
CIRCLE
  5
1AA04
330
1F
100
AcDbEntity
  8
TEXT
100
AcDbCircle
 10
21.46663677723012
 20
48.36290774327522
 30
0.0
 40
0.5441382003825708
  0
TEXT
  5
1AA05
330
1F
100
AcDbEntity
  8
TEXT
100
AcDbText
 10
21.18693691365576
 20
48.18290774327523
 30
0.0
 40
0.36
  1
14
 72
     1
 11
21.46663677723012
 21
48.36290774327522
 31
0.0
100
AcDbText
 73
     2
  0
LINE
  5
1AA06
330
1F
100
AcDbEntity
  8
TEXT
100
AcDbLine
 10
27.86139025812951
 20
49.74640114771853
 30
0.0
 11
26.68542283187627
 21
49.74640114771853
 31
0.0
  0
CIRCLE
  5
1AA07
330
1F
100
AcDbEntity
  8
TEXT
100
AcDbCircle
 10
28.40552845851209
 20
49.74640114771853
 30
0.0
 40
0.5441382003825708
  0
TEXT
  5
1AA08
330
1F
100
AcDbEntity
  8
TEXT
100
AcDbText
 10
28.09390499330064
 20
49.56640114771853
 30
0.0
 40
0.36
  1
13
 72
     1
 11
28.37360485687499
 21
49.74640114771853
 31
0.0
100
AcDbText
 73
     2
  0
LINE
  5
1AA09
330
1F
100
AcDbEntity
  8
TEXT
100
AcDbLine
 10
32.61138935812965
 20
49.74640114771847
 30
0.0
 11
31.43542193187641
 21
49.74640114771847
 31
0.0
  0
CIRCLE
  5
1AA0A
330
1F
100
AcDbEntity
  8
TEXT
100
AcDbCircle
 10
33.15552755851223
 20
49.74640114771847
 30
0.0
 40
0.5441382003825708
  0
TEXT
  5
1AA0B
330
1F
100
AcDbEntity
  8
TEXT
100
AcDbText
 10
32.84390409330077
 20
49.56640114771847
 30
0.0
 40
0.36
  1
13
 72
     1
 11
33.12360395687512
 21
49.74640114771847
 31
0.0
100
AcDbText
 73
     2
  0
LINE
  5
1AA0C
330
1F
100
AcDbEntity
  8
TEXT
100
AcDbLine
 10
36.20553300606053
 20
49.74640114771853
 30
0.0
 11
37.38150043231377
 21
49.74640114771853
 31
0.0
  0
CIRCLE
  5
1AA0D
330
1F
100
AcDbEntity
  8
TEXT
100
AcDbCircle
 10
37.92563863269634
 20
49.74640114771853
 30
0.0
 40
0.5441382003825708
  0
TEXT
  5
1AA0E
330
1F
100
AcDbEntity
  8
TEXT
100
AcDbText
 10
37.64593876912199
 20
49.56640114771853
 30
0.0
 40
0.36
  1
12
 72
     1
 11
37.92563863269634
 21
49.74640114771853
 31
0.0
100
AcDbText
 73
     2
  0
LINE
  5
1AA0F
330
1F
100
AcDbEntity
  8
TEXT
100
AcDbLine
 10
29.69583166693217
 20
52.97288504935043
 30
0.0
 11
29.69583166693217
 21
54.14885247560366
 31
0.0
  0
CIRCLE
  5
1AA10
330
1F
100
AcDbEntity
  8
TEXT
100
AcDbCircle
 10
29.69583166693217
 20
54.69299067598623
 30
0.0
 40
0.5441382003825708
  0
TEXT
  5
1AA11
330
1F
100
AcDbEntity
  8
TEXT
100
AcDbText
 10
29.555981735145
 20
54.51299067598624
 30
0.0
 40
0.36
  1
1
 72
     1
 11
29.69583166693217
 21
54.69299067598623
 31
0.0
100
AcDbText
 73
     2
  0
LINE
  5
1AA12
330
1F
100
AcDbEntity
  8
TEXT
100
AcDbLine
 10
29.69583166693217
 20
45.47288654935011
 30
0.0
 11
29.69583166693217
 21
46.64885397560334
 31
0.0
  0
CIRCLE
  5
1AA13
330
1F
100
AcDbEntity
  8
TEXT
100
AcDbCircle
 10
29.69583166693217
 20
47.19299217598591
 30
0.0
 40
0.5441382003825708
  0
TEXT
  5
1AA14
330
1F
100
AcDbEntity
  8
TEXT
100
AcDbText
 10
29.555981735145
 20
47.01299217598592
 30
0.0
 40
0.36
  1
6
 72
     1
 11
29.69583166693217
 21
47.19299217598591
 31
0.0
100
AcDbText
 73
     2
  0
LINE
  5
1AA15
330
1F
100
AcDbEntity
  8
TEXT
100
AcDbLine
 10
29.69583166693217
 20
42.45914523847949
 30
0.0
 11
29.69583166693217
 21
43.63511266473273
 31
0.0
  0
CIRCLE
  5
1AA16
330
1F
100
AcDbEntity
  8
TEXT
100
AcDbCircle
 10
29.69583166693217
 20
41.91500703809694
 30
0.0
 40
0.5441382003825708
  0
TEXT
  5
1AA17
330
1F
100
AcDbEntity
  8
TEXT
100
AcDbText
 10
29.41613180335782
 20
41.73500703809694
 30
0.0
 40
0.36
  1
10
 72
     1
 11
29.69583166693217
 21
41.91500703809694
 31
0.0
100
AcDbText
 73
     2
  0
LINE
  5
1AA18
330
1F
100
AcDbEntity
  8
TEXT
100
AcDbLine
 10
38.19661733255769
 20
21.3013369119181
 30
0.0
 11
38.19661733255769
 21
22.47730433817133
 31
0.0
  0
CIRCLE
  5
1AA19
330
1F
100
AcDbEntity
  8
TEXT
100
AcDbCircle
 10
38.19661733255769
 20
23.02144253855392
 30
0.0
 40
0.5441382003825708
  0
TEXT
  5
1AA1A
330
1F
100
AcDbEntity
  8
TEXT
100
AcDbText
 10
38.05676740077051
 20
22.84144253855391
 30
0.0
 40
0.36
  1
1
 72
     1
 11
38.19661733255769
 21
23.02144253855392
 31
0.0
100
AcDbText
 73
     2
  0
LINE
  5
1AA1B
330
1F
100
AcDbEntity
  8
TEXT
100
AcDbLine
 10
38.19661733255769
 20
19.2917809494383
 30
0.0
 11
38.19661733255769
 21
20.46774837569154
 31
0.0
  0
CIRCLE
  5
1AA1C
330
1F
100
AcDbEntity
  8
TEXT
100
AcDbCircle
 10
38.19661733255769
 20
18.74764274905573
 30
0.0
 40
0.5441382003825708
  0
TEXT
  5
1AA1D
330
1F
100
AcDbEntity
  8
TEXT
100
AcDbText
 10
37.83317940622754
 20
18.56764274905573
 30
0.0
 40
0.36
  1
7-9
 72
     1
 11
38.19661733255769
 21
18.74764274905573
 31
0.0
100
AcDbText
 73
     2
  0
LINE
  5
1AA1E
330
1F
100
AcDbEntity
  8
TEXT
100
AcDbLine
 10
33.97786815755754
 20
21.3013369119181
 30
0.0
 11
33.97786815755754
 21
22.47730433817133
 31
0.0
  0
CIRCLE
  5
1AA1F
330
1F
100
AcDbEntity
  8
TEXT
100
AcDbCircle
 10
33.97786815755754
 20
23.02144253855392
 30
0.0
 40
0.5441382003825708
  0
TEXT
  5
1AA20
330
1F
100
AcDbEntity
  8
TEXT
100
AcDbText
 10
33.83801822577037
 20
22.84144253855391
 30
0.0
 40
0.36
  1
1
 72
     1
 11
33.97786815755754
 21
23.02144253855392
 31
0.0
100
AcDbText
 73
     2
  0
LINE
  5
1AA21
330
1F
100
AcDbEntity
  8
TEXT
100
AcDbLine
 10
47.69661553255802
 20
21.3013369119181
 30
0.0
 11
47.69661553255802
 21
22.47730433817133
 31
0.0
  0
CIRCLE
  5
1AA22
330
1F
100
AcDbEntity
  8
TEXT
100
AcDbCircle
 10
47.69661553255802
 20
23.02144253855392
 30
0.0
 40
0.5441382003825708
  0
TEXT
  5
1AA23
330
1F
100
AcDbEntity
  8
TEXT
100
AcDbText
 10
47.55676560077084
 20
22.84144253855391
 30
0.0
 40
0.36
  1
1
 72
     1
 11
47.69661553255802
 21
23.02144253855392
 31
0.0
100
AcDbText
 73
     2
  0
LINE
  5
1AA24
330
1F
100
AcDbEntity
  8
TEXT
100
AcDbLine
 10
42.94661643255785
 20
16.04423684551028
 30
0.0
 11
42.94661643255785
 21
14.86826941925727
 31
0.0
  0
CIRCLE
  5
1AA25
330
1F
100
AcDbEntity
  8
TEXT
100
AcDbCircle
 10
42.94661643255785
 20
14.3241312188747
 30
0.0
 40
0.5441382003825708
  0
TEXT
  5
1AA26
330
1F
100
AcDbEntity
  8
TEXT
100
AcDbText
 10
42.63867645984298
 20
14.1441312188747
 30
0.0
 40
0.36
  1
6A
 72
     1
 11
42.94661643255785
 21
14.3241312188747
 31
0.0
100
AcDbText
 73
     2
  0
LINE
  5
1AA73
330
1F
100
AcDbEntity
  8
TEXT
100
AcDbLine
 10
20.64311341178364
 20
42.45914523847949
 30
0.0
 11
20.64311341178364
 21
43.63511266473273
 31
0.0
  0
CIRCLE
  5
1AA74
330
1F
100
AcDbEntity
  8
TEXT
100
AcDbCircle
 10
20.64311341178364
 20
41.91500703809694
 30
0.0
 40
0.5441382003825708
  0
TEXT
  5
1AA75
330
1F
100
AcDbEntity
  8
TEXT
100
AcDbText
 10
20.36341354820929
 20
41.73500703809694
 30
0.0
 40
0.36
  1
10
 72
     1
 11
20.64311341178364
 21
41.91500703809694
 31
0.0
100
AcDbText
 73
     2
  0
TEXT
  5
1AA77
330
1F
100
AcDbEntity
  8
TEXT
100
AcDbText
 10
70.09228096799069
 20
32.38588743592823
 30
0.0
 40
0.36
  1
5A
 72
     1
 11
70.40022094070557
 21
32.56588743592824
 31
0.0
100
AcDbText
 73
     2
  0
TEXT
  5
1AA78
330
1F
100
AcDbEntity
  8
TEXT
100
AcDbText
 10
47.13901004957321
 20
32.38588743592823
 30
0.0
 40
0.36
  1
5A
 72
     1
 11
47.44695002228808
 21
32.56588743592824
 31
0.0
100
AcDbText
 73
     2
  0
TEXT
  5
1AA79
330
1F
100
AcDbEntity
  8
TEXT
100
AcDbText
 10
56.87296221239655
 20
47.68420255752361
 30
0.0
 40
0.36
  1
5A
 72
     1
 11
57.18090218511142
 21
47.86420255752361
 31
0.0
100
AcDbText
 73
     2
  0
TEXT
  5
1AA7A
330
1F
100
AcDbEntity
  8
TEXT
100
AcDbText
 10
33.68709564983336
 20
14.15254809663219
 30
0.0
 40
0.36
  1
5A
 72
     1
 11
33.99503562254822
 21
14.33254809663219
 31
0.0
100
AcDbText
 73
     2
  0
TEXT
  5
1AA7C
330
1F
100
AcDbEntity
  8
TEXT
100
AcDbText
 10
26.40148479695787
 20
46.47788354183644
 30
0.0
 40
0.36
  1
SS
 72
     1
 11
26.73692818031395
 21
46.65788354183644
 31
0.0
100
AcDbText
 73
     2
  0
TEXT
  5
1AA7D
330
1F
100
AcDbEntity
  8
TEXT
100
AcDbText
 10
27.59049103527824
 20
46.47788354183644
 30
0.0
 40
0.36
  1
SS
 72
     1
 11
27.92593441863431
 21
46.65788354183644
 31
0.0
100
AcDbText
 73
     2
  0
LINE
  5
1AA80
330
1F
100
AcDbEntity
  8
TEXT
100
AcDbLine
 10
46.09285225656035
 20
49.58430818415919
 30
0.0
 11
46.09285225656035
 21
48.40834075790619
 31
0.0
  0
CIRCLE
  5
1AA81
330
1F
100
AcDbEntity
  8
TEXT
100
AcDbCircle
 10
46.09285225656035
 20
47.86420255752361
 30
0.0
 40
0.5441382003825708
  0
TEXT
  5
1AA82
330
1F
100
AcDbEntity
  8
TEXT
100
AcDbText
 10
45.95300232477318
 20
47.68420255752361
 30
0.0
 40
0.36
  1
5
 72
     1
 11
46.09285225656035
 21
47.86420255752361
 31
0.0
100
AcDbText
 73
     2
  0
LINE
  5
1AA83
330
1F
100
AcDbEntity
  8
TEXT
100
AcDbLine
 10
9.727516525710761
 20
34.28599306256382
 30
0.0
 11
9.727516525710761
 21
33.11002563631081
 31
0.0
  0
CIRCLE
  5
1AA84
330
1F
100
AcDbEntity
  8
TEXT
100
AcDbCircle
 10
9.727516525710761
 20
32.56588743592824
 30
0.0
 40
0.5441382003825708
  0
TEXT
  5
1AA85
330
1F
100
AcDbEntity
  8
TEXT
100
AcDbText
 10
9.587666593923586
 20
32.38588743592823
 30
0.0
 40
0.36
  1
5
 72
     1
 11
9.727516525710761
 21
32.56588743592824
 31
0.0
100
AcDbText
 73
     2
  0
LINE
  5
1AA86
330
1F
100
AcDbEntity
  8
TEXT
100
AcDbLine
 10
43.60153767713618
 20
34.28599306256382
 30
0.0
 11
43.60153767713618
 21
33.11002563631081
 31
0.0
  0
CIRCLE
  5
1AA87
330
1F
100
AcDbEntity
  8
TEXT
100
AcDbCircle
 10
43.60153767713618
 20
32.56588743592824
 30
0.0
 40
0.5441382003825708
  0
TEXT
  5
1AA88
330
1F
100
AcDbEntity
  8
TEXT
100
AcDbText
 10
43.46168774534901
 20
32.38588743592823
 30
0.0
 40
0.36
  1
5
 72
     1
 11
43.60153767713618
 21
32.56588743592824
 31
0.0
100
AcDbText
 73
     2
  0
LINE
  5
1AA89
330
1F
100
AcDbEntity
  8
TEXT
100
AcDbLine
 10
56.40915374237605
 20
34.28599306256382
 30
0.0
 11
56.40915374237605
 21
33.11002563631081
 31
0.0
  0
CIRCLE
  5
1AA8A
330
1F
100
AcDbEntity
  8
TEXT
100
AcDbCircle
 10
56.40915374237605
 20
32.56588743592824
 30
0.0
 40
0.5441382003825708
  0
TEXT
  5
1AA8B
330
1F
100
AcDbEntity
  8
TEXT
100
AcDbText
 10
56.10121376966118
 20
32.38588743592823
 30
0.0
 40
0.36
  1
5A
 72
     1
 11
56.40915374237605
 21
32.56588743592824
 31
0.0
100
AcDbText
 73
     2
  0
LINE
  5
1AA8C
330
1F
100
AcDbEntity
  8
TEXT
100
AcDbLine
 10
42.97648411163929
 20
10.30265492326748
 30
0.0
 11
42.97648411163929
 21
9.126687497014472
 31
0.0
  0
CIRCLE
  5
1AA8D
330
1F
100
AcDbEntity
  8
TEXT
100
AcDbCircle
 10
42.97648411163929
 20
8.582549296631896
 30
0.0
 40
0.5441382003825708
  0
TEXT
  5
1AA8E
330
1F
100
AcDbEntity
  8
TEXT
100
AcDbText
 10
42.52869420713724
 20
8.402549296631896
 30
0.0
 40
0.36
  1
10A
 72
     1
 11
42.97648411163929
 21
8.582549296631896
 31
0.0
100
AcDbText
 73
     2
  0
LINE
  5
1AA8F
330
1F
100
AcDbEntity
  8
TEXT
100
AcDbLine
 10
66.28721287971953
 20
43.83430938415893
 30
0.0
 11
66.28721287971953
 21
42.65834195790591
 31
0.0
  0
CIRCLE
  5
1AA90
330
1F
100
AcDbEntity
  8
TEXT
100
AcDbCircle
 10
66.28721287971953
 20
42.11420375752334
 30
0.0
 40
0.5441382003825708
  0
TEXT
  5
1AA91
330
1F
100
AcDbEntity
  8
TEXT
100
AcDbText
 10
65.83942297521748
 20
41.93420375752334
 30
0.0
 40
0.36
  1
10A
 72
     1
 11
66.28721287971953
 21
42.11420375752334
 31
0.0
100
AcDbText
 73
     2
  0
LINE
  5
1AA92
330
1F
100
AcDbEntity
  8
TEXT
100
AcDbLine
 10
25.64159609597441
 20
21.03090079782948
 30
0.0
 11
26.81756352222765
 21
21.03090079782948
 31
0.0
  0
CIRCLE
  5
1AA93
330
1F
100
AcDbEntity
  8
TEXT
100
AcDbCircle
 10
27.36170172261023
 20
21.03090079782948
 30
0.0
 40
0.5441382003825708
  0
TEXT
  5
1AA94
330
1F
100
AcDbEntity
  8
TEXT
100
AcDbText
 10
27.08200185903588
 20
20.85090079782947
 30
0.0
 40
0.36
  1
20
 72
     1
 11
27.36170172261023
 21
21.03090079782948
 31
0.0
100
AcDbText
 73
     2
  0
TEXT
  5
1AA95
330
1F
100
AcDbEntity
  8
TEXT
100
AcDbText
 10
26.76080131333328
 20
20.02009138263475
 30
0.0
 40
0.36
  1
OPP.
 72
     1
 11
27.36170172261023
 21
20.20009138263475
 31
0.0
100
AcDbText
 73
     2
  0
LINE
  5
1AA96
330
1F
100
AcDbEntity
  8
TEXT
100
AcDbLine
 10
35.26155974323835
 20
12.10735515950361
 30
0.0
 11
36.43752716949158
 21
12.10735515950361
 31
0.0
  0
CIRCLE
  5
1AA97
330
1F
100
AcDbEntity
  8
TEXT
100
AcDbCircle
 10
34.71742154285577
 20
12.10735515950361
 30
0.0
 40
0.5441382003825708
  0
TEXT
  5
1AA98
330
1F
100
AcDbEntity
  8
TEXT
100
AcDbText
 10
34.43772167928142
 20
11.92735515950361
 30
0.0
 40
0.36
  1
15
 72
     1
 11
34.71742154285577
 21
12.10735515950361
 31
0.0
100
AcDbText
 73
     2
  0
LWPOLYLINE
  5
1AA99
330
1F
100
AcDbEntity
  8
0
100
AcDbPolyline
 90
        4
 70
     1
 43
0.0
 10
60.19267223853964
 20
20.20625223238403
 10
64.69267133854007
 20
20.20625223238403
 10
64.69267133854007
 20
19.956252232384
 10
60.19267223853964
 20
19.956252232384
  0
LWPOLYLINE
  5
1AA9A
330
1F
100
AcDbEntity
  8
0
100
AcDbPolyline
 90
        4
 70
     1
 43
0.0
 10
60.19267223853964
 20
20.20625223238403
 10
59.94267223853976
 20
20.20625223238403
 10
59.94267223853976
 20
9.456254332383593
 10
60.19267223853964
 20
9.456254332383593
  0
LWPOLYLINE
  5
1AA9B
330
1F
100
AcDbEntity
  8
0
100
AcDbPolyline
 90
        4
 70
     1
 43
0.0
 10
64.69267133854007
 20
20.20625223238403
 10
64.94267133853995
 20
20.20625223238403
 10
64.94267133853995
 20
9.456254332383593
 10
64.69267133854007
 20
9.456254332383593
  0
LWPOLYLINE
  5
1AA9C
330
1F
100
AcDbEntity
  8
0
  6
DASHED
 48
2.0
100
AcDbPolyline
 90
        3
 70
     0
 43
0.0
 10
60.19267223853964
 20
19.956252232384
 10
64.69267133853995
 20
14.83125328238381
 10
60.19267223853964
 20
9.456254332383593
  0
LINE
  5
1AA9D
330
1F
100
AcDbEntity
  8
TEXT
100
AcDbLine
 10
59.57799441371432
 20
16.19166220994111
 30
0.0
 11
60.75396183996756
 21
16.19166220994111
 31
0.0
  0
CIRCLE
  5
1AA9E
330
1F
100
AcDbEntity
  8
TEXT
100
AcDbCircle
 10
59.03385621333175
 20
16.19166220994111
 30
0.0
 40
0.5441382003825708
  0
TEXT
  5
1AA9F
330
1F
100
AcDbEntity
  8
TEXT
100
AcDbText
 10
58.75415634975739
 20
16.01166220994111
 30
0.0
 40
0.36
  1
22
 72
     1
 11
59.03385621333175
 21
16.19166220994111
 31
0.0
100
AcDbText
 73
     2
  0
LINE
  5
1AAA0
330
1F
100
AcDbEntity
  8
TEXT
100
AcDbLine
 10
64.06438940992936
 20
16.19166220994111
 30
0.0
 11
65.2403568361826
 21
16.19166220994111
 31
0.0
  0
CIRCLE
  5
1AAA1
330
1F
100
AcDbEntity
  8
TEXT
100
AcDbCircle
 10
65.78449503656518
 20
16.19166220994111
 30
0.0
 40
0.5441382003825708
  0
TEXT
  5
1AAA2
330
1F
100
AcDbEntity
  8
TEXT
100
AcDbText
 10
65.50479517299082
 20
16.01166220994111
 30
0.0
 40
0.36
  1
15
 72
     1
 11
65.78449503656518
 21
16.19166220994111
 31
0.0
100
AcDbText
 73
     2
  0
TEXT
  5
1AAA3
330
1F
100
AcDbEntity
  8
TEXT
100
AcDbText
 10
65.18359462728823
 20
15.18085279474639
 30
0.0
 40
0.36
  1
OPP.
 72
     1
 11
65.78449503656518
 21
15.36085279474639
 31
0.0
100
AcDbText
 73
     2
  0
LINE
  5
1AAA4
330
1F
100
AcDbEntity
  8
TEXT
100
AcDbLine
 10
75.7487412893266
 20
21.3013369119181
 30
0.0
 11
75.7487412893266
 21
22.47730433817133
 31
0.0
  0
CIRCLE
  5
1AAA5
330
1F
100
AcDbEntity
  8
TEXT
100
AcDbCircle
 10
75.7487412893266
 20
23.02144253855392
 30
0.0
 40
0.5441382003825708
  0
TEXT
  5
1AAA6
330
1F
100
AcDbEntity
  8
TEXT
100
AcDbText
 10
75.60889135753942
 20
22.84144253855391
 30
0.0
 40
0.36
  1
1
 72
     1
 11
75.7487412893266
 21
23.02144253855392
 31
0.0
100
AcDbText
 73
     2
  0
LWPOLYLINE
  5
1AAA7
330
1F
100
AcDbEntity
  8
0
100
AcDbPolyline
 90
        4
 70
     1
 43
0.0
 10
75.8737412893266
 20
19.956252232384
 10
75.62374128932671
 20
19.956252232384
 10
75.62374128932671
 20
9.456254332383593
 10
75.8737412893266
 20
9.456254332383593
  0
LWPOLYLINE
  5
1AAA8
330
1F
100
AcDbEntity
  8
0
100
AcDbPolyline
 90
        4
 70
     1
 43
0.0
 10
80.37374038932691
 20
22.20625433238359
 10
80.62374038932691
 20
22.20625433238359
 10
80.62374038932691
 20
9.456254332383593
 10
80.37374038932691
 20
9.456254332383593
  0
LWPOLYLINE
  5
1AAA9
330
1F
100
AcDbEntity
  8
0
  6
DASHED
 48
2.0
100
AcDbPolyline
 90
        3
 70
     0
 43
0.0
 10
75.8737412893266
 20
19.956252232384
 10
80.37374038932686
 20
14.83125328238381
 10
75.8737412893266
 20
9.456254332383593
  0
LINE
  5
1AAAA
330
1F
100
AcDbEntity
  8
TEXT
100
AcDbLine
 10
75.25906346450128
 20
16.19166220994111
 30
0.0
 11
76.43503089075451
 21
16.19166220994111
 31
0.0
  0
CIRCLE
  5
1AAAB
330
1F
100
AcDbEntity
  8
TEXT
100
AcDbCircle
 10
74.71492526411871
 20
16.19166220994111
 30
0.0
 40
0.5441382003825708
  0
TEXT
  5
1AAAC
330
1F
100
AcDbEntity
  8
TEXT
100
AcDbText
 10
74.43522540054435
 20
16.01166220994111
 30
0.0
 40
0.36
  1
22
 72
     1
 11
74.71492526411871
 21
16.19166220994111
 31
0.0
100
AcDbText
 73
     2
  0
LINE
  5
1AAAD
330
1F
100
AcDbEntity
  8
TEXT
100
AcDbLine
 10
79.7454584607162
 20
16.19166220994111
 30
0.0
 11
80.92142588696944
 21
16.19166220994111
 31
0.0
  0
CIRCLE
  5
1AAAE
330
1F
100
AcDbEntity
  8
TEXT
100
AcDbCircle
 10
81.46556408735202
 20
16.19166220994111
 30
0.0
 40
0.5441382003825708
  0
TEXT
  5
1AAAF
330
1F
100
AcDbEntity
  8
TEXT
100
AcDbText
 10
81.18586422377767
 20
16.01166220994111
 30
0.0
 40
0.36
  1
15
 72
     1
 11
81.46556408735202
 21
16.19166220994111
 31
0.0
100
AcDbText
 73
     2
  0
TEXT
  5
1AAB0
330
1F
100
AcDbEntity
  8
TEXT
100
AcDbText
 10
80.86466367807508
 20
15.18085279474639
 30
0.0
 40
0.36
  1
OPP.
 72
     1
 11
81.46556408735202
 21
15.36085279474639
 31
0.0
100
AcDbText
 73
     2
  0
LINE
  5
1AAB1
330
1F
100
AcDbEntity
  8
TEXT
100
AcDbLine
 10
78.12374083932681
 20
19.2917809494383
 30
0.0
 11
78.12374083932681
 21
20.46774837569154
 31
0.0
  0
CIRCLE
  5
1AAB2
330
1F
100
AcDbEntity
  8
TEXT
100
AcDbCircle
 10
78.12374083932681
 20
18.74764274905573
 30
0.0
 40
0.5441382003825708
  0
TEXT
  5
1AAB3
330
1F
100
AcDbEntity
  8
TEXT
100
AcDbText
 10
77.76030291299666
 20
18.56764274905573
 30
0.0
 40
0.36
  1
7-9
 72
     1
 11
78.12374083932681
 21
18.74764274905573
 31
0.0
100
AcDbText
 73
     2
  0
LWPOLYLINE
  5
1AAB4
330
1F
100
AcDbEntity
  8
0
100
AcDbPolyline
 90
        4
 70
     1
 43
0.0
 10
59.94267223853976
 20
20.20625223238403
 10
55.44267313853945
 20
20.20625223238403
 10
55.44267313853945
 20
19.956252232384
 10
59.94267223853976
 20
19.956252232384
  0
LWPOLYLINE
  5
1AAB5
330
1F
100
AcDbEntity
  8
0
100
AcDbPolyline
 90
        4
 70
     1
 43
0.0
 10
55.44267313853945
 20
20.20625223238403
 10
55.19267313853944
 20
20.20625223238403
 10
55.19267313853944
 20
9.456254332383593
 10
55.44267313853945
 20
9.456254332383593
  0
LWPOLYLINE
  5
1AAB6
330
1F
100
AcDbEntity
  8
0
  6
DASHED
 48
2.0
100
AcDbPolyline
 90
        3
 70
     0
 43
0.0
 10
59.94267223853976
 20
19.956252232384
 10
55.4426731385395
 20
14.83125328238381
 10
58.67531425226886
 20
10.97004304524802
  0
LINE
  5
1AAB7
330
1F
100
AcDbEntity
  8
TEXT
100
AcDbLine
 10
54.82799531371401
 20
16.19166220994111
 30
0.0
 11
56.00396273996725
 21
16.19166220994111
 31
0.0
  0
CIRCLE
  5
1AAB8
330
1F
100
AcDbEntity
  8
TEXT
100
AcDbCircle
 10
54.28385711333143
 20
16.19166220994111
 30
0.0
 40
0.5441382003825708
  0
TEXT
  5
1AAB9
330
1F
100
AcDbEntity
  8
TEXT
100
AcDbText
 10
54.00415724975708
 20
16.01166220994111
 30
0.0
 40
0.36
  1
15
 72
     1
 11
54.28385711333143
 21
16.19166220994111
 31
0.0
100
AcDbText
 73
     2
  0
LWPOLYLINE
  5
1AABA
330
1F
100
AcDbEntity
  8
0
100
AcDbPolyline
 90
        4
 70
     1
 43
0.0
 10
80.37374038932691
 20
20.20625223238403
 10
71.12374218932629
 20
20.20625223238403
 10
71.12374218932629
 20
19.956252232384
 10
80.37374038932691
 20
19.956252232384
  0
LWPOLYLINE
  5
1AABB
330
1F
100
AcDbEntity
  8
0
100
AcDbPolyline
 90
        4
 70
     1
 43
0.0
 10
80.37374038932691
 20
22.20625433238359
 10
71.12374218932629
 20
22.20625433238359
 10
71.12374218932629
 20
21.95625433238356
 10
80.37374038932691
 20
21.95625433238356
  0
LWPOLYLINE
  5
1AABC
330
1F
100
AcDbEntity
  8
0
100
AcDbPolyline
 90
        4
 70
     1
 43
0.0
 10
71.12374218932629
 20
22.20625433238359
 10
70.87374218932641
 20
22.20625433238359
 10
70.87374218932641
 20
9.456254332383593
 10
71.12374218932629
 20
9.456254332383593
  0
LWPOLYLINE
  5
1AABD
330
1F
100
AcDbEntity
  8
0
  6
DASHED
 48
2.0
100
AcDbPolyline
 90
        3
 70
     0
 43
0.0
 10
75.62374128932671
 20
19.956252232384
 10
71.1237421893264
 20
14.83125328238381
 10
74.31667846830068
 20
11.01746826475944
  0
LINE
  5
1AABE
330
1F
100
AcDbEntity
  8
TEXT
100
AcDbLine
 10
70.50906436450097
 20
16.19166220994111
 30
0.0
 11
71.68503179075421
 21
16.19166220994111
 31
0.0
  0
CIRCLE
  5
1AABF
330
1F
100
AcDbEntity
  8
TEXT
100
AcDbCircle
 10
69.96492616411839
 20
16.19166220994111
 30
0.0
 40
0.5441382003825708
  0
TEXT
  5
1AAC0
330
1F
100
AcDbEntity
  8
TEXT
100
AcDbText
 10
69.68522630054405
 20
16.01166220994111
 30
0.0
 40
0.36
  1
15
 72
     1
 11
69.96492616411839
 21
16.19166220994111
 31
0.0
100
AcDbText
 73
     2
  0
LINE
  5
1AAC1
330
1F
100
AcDbEntity
  8
TEXT
100
AcDbLine
 10
70.50906436450097
 20
21.03090079782948
 30
0.0
 11
71.68503179075421
 21
21.03090079782948
 31
0.0
  0
CIRCLE
  5
1AAC2
330
1F
100
AcDbEntity
  8
TEXT
100
AcDbCircle
 10
69.96492616411839
 20
21.03090079782948
 30
0.0
 40
0.5441382003825708
  0
TEXT
  5
1AAC3
330
1F
100
AcDbEntity
  8
TEXT
100
AcDbText
 10
69.68522630054405
 20
20.85090079782947
 30
0.0
 40
0.36
  1
20
 72
     1
 11
69.96492616411839
 21
21.03090079782948
 31
0.0
100
AcDbText
 73
     2
  0
LWPOLYLINE
  5
1AAC4
330
1F
100
AcDbEntity
  8
0
100
AcDbPolyline
 90
        4
 70
     1
 43
0.0
 10
91.55481034011367
 20
20.20625223238403
 10
96.05480944011388
 20
20.20625223238403
 10
96.05480944011388
 20
19.956252232384
 10
91.55481034011367
 20
19.956252232384
  0
LINE
  5
1AAC5
330
1F
100
AcDbEntity
  8
TEXT
100
AcDbLine
 10
94.57281643020307
 20
21.3013369119181
 30
0.0
 11
94.57281643020307
 21
22.47730433817133
 31
0.0
  0
CIRCLE
  5
1AAC6
330
1F
100
AcDbEntity
  8
TEXT
100
AcDbCircle
 10
94.57281643020307
 20
23.02144253855392
 30
0.0
 40
0.5441382003825708
  0
TEXT
  5
1AAC7
330
1F
100
AcDbEntity
  8
TEXT
100
AcDbText
 10
94.43296649841588
 20
22.84144253855391
 30
0.0
 40
0.36
  1
1
 72
     1
 11
94.57281643020307
 21
23.02144253855392
 31
0.0
100
AcDbText
 73
     2
  0
LWPOLYLINE
  5
1AAC8
330
1F
100
AcDbEntity
  8
0
100
AcDbPolyline
 90
        4
 70
     1
 43
0.0
 10
91.55481034011344
 20
21.95625433238356
 10
91.30481034011356
 20
21.95625433238356
 10
91.30481034011356
 20
9.456254332383593
 10
91.55481034011344
 20
9.456254332383593
  0
LWPOLYLINE
  5
1AAC9
330
1F
100
AcDbEntity
  8
0
100
AcDbPolyline
 90
        4
 70
     1
 43
0.0
 10
96.05480944011388
 20
22.20625433238359
 10
96.30480944011376
 20
22.20625433238359
 10
96.30480944011376
 20
9.456254332383593
 10
96.05480944011388
 20
9.456254332383593
  0
LWPOLYLINE
  5
1AACA
330
1F
100
AcDbEntity
  8
0
  6
DASHED
 48
2.0
100
AcDbPolyline
 90
        3
 70
     0
 43
0.0
 10
91.55481034011344
 20
19.956252232384
 10
96.05480944011375
 20
14.83125328238381
 10
91.55481034011344
 20
9.456254332383593
  0
LINE
  5
1AACB
330
1F
100
AcDbEntity
  8
TEXT
100
AcDbLine
 10
90.94013251528812
 20
16.19166220994111
 30
0.0
 11
92.11609994154136
 21
16.19166220994111
 31
0.0
  0
CIRCLE
  5
1AACC
330
1F
100
AcDbEntity
  8
TEXT
100
AcDbCircle
 10
90.39599431490556
 20
16.19166220994111
 30
0.0
 40
0.5441382003825708
  0
TEXT
  5
1AACD
330
1F
100
AcDbEntity
  8
TEXT
100
AcDbText
 10
90.1162944513312
 20
16.01166220994111
 30
0.0
 40
0.36
  1
22
 72
     1
 11
90.39599431490556
 21
16.19166220994111
 31
0.0
100
AcDbText
 73
     2
  0
LINE
  5
1AACE
330
1F
100
AcDbEntity
  8
TEXT
100
AcDbLine
 10
95.42652751150317
 20
16.19166220994111
 30
0.0
 11
96.60249493775641
 21
16.19166220994111
 31
0.0
  0
CIRCLE
  5
1AACF
330
1F
100
AcDbEntity
  8
TEXT
100
AcDbCircle
 10
97.14663313813899
 20
16.19166220994111
 30
0.0
 40
0.5441382003825708
  0
TEXT
  5
1AAD0
330
1F
100
AcDbEntity
  8
TEXT
100
AcDbText
 10
96.86693327456463
 20
16.01166220994111
 30
0.0
 40
0.36
  1
15
 72
     1
 11
97.14663313813899
 21
16.19166220994111
 31
0.0
100
AcDbText
 73
     2
  0
TEXT
  5
1AAD1
330
1F
100
AcDbEntity
  8
TEXT
100
AcDbText
 10
96.54573272886203
 20
15.18085279474639
 30
0.0
 40
0.36
  1
OPP.
 72
     1
 11
97.14663313813899
 21
15.36085279474639
 31
0.0
100
AcDbText
 73
     2
  0
LINE
  5
1AAD2
330
1F
100
AcDbEntity
  8
TEXT
100
AcDbLine
 10
90.94013251528812
 20
20.95732079306163
 30
0.0
 11
92.11609994154136
 21
20.95732079306163
 31
0.0
  0
CIRCLE
  5
1AAD3
330
1F
100
AcDbEntity
  8
TEXT
100
AcDbCircle
 10
90.39599431490556
 20
20.95732079306163
 30
0.0
 40
0.5441382003825708
  0
TEXT
  5
1AAD4
330
1F
100
AcDbEntity
  8
TEXT
100
AcDbText
 10
90.1162944513312
 20
20.77732079306163
 30
0.0
 40
0.36
  1
21
 72
     1
 11
90.39599431490556
 21
20.95732079306163
 31
0.0
100
AcDbText
 73
     2
  0
LINE
  5
1AAD5
330
1F
100
AcDbEntity
  8
TEXT
100
AcDbLine
 10
93.80480989011378
 20
19.2917809494383
 30
0.0
 11
93.80480989011378
 21
20.46774837569154
 31
0.0
  0
CIRCLE
  5
1AAD6
330
1F
100
AcDbEntity
  8
TEXT
100
AcDbCircle
 10
93.80480989011378
 20
18.74764274905573
 30
0.0
 40
0.5441382003825708
  0
TEXT
  5
1AAD7
330
1F
100
AcDbEntity
  8
TEXT
100
AcDbText
 10
93.44137196378362
 20
18.56764274905573
 30
0.0
 40
0.36
  1
7-9
 72
     1
 11
93.80480989011378
 21
18.74764274905573
 31
0.0
100
AcDbText
 73
     2
  0
LWPOLYLINE
  5
1AAD8
330
1F
100
AcDbEntity
  8
0
100
AcDbPolyline
 90
        4
 70
     1
 43
0.0
 10
91.30481034011344
 20
20.20625223238403
 10
86.80481124011325
 20
20.20625223238403
 10
86.80481124011325
 20
19.956252232384
 10
91.30481034011344
 20
19.956252232384
  0
LWPOLYLINE
  5
1AAD9
330
1F
100
AcDbEntity
  8
0
100
AcDbPolyline
 90
        4
 70
     1
 43
0.0
 10
96.05480944011388
 20
22.20625433238359
 10
86.80481124011325
 20
22.20625433238359
 10
86.80481124011325
 20
21.95625433238356
 10
96.05480944011388
 20
21.95625433238356
  0
LWPOLYLINE
  5
1AADA
330
1F
100
AcDbEntity
  8
0
100
AcDbPolyline
 90
        4
 70
     1
 43
0.0
 10
86.80481124011325
 20
22.20625433238359
 10
86.55481124011325
 20
22.20625433238359
 10
86.55481124011325
 20
9.456254332383593
 10
86.80481124011325
 20
9.456254332383593
  0
LWPOLYLINE
  5
1AADB
330
1F
100
AcDbEntity
  8
0
  6
DASHED
 48
2.0
100
AcDbPolyline
 90
        3
 70
     0
 43
0.0
 10
91.30481034011356
 20
19.956252232384
 10
86.80481124011331
 20
14.83125328238381
 10
90.00282211710633
 20
11.01140693931991
  0
LINE
  5
1AADC
330
1F
100
AcDbEntity
  8
TEXT
100
AcDbLine
 10
86.19013341528782
 20
16.19166220994111
 30
0.0
 11
87.36610084154106
 21
16.19166220994111
 31
0.0
  0
CIRCLE
  5
1AADD
330
1F
100
AcDbEntity
  8
TEXT
100
AcDbCircle
 10
85.64599521490524
 20
16.19166220994111
 30
0.0
 40
0.5441382003825708
  0
TEXT
  5
1AADE
330
1F
100
AcDbEntity
  8
TEXT
100
AcDbText
 10
85.36629535133089
 20
16.01166220994111
 30
0.0
 40
0.36
  1
15
 72
     1
 11
85.64599521490524
 21
16.19166220994111
 31
0.0
100
AcDbText
 73
     2
  0
LINE
  5
1AADF
330
1F
100
AcDbEntity
  8
TEXT
100
AcDbLine
 10
86.19013341528782
 20
21.03090079782948
 30
0.0
 11
87.36610084154106
 21
21.03090079782948
 31
0.0
  0
CIRCLE
  5
1AAE0
330
1F
100
AcDbEntity
  8
TEXT
100
AcDbCircle
 10
85.64599521490524
 20
21.03090079782948
 30
0.0
 40
0.5441382003825708
  0
TEXT
  5
1AAE1
330
1F
100
AcDbEntity
  8
TEXT
100
AcDbText
 10
85.36629535133089
 20
20.85090079782947
 30
0.0
 40
0.36
  1
20
 72
     1
 11
85.64599521490524
 21
21.03090079782948
 31
0.0
100
AcDbText
 73
     2
  0
LINE
  5
1AAF2
330
1F
100
AcDbEntity
  8
TEXT
100
AcDbLine
 10
79.7454584607162
 20
21.03090079782948
 30
0.0
 11
80.92142588696944
 21
21.03090079782948
 31
0.0
  0
CIRCLE
  5
1AAF3
330
1F
100
AcDbEntity
  8
TEXT
100
AcDbCircle
 10
81.46556408735202
 20
21.03090079782948
 30
0.0
 40
0.5441382003825708
  0
TEXT
  5
1AAF4
330
1F
100
AcDbEntity
  8
TEXT
100
AcDbText
 10
81.18586422377767
 20
20.85090079782947
 30
0.0
 40
0.36
  1
20
 72
     1
 11
81.46556408735202
 21
21.03090079782948
 31
0.0
100
AcDbText
 73
     2
  0
TEXT
  5
1AAF5
330
1F
100
AcDbEntity
  8
TEXT
100
AcDbText
 10
80.86466367807508
 20
20.02009138263475
 30
0.0
 40
0.36
  1
OPP.
 72
     1
 11
81.46556408735202
 21
20.20009138263475
 31
0.0
100
AcDbText
 73
     2
  0
LINE
  5
1AAF6
330
1F
100
AcDbEntity
  8
TEXT
100
AcDbLine
 10
95.42652751150317
 20
21.03090079782948
 30
0.0
 11
96.60249493775641
 21
21.03090079782948
 31
0.0
  0
CIRCLE
  5
1AAF7
330
1F
100
AcDbEntity
  8
TEXT
100
AcDbCircle
 10
97.14663313813899
 20
21.03090079782948
 30
0.0
 40
0.5441382003825708
  0
TEXT
  5
1AAF8
330
1F
100
AcDbEntity
  8
TEXT
100
AcDbText
 10
96.86693327456463
 20
20.85090079782947
 30
0.0
 40
0.36
  1
20
 72
     1
 11
97.14663313813899
 21
21.03090079782948
 31
0.0
100
AcDbText
 73
     2
  0
TEXT
  5
1AAF9
330
1F
100
AcDbEntity
  8
TEXT
100
AcDbText
 10
96.54573272886203
 20
20.02009138263475
 30
0.0
 40
0.36
  1
OPP.
 72
     1
 11
97.14663313813899
 21
20.20009138263475
 31
0.0
100
AcDbText
 73
     2
  0
LINE
  5
1AAFA
330
1F
100
AcDbEntity
  8
TEXT
100
AcDbLine
 10
57.74732867994382
 20
19.55133481191854
 30
0.0
 11
57.74732867994382
 21
20.72730223817178
 31
0.0
  0
CIRCLE
  5
1AAFB
330
1F
100
AcDbEntity
  8
TEXT
100
AcDbCircle
 10
57.74732867994382
 20
21.27144043855435
 30
0.0
 40
0.5441382003825708
  0
TEXT
  5
1AAFC
330
1F
100
AcDbEntity
  8
TEXT
100
AcDbText
 10
57.60747874815664
 20
21.09144043855435
 30
0.0
 40
0.36
  1
2
 72
     1
 11
57.74732867994382
 21
21.27144043855435
 31
0.0
100
AcDbText
 73
     2
  0
LWPOLYLINE
  5
1AB08
330
1F
100
AcDbEntity
  8
0
100
AcDbPolyline
 90
        4
 70
     1
 43
0.0
 10
91.95621216868252
 20
38.43959157168007
 10
96.4562112686829
 20
38.43959157168007
 10
96.4562112686829
 20
38.18959157168007
 10
91.95621216868252
 20
38.18959157168007
  0
LWPOLYLINE
  5
1AB09
330
1F
100
AcDbEntity
  8
0
100
AcDbPolyline
 90
        4
 70
     1
 43
0.0
 10
91.95621216868252
 20
38.43959157168007
 10
91.70621216868264
 20
38.43959157168007
 10
91.70621216868264
 20
27.68959367167963
 10
91.95621216868252
 20
27.68959367167963
  0
LWPOLYLINE
  5
1AB0A
330
1F
100
AcDbEntity
  8
0
100
AcDbPolyline
 90
        4
 70
     1
 43
0.0
 10
96.4562112686829
 20
38.43959157168007
 10
96.70621126868283
 20
38.43959157168007
 10
96.70621126868283
 20
27.68959367167963
 10
96.4562112686829
 20
27.68959367167963
  0
LWPOLYLINE
  5
1AB0B
330
1F
100
AcDbEntity
  8
0
  6
DASHED
 48
2.0
100
AcDbPolyline
 90
        3
 70
     0
 43
0.0
 10
91.95621216868252
 20
38.18959157168007
 10
96.45621126868284
 20
33.06459262167985
 10
91.95621216868252
 20
27.68959367167963
  0
LINE
  5
1AB0C
330
1F
100
AcDbEntity
  8
TEXT
100
AcDbLine
 10
91.34153434385721
 20
34.42500154923715
 30
0.0
 11
92.51750177011045
 21
34.42500154923715
 31
0.0
  0
CIRCLE
  5
1AB0D
330
1F
100
AcDbEntity
  8
TEXT
100
AcDbCircle
 10
90.79739614347463
 20
34.42500154923715
 30
0.0
 40
0.5441382003825708
  0
TEXT
  5
1AB0E
330
1F
100
AcDbEntity
  8
TEXT
100
AcDbText
 10
90.51769627990028
 20
34.24500154923715
 30
0.0
 40
0.36
  1
15
 72
     1
 11
90.79739614347463
 21
34.42500154923715
 31
0.0
100
AcDbText
 73
     2
  0
LINE
  5
1AB0F
330
1F
100
AcDbEntity
  8
TEXT
100
AcDbLine
 10
95.82792934007219
 20
34.42500154923715
 30
0.0
 11
97.00389676632543
 21
34.42500154923715
 31
0.0
  0
CIRCLE
  5
1AB10
330
1F
100
AcDbEntity
  8
TEXT
100
AcDbCircle
 10
97.54803496670801
 20
34.42500154923715
 30
0.0
 40
0.5441382003825708
  0
TEXT
  5
1AB11
330
1F
100
AcDbEntity
  8
TEXT
100
AcDbText
 10
97.26833510313365
 20
34.24500154923715
 30
0.0
 40
0.36
  1
15
 72
     1
 11
97.54803496670801
 21
34.42500154923715
 31
0.0
100
AcDbText
 73
     2
  0
TEXT
  5
1AB12
330
1F
100
AcDbEntity
  8
TEXT
100
AcDbText
 10
96.94713455743105
 20
33.41419213404243
 30
0.0
 40
0.36
  1
OPP.
 72
     1
 11
97.54803496670801
 21
33.59419213404243
 31
0.0
100
AcDbText
 73
     2
  0
LINE
  5
1AB13
330
1F
100
AcDbEntity
  8
TEXT
100
AcDbLine
 10
94.20621171868271
 20
37.7846741512146
 30
0.0
 11
94.20621171868271
 21
38.96064157746784
 31
0.0
  0
CIRCLE
  5
1AB14
330
1F
100
AcDbEntity
  8
TEXT
100
AcDbCircle
 10
94.20621171868271
 20
39.50477977785041
 30
0.0
 40
0.5441382003825708
  0
TEXT
  5
1AB15
330
1F
100
AcDbEntity
  8
TEXT
100
AcDbText
 10
94.06636178689552
 20
39.32477977785042
 30
0.0
 40
0.36
  1
2
 72
     1
 11
94.20621171868271
 21
39.50477977785041
 31
0.0
100
AcDbText
 73
     2
  0
LWPOLYLINE
  5
1AB1A
330
1F
100
AcDbEntity
  8
0
100
AcDbPolyline
 90
        4
 70
     1
 43
0.0
 10
15.99232361041923
 20
20.20625223238403
 10
16.24232361041911
 20
20.20625223238403
 10
16.24232361041911
 20
9.456254332383593
 10
15.99232361041923
 20
9.456254332383593
  0
LWPOLYLINE
  5
1AB1B
330
1F
100
AcDbEntity
  8
0
  6
DASHED
 48
2.0
100
AcDbPolyline
 90
        3
 70
     0
 43
0.0
 10
11.49232451041892
 20
19.956252232384
 10
15.99232361041911
 20
14.83125328238381
 10
11.49232451041893
 20
9.456254332383593
  0
LINE
  5
1AB1C
330
1F
100
AcDbEntity
  8
TEXT
100
AcDbLine
 10
15.36404168180852
 20
16.19166220994111
 30
0.0
 11
16.54000910806176
 21
16.19166220994111
 31
0.0
  0
CIRCLE
  5
1AB1D
330
1F
100
AcDbEntity
  8
TEXT
100
AcDbCircle
 10
17.08414730844434
 20
16.19166220994111
 30
0.0
 40
0.5441382003825708
  0
TEXT
  5
1AB1E
330
1F
100
AcDbEntity
  8
TEXT
100
AcDbText
 10
16.80444744486998
 20
16.01166220994111
 30
0.0
 40
0.36
  1
15
 72
     1
 11
17.08414730844434
 21
16.19166220994111
 31
0.0
100
AcDbText
 73
     2
  0
TEXT
  5
1AB1F
330
1F
100
AcDbEntity
  8
TEXT
100
AcDbText
 10
16.48324689916739
 20
15.18085279474639
 30
0.0
 40
0.36
  1
OPP.
 72
     1
 11
17.08414730844434
 21
15.36085279474639
 31
0.0
100
AcDbText
 73
     2
  0
LWPOLYLINE
  5
1AB20
330
1F
100
AcDbEntity
  8
0
100
AcDbPolyline
 90
        4
 70
     1
 43
0.0
 10
15.99232361041923
 20
20.20625223238403
 10
6.992325410418608
 20
20.20625223238403
 10
6.992325410418608
 20
19.956252232384
 10
15.99232361041923
 20
19.956252232384
  0
LWPOLYLINE
  5
1AB22
330
1F
100
AcDbEntity
  8
0
  6
DASHED
 48
2.0
100
AcDbPolyline
 90
        3
 70
     0
 43
0.0
 10
11.49232451041892
 20
19.956252232384
 10
6.992325410418665
 20
14.83125328238381
 10
11.49232451041892
 20
9.456254332383565
  0
LINE
  5
1AB23
330
1F
100
AcDbEntity
  8
TEXT
100
AcDbLine
 10
6.377647585593173
 20
16.19166220994111
 30
0.0
 11
7.55361501184641
 21
16.19166220994111
 31
0.0
  0
CIRCLE
  5
1AB24
330
1F
100
AcDbEntity
  8
TEXT
100
AcDbCircle
 10
5.833509385210597
 20
16.19166220994111
 30
0.0
 40
0.5441382003825708
  0
TEXT
  5
1AB25
330
1F
100
AcDbEntity
  8
TEXT
100
AcDbText
 10
5.553809521636244
 20
16.01166220994111
 30
0.0
 40
0.36
  1
15
 72
     1
 11
5.833509385210597
 21
16.19166220994111
 31
0.0
100
AcDbText
 73
     2
  0
LINE
  5
1AB2A
330
1F
100
AcDbEntity
  8
TEXT
100
AcDbLine
 10
13.58552536514137
 20
19.55133481191854
 30
0.0
 11
13.58552536514137
 21
20.72730223817178
 31
0.0
  0
CIRCLE
  5
1AB2B
330
1F
100
AcDbEntity
  8
TEXT
100
AcDbCircle
 10
13.58552536514137
 20
21.27144043855435
 30
0.0
 40
0.5441382003825708
  0
TEXT
  5
1AB2C
330
1F
100
AcDbEntity
  8
TEXT
100
AcDbText
 10
13.4456754333542
 20
21.09144043855435
 30
0.0
 40
0.36
  1
2
 72
     1
 11
13.58552536514137
 21
21.27144043855435
 31
0.0
100
AcDbText
 73
     2
  0
LINE
  5
1AB2D
330
1F
100
AcDbEntity
  8
TEXT
100
AcDbLine
 10
46.09285225656035
 20
49.58430818415919
 30
0.0
 11
45.52539399574604
 21
49.58430818415919
 31
0.0
  0
LINE
  5
1AB2E
330
1F
100
AcDbEntity
  8
TEXT
100
AcDbLine
 10
43.60153767713618
 20
34.28599306256382
 30
0.0
 11
43.03407941632188
 21
34.28599306256382
 31
0.0
  0
LINE
  5
1AB2F
330
1F
100
AcDbEntity
  8
TEXT
100
AcDbLine
 10
9.727516525710761
 20
34.28599306256382
 30
0.0
 11
9.160058264896456
 21
34.28599306256382
 31
0.0
  0
LINE
  5
1AB30
330
1F
100
AcDbEntity
  8
TEXT
100
AcDbLine
 10
66.28721287971953
 20
43.83430938415893
 30
0.0
 11
65.71975461890523
 21
43.83430938415893
 31
0.0
  0
LINE
  5
1AB31
330
1F
100
AcDbEntity
  8
TEXT
100
AcDbLine
 10
56.40915374237605
 20
34.28599306256382
 30
0.0
 11
55.84169548156174
 21
34.28599306256382
 31
0.0
  0
LINE
  5
1AB35
330
1F
100
AcDbEntity
  8
TEXT
100
AcDbLine
 10
42.94661643255785
 20
16.04423684551028
 30
0.0
 11
42.31503364101722
 21
16.04423684551028
 31
0.0
  0
LINE
  5
1AB42
330
1F
100
AcDbEntity
  8
TEXT
100
AcDbLine
 10
92.97080232581985
 20
21.3013369119181
 30
0.0
 11
92.97080232581985
 21
22.47730433817133
 31
0.0
  0
CIRCLE
  5
1AB43
330
1F
100
AcDbEntity
  8
TEXT
100
AcDbCircle
 10
92.97080232581985
 20
23.02144253855392
 30
0.0
 40
0.5441382003825708
  0
TEXT
  5
1AB44
330
1F
100
AcDbEntity
  8
TEXT
100
AcDbText
 10
92.83095239403266
 20
22.84144253855391
 30
0.0
 40
0.36
  1
3
 72
     1
 11
92.97080232581985
 21
23.02144253855392
 31
0.0
100
AcDbText
 73
     2
  0
LWPOLYLINE
  5
1B220
330
1F
100
AcDbEntity
  8
0
100
AcDbPolyline
 90
        4
 70
     1
 43
0.0
 10
6.992325410418608
 20
9.456254332383593
 10
6.992325410418608
 20
20.20625223238403
 10
6.742325410418608
 20
20.20625223238403
 10
6.742325410418608
 20
9.456254332383593
  0
CIRCLE
  5
1B26E
330
1F
100
AcDbEntity
  8
TEXT
100
AcDbCircle
 10
20.37836037646503
 20
35.81459202167997
 30
0.0
 40
0.5441382003825708
  0
TEXT
  5
1B26F
330
1F
100
AcDbEntity
  8
TEXT
100
AcDbText
 10
19.93057047196298
 20
35.63459202167997
 30
0.0
 40
0.36
  1
14A
 72
     1
 11
20.37836037646503
 21
35.81459202167997
 31
0.0
100
AcDbText
 73
     2
  0
CIRCLE
  5
1B270
330
1F
100
AcDbEntity
  8
TEXT
100
AcDbCircle
 10
20.37836037646503
 20
29.4021675797083
 30
0.0
 40
0.5441382003825708
  0
TEXT
  5
1B271
330
1F
100
AcDbEntity
  8
TEXT
100
AcDbText
 10
19.93057047196298
 20
29.22216757970831
 30
0.0
 40
0.36
  1
12A
 72
     1
 11
20.37836037646503
 21
29.4021675797083
 31
0.0
100
AcDbText
 73
     2
  0
LINE
  5
1B31B
330
1F
100
AcDbEntity
  8
TEXT
100
AcDbLine
 10
59.57799441371432
 20
10.44068239884481
 30
0.0
 11
60.75396183996756
 21
10.44068239884481
 31
0.0
  0
CIRCLE
  5
1B31C
330
1F
100
AcDbEntity
  8
TEXT
100
AcDbCircle
 10
59.03385621333175
 20
10.44068239884481
 30
0.0
 40
0.5441382003825708
  0
TEXT
  5
1B31D
330
1F
100
AcDbEntity
  8
TEXT
100
AcDbText
 10
58.75415634975739
 20
10.26068239884481
 30
0.0
 40
0.36
  1
23
 72
     1
 11
59.03385621333175
 21
10.44068239884481
 31
0.0
100
AcDbText
 73
     2
  0
LWPOLYLINE
  5
1B327
330
1F
100
AcDbEntity
  8
0
  6
DASHED
 48
2.0
100
AcDbPolyline
 90
        2
 70
     0
 43
0.0
 10
59.50824670608245
 20
9.975151498565516
 10
59.94267223853976
 20
9.456254332383593
  0
LINE
  5
1B328
330
1F
100
AcDbEntity
  8
TEXT
100
AcDbLine
 10
75.25906346450128
 20
10.44068239884481
 30
0.0
 11
76.43503089075451
 21
10.44068239884481
 31
0.0
  0
CIRCLE
  5
1B329
330
1F
100
AcDbEntity
  8
TEXT
100
AcDbCircle
 10
74.71492526411871
 20
10.44068239884481
 30
0.0
 40
0.5441382003825708
  0
TEXT
  5
1B32A
330
1F
100
AcDbEntity
  8
TEXT
100
AcDbText
 10
74.43522540054435
 20
10.26068239884481
 30
0.0
 40
0.36
  1
23
 72
     1
 11
74.71492526411871
 21
10.44068239884481
 31
0.0
100
AcDbText
 73
     2
  0
LINE
  5
1B32B
330
1F
100
AcDbEntity
  8
TEXT
100
AcDbLine
 10
90.94013251528812
 20
10.44068239884481
 30
0.0
 11
92.11609994154136
 21
10.44068239884481
 31
0.0
  0
CIRCLE
  5
1B32C
330
1F
100
AcDbEntity
  8
TEXT
100
AcDbCircle
 10
90.39599431490556
 20
10.44068239884481
 30
0.0
 40
0.5441382003825708
  0
TEXT
  5
1B32D
330
1F
100
AcDbEntity
  8
TEXT
100
AcDbText
 10
90.1162944513312
 20
10.26068239884481
 30
0.0
 40
0.36
  1
23
 72
     1
 11
90.39599431490556
 21
10.44068239884481
 31
0.0
100
AcDbText
 73
     2
  0
LWPOLYLINE
  5
1B32E
330
1F
100
AcDbEntity
  8
0
  6
DASHED
 48
2.0
100
AcDbPolyline
 90
        2
 70
     0
 43
0.0
 10
90.88293430861069
 20
9.960161816800201
 10
91.30481034011356
 20
9.456254332383593
  0
LWPOLYLINE
  5
1B32F
330
1F
100
AcDbEntity
  8
0
  6
DASHED
 48
2.0
100
AcDbPolyline
 90
        2
 70
     0
 43
0.0
 10
75.20322947203121
 20
9.958532338711608
 10
75.62374128932671
 20
9.456254332383593
  0
MTEXT
  5
1B3E8
330
1F
100
AcDbEntity
  8
TEXT
100
AcDbMText
 10
30.375
 20
2.375000008829672
 30
0.0
 40
0.375
 41
8.317161631254586
 71
     2
 72
     5
  1
DETAIL SCALE: 1-1/2" = 1"
 73
     1
 44
1.0
1001
ACAD
1000
MTEXTBEGIN
1070
    73
1070
     1
1070
    44
1040
1.0
1070
    74
1070
     0
1000
MTEXTEND
  0
MTEXT
  5
1B3EA
330
1F
100
AcDbEntity
  8
TEXT
100
AcDbMText
 10
30.375
 20
3.433922394004751
 30
0.0
 40
0.5
 41
20.05424338825992
 71
     8
 72
     5
  1
INFRAME™ INTERIOR FRAMING SYSTEM \P6" SYSTEM (1/4" INFILL)\PTYPICAL ELEVATIONS
 73
     1
 44
1.0
1001
ACAD
1000
MTEXTBEGIN
1070
    73
1070
     1
1070
    44
1040
1.0
1070
    74
1070
     0
1000
MTEXTEND
  0
MTEXT
  5
1B3EB
330
1F
100
AcDbEntity
  8
TEXT
100
AcDbMText
 10
1.375
 20
2.375000008829658
 30
0.0
 40
0.375
 41
14.22387531454843
 71
     1
 72
     5
  1
ENGINEERING CHANGE:  97910-087 (MARCH 2017)\PFILE NAME:  KCDC140 SHEET 01 OF 03.DWG
 73
     1
 44
1.0
1001
ACAD
1000
ACAD_MTEXT_COLUMN_INFO_BEGIN
1070
    75
1070
     2
1070
    79
1070
     0
1070
    76
1070
     1
1070
    78
1070
     0
1070
    48
1040
14.22387531454843
1070
    49
1040
1.25
1070
    50
1070
     1
1040
0.0
1000
ACAD_MTEXT_COLUMN_INFO_END
1000
MTEXTBEGIN
1070
    73
1070
     1
1070
    44
1040
1.0
1070
    74
1070
     0
1000
MTEXTEND
  0
INSERT
  5
1B61B
330
1F
100
AcDbEntity
  8
0
 48
0.25
100
AcDbBlockReference
  2
Kawneer Logo English
 10
1.0
 20
2.5
 30
0.0
 41
5.337
 42
5.337
 43
5.337
  0
ENDSEC
  0
SECTION
  2
OBJECTS
  0
DICTIONARY
  5
C
330
0
100
AcDbDictionary
281
     1
  3
ACAD_2007HEADERVARS_RT
350
1B6C7
  3
ACAD_CIP_PREVIOUS_PRODUCT_INFO
350
25A0
  3
ACAD_COLOR
350
73
  3
ACAD_GROUP
350
D
  3
ACAD_LAYOUT
350
1A
  3
ACAD_MATERIAL
350
72
  3
ACAD_MLEADERSTYLE
350
D3
  3
ACAD_MLINESTYLE
350
17
  3
ACAD_PLOTSETTINGS
350
19
  3
ACAD_PLOTSTYLENAME
350
E
  3
ACAD_SCALELIST
350
B1
  3
ACAD_TABLESTYLE
350
AF
  3
ACAD_VISUALSTYLE
350
9E
  3
ACDB_RECOMPOSE_DATA
350
1B6C5
  3
AcDbVariableDictionary
350
66
  3
DWGPROPS
350
1B6C6
  0
DICTIONARY
  5
245B
330
8
100
AcDbDictionary
280
     1
281
     1
  0
DICTIONARY
  5
104
330
2
100
AcDbDictionary
280
     1
281
     1
  3
ACAD_LAYERSTATES
360
105
  0
DICTIONARY
  5
244E
330
10
100
AcDbDictionary
280
     1
281
     1
  3
ADSK_XREC_LAYER_RECONCILED
360
244F
  0
DICTIONARY
  5
3083
330
1F
100
AcDbDictionary
280
     1
281
     1
  3
ACAD_SORTENTS
360
3084
  0
DICTIONARY
  5
1B617
330
1B60D
100
AcDbDictionary
280
     1
281
     1
  3
ACAD_SORTENTS
360
1B618
  0
DICTIONARY
  5
1B6C3
330
1B60E
100
AcDbDictionary
280
     1
281
     1
  3
ACAD_MTEXT_2008_RT
360
1B6C4
  0
DICTIONARY
  5
1B6C7
102
{ACAD_REACTORS
330
C
102
}
330
C
100
AcDbDictionary
281
     1
  3
DIMLTEX1
350
1B6C9
  3
DIMLTEX2
350
1B6CA
  3
DIMLTYPE
350
1B6C8
  0
XRECORD
  5
25A0
102
{ACAD_REACTORS
330
C
102
}
330
C
100
AcDbXrecord
280
     1
300
ACD
300
2012
300
85730ACD_2012_0F
  0
DICTIONARY
  5
73
102
{ACAD_REACTORS
330
C
102
}
330
C
100
AcDbDictionary
281
     1
  0
DICTIONARY
  5
D
102
{ACAD_REACTORS
330
C
102
}
330
C
100
AcDbDictionary
281
     1
  0
DICTIONARY
  5
1A
102
{ACAD_REACTORS
330
C
102
}
330
C
100
AcDbDictionary
281
     1
  3
Layout1
350
59
  3
Layout2
350
5E
  3
Model
350
22
  0
DICTIONARY
  5
72
102
{ACAD_REACTORS
330
C
102
}
330
C
100
AcDbDictionary
281
     1
  3
ByBlock
350
8E
  3
ByLayer
350
86
  3
Global
350
96
  0
DICTIONARY
  5
D3
102
{ACAD_REACTORS
330
C
102
}
330
C
100
AcDbDictionary
281
     1
  3
Standard
350
D4
  0
DICTIONARY
  5
17
102
{ACAD_REACTORS
330
C
102
}
330
C
100
AcDbDictionary
281
     1
  3
Standard
350
18
  0
DICTIONARY
  5
19
102
{ACAD_REACTORS
330
C
102
}
330
C
100
AcDbDictionary
281
     1
  0
ACDBDICTIONARYWDFLT
  5
E
102
{ACAD_REACTORS
330
C
102
}
330
C
100
AcDbDictionary
281
     1
  3
Normal
350
F
100
AcDbDictionaryWithDefault
340
F
  0
DICTIONARY
  5
B1
102
{ACAD_REACTORS
330
C
102
}
330
C
100
AcDbDictionary
281
     1
  3
A0
350
B2
  3
A1
350
1B5F2
  3
A2
350
1B5F3
  3
A3
350
1B5F4
  3
A4
350
1B5F5
  3
A5
350
1B5F6
  3
A6
350
1B5F7
  3
A7
350
1B5F8
  3
A8
350
1B5F9
  3
A9
350
1B5FA
  3
B0
350
1B5FB
  3
B1
350
1B5FC
  3
B2
350
1B5FD
  3
B3
350
1B5FE
  3
B4
350
1B5FF
  3
B5
350
1B600
  3
B6
350
1B601
  0
DICTIONARY
  5
AF
102
{ACAD_REACTORS
330
C
102
}
330
C
100
AcDbDictionary
281
     1
  3
Standard
350
B0
  0
DICTIONARY
  5
9E
102
{ACAD_REACTORS
330
C
102
}
330
C
100
AcDbDictionary
281
     1
  3
2dWireframe
350
A4
  3
3D Hidden
350
A6
  3
3dWireframe
350
A5
  3
Basic
350
A3
  3
Brighten
350
AA
  3
ColorChange
350
AE
  3
Conceptual
350
A7
  3
Dim
350
A9
  3
EdgeColorOff
350
2555
  3
Facepattern
350
AD
  3
Flat
350
9F
  3
FlatWithEdges
350
A0
  3
Gouraud
350
A1
  3
GouraudWithEdges
350
A2
  3
Hidden
350
254D
  3
JitterOff
350
2553
  3
Linepattern
350
AC
  3
OverhangOff
350
2554
  3
Realistic
350
A8
  3
Shaded
350
2552
  3
Shaded with edges
350
2551
  3
Shades of Gray
350
254E
  3
Sketchy
350
254F
  3
Thicken
350
AB
  3
Wireframe
350
254C
  3
X-Ray
350
2550
  0
XRECORD
  5
1B6C5
102
{ACAD_REACTORS
330
C
102
}
330
C
100
AcDbXrecord
280
     1
 90
        1
330
B0
330
1B3EB
330
1B60E
  0
DICTIONARY
  5
66
102
{ACAD_REACTORS
330
C
102
}
330
C
100
AcDbDictionary
281
     1
  3
CANNOSCALE
350
246C
  3
CMLEADERSTYLE
350
246B
  3
CTABLESTYLE
350
246A
  3
DIMASSOC
350
67
  3
HIDETEXT
350
6B
  3
INDEXCTL
350
24C0
  3
LAYEREVAL
350
1A21A
  3
LAYERNOTIFY
350
1A21B
  3
LIGHTINGUNITS
350
2530
  3
MSLTSCALE
350
252F
  3
PROJECTNAME
350
24A0
  3
SORTENTS
350
24BF
  3
XCLIPFRAME
350
1B6C1
  0
XRECORD
  5
1B6C6
102
{ACAD_REACTORS
330
C
102
}
330
C
100
AcDbXrecord
280
     1
  1
DWGPROPS COOKIE
  2

  3

  4

  6

  7

  8
quadiss
  9

300
=
301
=
302
=
303
=
304
=
305
=
306
=
307
=
308
=
309
=
 40
1.31143130787037
 41
2454734.432637083
 42
2457799.486662858
  1

 90
        0
  0
DICTIONARY
  5
105
102
{ACAD_REACTORS
330
104
102
}
330
104
100
AcDbDictionary
281
     1
  0
XRECORD
  5
244F
102
{ACAD_REACTORS
330
244E
102
}
330
244E
100
AcDbXrecord
280
     1
290
     1
  0
SORTENTSTABLE
  5
3084
102
{ACAD_REACTORS
330
3083
102
}
330
3083
100
AcDbSortentsTable
330
1F
331
1A95F
  5
1A95F
331
1A95B
  5
1A95B
331
1A9D5
  5
1A9D5
331
1A9D1
  5
1A9D1
331
1A957
  5
1A957
331
1A996
  5
1A996
331
1A9CD
  5
1A9CD
331
1AA0C
  5
1AA0C
331
1A953
  5
1A953
331
1A992
  5
1A992
331
1A9C9
  5
1A9C9
331
1AA08
  5
1AA08
331
1A8E4
  5
1A8E4
331
1A8E0
  5
1A8E0
331
1A91F
  5
1A91F
331
1AA96
  5
1AA96
331
1A8DC
  5
1A8DC
331
1A91B
  5
1A91B
331
1AA92
  5
1AA92
331
1AB1C
  5
1AB1F
331
1A8D8
  5
1A8D8
331
1AACD
  5
1AACF
331
1AA8E
  5
1AA8E
331
1AAC9
  5
1AACB
331
1AA8A
  5
1AA8A
331
1AB14
  5
1AB17
331
1AB10
  5
1AB13
331
1A94F
  5
1A94F
331
1A98E
  5
1A98E
331
1A94B
  5
1A94B
331
1A9C5
  5
1A9C5
331
1AA04
  5
1AA04
331
1A98A
  5
1A98A
331
1A947
  5
1A947
331
1A9C1
  5
1A9C1
331
1AA00
  5
1AA00
331
1A986
  5
1A986
331
1A943
  5
1A943
331
1A9BD
  5
1A9BD
331
1A9FC
  5
1A9FC
331
1A982
  5
1A982
331
1A9B9
  5
1A9B9
331
1A9F8
  5
1A9F8
331
1A917
  5
1A917
331
1A8D4
  5
1A8D4
331
1A913
  5
1A913
331
1A8D0
  5
1A8D0
331
1A90F
  5
1A90F
331
1AAC5
  5
1AAC7
331
1B26F
  5
1B28C
331
1AA86
  5
1AA86
331
1A8CC
  5
1A8CC
331
1A90B
  5
1A90B
331
1AAC1
  5
1AAC3
331
1AA82
  5
1AA82
331
1AB0C
  5
1AB0F
331
1A8C8
  5
1A8C8
331
1AABD
  5
1AABE
331
1AB08
  5
1AB0B
331
1AAB9
  5
1AABA
331
1AAFC
  5
1AB08
331
1AA7A
  5
1AA7A
331
1AAF8
  5
1AAFB
331
1A93F
  5
1A93F
331
1A97E
  5
1A97E
331
1A93B
  5
1A93B
331
1A9B5
  5
1A9B5
331
1A9F4
  5
1A9F4
331
1A97A
  5
1A97A
331
1A937
  5
1A937
331
1A9B1
  5
1A9B1
331
1A9F0
  5
1A9F0
331
1A976
  5
1A976
331
1A933
  5
1A933
331
1A9AD
  5
1A9AD
331
1A9EC
  5
1A9EC
331
1A972
  5
1A972
331
1A9A9
  5
1A9A9
331
1A9E8
  5
1A9E8
331
1A907
  5
1A907
331
1A8C4
  5
1A8C4
331
1A903
  5
1A903
331
1A8C0
  5
1A8C0
331
1A8FF
  5
1A8FF
331
1AAB5
  5
1AAB5
331
1A8BC
  5
1A8BC
331
1A8FB
  5
1A8FB
331
1AB43
  5
1B26E
331
1AAF4
  5
1AAF7
331
1AAB1
  5
1AAB1
331
1A8B8
  5
1A8B8
331
1AAAD
  5
1AAAD
331
1B32F
  5
1AABF
331
1AA26
  5
1AA26
331
1AAA9
  5
1AAA9
331
1B32B
  5
1B32D
331
1AA22
  5
1AA22
331
1AAE0
  5
1AAE3
331
1A92F
  5
1A92F
331
1A96E
  5
1A96E
331
1A92B
  5
1A92B
331
1A9A5
  5
1A9A5
331
1A9E4
  5
1A9E4
331
1A96A
  5
1A96A
331
1A927
  5
1A927
331
1A9A1
  5
1A9A1
331
1A9E0
  5
1A9E0
331
1A966
  5
1A966
331
1A923
  5
1A923
331
1A99D
  5
1A99D
331
1A9DC
  5
1A9DC
331
1A962
  5
1A962
331
1A999
  5
1A999
331
1A9D8
  5
1A9D8
331
1A8F7
  5
1A8F7
331
1A8F3
  5
1A8F3
331
1A8EF
  5
1A8EF
331
1AAA5
  5
1AAA5
331
1B327
  5
1AAB7
331
1AB2F
  5
1AB44
331
1AA1E
  5
1AA1E
331
1A8EB
  5
1A8EB
331
1AAA1
  5
1AAA1
331
1AB2B
  5
1AB3D
331
1AADC
  5
1AADF
331
1AA1A
  5
1AA1A
331
1AA9D
  5
1AA9D
331
1AAD8
  5
1AADA
331
1AA16
  5
1AA16
331
1AA99
  5
1AA99
331
1B31B
  5
1B327
331
1AB23
  5
1AB35
331
1AAD4
  5
1AAD6
331
1AA12
  5
1AA12
331
1AAD0
  5
1AAD2
331
1A95E
  5
1A95E
331
1A9D4
  5
1A9D4
331
1A95A
  5
1A95A
331
1A9D0
  5
1A9D0
331
1AA0F
  5
1AA0F
331
1A956
  5
1A956
331
1A995
  5
1A995
331
1A9CC
  5
1A9CC
331
1AA0B
  5
1AA0B
331
1A952
  5
1A952
331
1A991
  5
1A991
331
1A9C8
  5
1A9C8
331
1A8E7
  5
1A8E7
331
1A8E3
  5
1A8E3
331
1A8DF
  5
1A8DF
331
1A91E
  5
1A91E
331
1A8DB
  5
1A8DB
331
1A91A
  5
1A91A
331
1AB1F
  5
1AB31
331
1AA95
  5
1AA95
331
1AB1B
  5
1AB1E
331
1AA91
  5
1AA91
331
1AACC
  5
1AACE
331
1AA8D
  5
1AA8D
331
1AAC8
  5
1AACA
331
1AB13
  5
1AB16
331
1AA89
  5
1AA89
331
1A98D
  5
1A98D
331
1AA07
  5
1AA07
331
1A94E
  5
1A94E
331
1A989
  5
1A989
331
1A9C4
  5
1A9C4
331
1AA03
  5
1AA03
331
1A94A
  5
1A94A
331
1A985
  5
1A985
331
1A9C0
  5
1A9C0
331
1A9FF
  5
1A9FF
331
1A946
  5
1A946
331
1A981
  5
1A981
331
1A9BC
  5
1A9BC
331
1A9FB
  5
1A9FB
331
1A942
  5
1A942
331
1A9B8
  5
1A9B8
331
1A8D7
  5
1A8D7
331
1A916
  5
1A916
331
1A8D3
  5
1A8D3
331
1A912
  5
1A912
331
1A8CF
  5
1A8CF
331
1A90E
  5
1A90E
331
1A8CB
  5
1A8CB
331
1A90A
  5
1A90A
331
1AAC4
  5
1AAC6
331
1B26E
  5
1B271
331
1AB0F
  5
1AB12
331
1AA85
  5
1AA85
331
1AAC0
  5
1AAC2
331
1AB0B
  5
1AB0E
331
1AA81
  5
1AA81
331
1AABC
  5
1AABD
331
1AA7D
  5
1AA7D
331
1AAB8
  5
1AAB9
331
1AAFB
  5
1AAFE
331
1AA79
  5
1AA79
331
1A97D
  5
1A97D
331
1A9F7
  5
1A9F7
331
1A93E
  5
1A93E
331
1A979
  5
1A979
331
1A9B4
  5
1A9B4
331
1A9F3
  5
1A9F3
331
1A93A
  5
1A93A
331
1A975
  5
1A975
331
1A9B0
  5
1A9B0
331
1A9EF
  5
1A9EF
331
1A936
  5
1A936
331
1A971
  5
1A971
331
1A9AC
  5
1A9AC
331
1A932
  5
1A932
331
1A9A8
  5
1A9A8
331
1A8C7
  5
1A8C7
331
1A906
  5
1A906
331
1A8C3
  5
1A8C3
331
1A902
  5
1A902
331
1A8BF
  5
1A8BF
331
1A8FE
  5
1A8FE
331
1A8BB
  5
1A8BB
331
1A8FA
  5
1A8FA
331
1AAB4
  5
1AAB4
331
1AAF7
  5
1AAFA
331
1AA75
  5
1AA75
331
1AAF3
  5
1AAF6
331
1AB42
  5
1B225
331
1AAB0
  5
1AAB0
331
1AAAC
  5
1AAAC
331
1B32E
  5
1AADE
331
1AA25
  5
1AA25
331
1AAA8
  5
1AAA8
331
1B32A
  5
1B32C
331
1AA21
  5
1AA21
331
1A96D
  5
1A96D
331
1A9E7
  5
1A9E7
331
1A92E
  5
1A92E
331
1A969
  5
1A969
331
1A9A4
  5
1A9A4
331
1A9E3
  5
1A9E3
331
1A92A
  5
1A92A
331
1A965
  5
1A965
331
1A9A0
  5
1A9A0
331
1A9DF
  5
1A9DF
331
1A926
  5
1A926
331
1A961
  5
1A961
331
1A99C
  5
1A99C
331
1A9DB
  5
1A9DB
331
1A922
  5
1A922
331
1A998
  5
1A998
331
1A8F6
  5
1A8F6
331
1A8F2
  5
1A8F2
331
1A8EE
  5
1A8EE
331
1A8EA
  5
1A8EA
331
1AAA4
  5
1AAA4
331
1AB2E
  5
1AB40
331
1AADF
  5
1AAE2
331
1AA1D
  5
1AA1D
331
1AAA0
  5
1AAA0
331
1AB2A
  5
1AB3C
331
1AADB
  5
1AADD
331
1AA19
  5
1AA19
331
1AA9C
  5
1AA9C
331
1AAD7
  5
1AAD9
331
1AA15
  5
1AA15
331
1AA98
  5
1AA98
331
1AB22
  5
1AB34
331
1AAD3
  5
1AAD5
331
1AA11
  5
1AA11
331
1A9D7
  5
1A9D7
331
1A95D
  5
1A95D
331
1A9D3
  5
1A9D3
331
1A959
  5
1A959
331
1A9CF
  5
1A9CF
331
1AA0E
  5
1AA0E
331
1A955
  5
1A955
331
1A994
  5
1A994
331
1A9CB
  5
1A9CB
331
1AA0A
  5
1AA0A
331
1A951
  5
1A951
331
1A990
  5
1A990
331
1A8E6
  5
1A8E6
331
1A8E2
  5
1A8E2
331
1A8DE
  5
1A8DE
331
1A91D
  5
1A91D
331
1AB1E
  5
1AB23
331
1AA94
  5
1AA94
331
1A8DA
  5
1A8DA
331
1A919
  5
1A919
331
1AACF
  5
1AAD1
331
1AB1A
  5
1AB1D
331
1AA90
  5
1AA90
331
1AACB
  5
1AACD
331
1AA8C
  5
1AA8C
331
1B271
  5
1B299
331
1AB12
  5
1AB15
331
1AA88
  5
1AA88
331
1A98C
  5
1A98C
331
1A9C7
  5
1A9C7
331
1AA06
  5
1AA06
331
1A94D
  5
1A94D
331
1A9C3
  5
1A9C3
331
1AA02
  5
1AA02
331
1A949
  5
1A949
331
1A984
  5
1A984
331
1A9BF
  5
1A9BF
331
1A9FE
  5
1A9FE
331
1A945
  5
1A945
331
1A980
  5
1A980
331
1A9BB
  5
1A9BB
331
1A9FA
  5
1A9FA
331
1A941
  5
1A941
331
1A8D6
  5
1A8D6
331
1A915
  5
1A915
331
1A8D2
  5
1A8D2
331
1A911
  5
1A911
331
1AAC7
  5
1AAC9
331
1A8CE
  5
1A8CE
331
1A90D
  5
1A90D
331
1AAC3
  5
1AAC5
331
1AB0E
  5
1AB11
331
1AA84
  5
1AA84
331
1A8CA
  5
1A8CA
331
1A909
  5
1A909
331
1AABF
  5
1AAC1
331
1AB0A
  5
1AB0D
331
1AA80
  5
1AA80
331
1AABB
  5
1AABC
331
1AA7C
  5
1AA7C
331
1AAFA
  5
1AAFD
331
1AA78
  5
1AA78
331
1A97C
  5
1A97C
331
1A9B7
  5
1A9B7
331
1A9F6
  5
1A9F6
331
1A93D
  5
1A93D
331
1A978
  5
1A978
331
1A9B3
  5
1A9B3
331
1A9F2
  5
1A9F2
331
1A939
  5
1A939
331
1A974
  5
1A974
331
1A9AF
  5
1A9AF
331
1A9EE
  5
1A9EE
331
1A935
  5
1A935
331
1A970
  5
1A970
331
1A9AB
  5
1A9AB
331
1A9EA
  5
1A9EA
331
1A931
  5
1A931
331
1A8C6
  5
1A8C6
331
1A905
  5
1A905
331
1A8C2
  5
1A8C2
331
1A901
  5
1A901
331
1AAB7
  5
1AAB8
331
1A8BE
  5
1A8BE
331
1A8FD
  5
1A8FD
331
1AAB3
  5
1AAB3
331
1AAF6
  5
1AAF9
331
1AA74
  5
1AA74
331
1A8BA
  5
1A8BA
331
1A8F9
  5
1A8F9
331
1AAF2
  5
1AAF5
331
1AAAF
  5
1AAAF
331
1B32D
  5
1B32F
331
1AA24
  5
1AA24
331
1AB35
  5
1B20F
331
1AAAB
  5
1AAAB
331
1B329
  5
1B32B
331
1AA20
  5
1AA20
331
1AB31
  5
1B20E
331
1A96C
  5
1A96C
331
1A9A7
  5
1A9A7
331
1A9E6
  5
1A9E6
331
1A92D
  5
1A92D
331
1A968
  5
1A968
331
1A9A3
  5
1A9A3
331
1A9E2
  5
1A9E2
331
1A929
  5
1A929
331
1A964
  5
1A964
331
1A99F
  5
1A99F
331
1A9DE
  5
1A9DE
331
1A925
  5
1A925
331
1A960
  5
1A960
331
1A99B
  5
1A99B
331
1A9DA
  5
1A9DA
331
1A921
  5
1A921
331
1A8F5
  5
1A8F5
331
1A8F1
  5
1A8F1
331
1AAA7
  5
1AAA7
331
1A8ED
  5
1A8ED
331
1AA1C
  5
1AA1C
331
1AB2D
  5
1AB3F
331
1AADE
  5
1AAE1
331
1AAA3
  5
1AAA3
331
1A8E9
  5
1A8E9
331
1AA18
  5
1AA18
331
1AADA
  5
1AADC
331
1AA9F
  5
1AA9F
331
1B31D
  5
1B329
331
1AA14
  5
1AA14
331
1AB25
  5
1AB37
331
1AAD6
  5
1AAD8
331
1AA9B
  5
1AA9B
331
1AA10
  5
1AA10
331
1AAD2
  5
1AAD4
331
1A9D6
  5
1A9D6
331
1A95C
  5
1A95C
331
1A9D2
  5
1A9D2
331
1A958
  5
1A958
331
1A997
  5
1A997
331
1A9CE
  5
1A9CE
331
1AA0D
  5
1AA0D
331
1A954
  5
1A954
331
1A993
  5
1A993
331
1A9CA
  5
1A9CA
331
1AA09
  5
1AA09
331
1A950
  5
1A950
331
1A8E5
  5
1A8E5
331
1A8E1
  5
1A8E1
331
1AA97
  5
1AA97
331
1A8DD
  5
1A8DD
331
1A91C
  5
1A91C
331
1AB1D
  5
1AB20
331
1AA93
  5
1AA93
331
1A8D9
  5
1A8D9
331
1A918
  5
1A918
331
1AACE
  5
1AAD0
331
1AA8F
  5
1AA8F
331
1AACA
  5
1AACC
331
1AB15
  5
1AB18
331
1AA8B
  5
1AA8B
331
1B270
  5
1B298
331
1AB11
  5
1AB14
331
1A98F
  5
1A98F
331
1A98B
  5
1A98B
331
1A9C6
  5
1A9C6
331
1AA05
  5
1AA05
331
1A94C
  5
1A94C
331
1A987
  5
1A987
331
1A9C2
  5
1A9C2
331
1AA01
  5
1AA01
331
1A948
  5
1A948
331
1A983
  5
1A983
331
1A9BE
  5
1A9BE
331
1A9FD
  5
1A9FD
331
1A944
  5
1A944
331
1A9F9
  5
1A9F9
331
1A940
  5
1A940
331
1A8D5
  5
1A8D5
331
1A914
  5
1A914
331
562A
  5
2271
331
1A8D1
  5
1A8D1
331
1A910
  5
1A910
331
1AAC6
  5
1AAC8
331
1AA87
  5
1AA87
331
1A8CD
  5
1A8CD
331
1A90C
  5
1A90C
331
1AAC2
  5
1AAC4
331
1AA83
  5
1AA83
331
1AB0D
  5
1AB10
331
1A8C9
  5
1A8C9
331
1A908
  5
1A908
331
1AABE
  5
1AAC0
331
1AB09
  5
1AB0C
331
1AABA
  5
1AABB
331
1B220
  5
1AB33
331
1AAF9
  5
1AAFC
331
1A97F
  5
1A97F
331
1A97B
  5
1A97B
331
1A9B6
  5
1A9B6
331
1A9F5
  5
1A9F5
331
1A93C
  5
1A93C
331
1A977
  5
1A977
331
1A9B2
  5
1A9B2
331
1A9F1
  5
1A9F1
331
1A938
  5
1A938
331
1A973
  5
1A973
331
1A9AE
  5
1A9AE
331
1A9ED
  5
1A9ED
331
1A934
  5
1A934
331
1A9AA
  5
1A9AA
331
1A9E9
  5
1A9E9
331
1A930
  5
1A930
331
1A8C5
  5
1A8C5
331
1A904
  5
1A904
331
1A8C1
  5
1A8C1
331
1A900
  5
1A900
331
1AAB6
  5
1AAB6
331
1AA77
  5
1AA77
331
1A8BD
  5
1A8BD
331
1A8FC
  5
1A8FC
331
1AAB2
  5
1AAB2
331
1AA73
  5
1AA73
331
1AAF5
  5
1AAF8
331
1AB44
  5
1B26F
331
1A8B9
  5
1A8B9
331
1A8F8
  5
1A8F8
331
1AAAE
  5
1AAAE
331
1AAAA
  5
1AAAA
331
1B32C
  5
1B32E
331
1AA23
  5
1AA23
331
1B328
  5
1B32A
331
1AAE1
  5
1AAE4
331
1AB30
  5
1AB51
331
1A96F
  5
1A96F
331
1A96B
  5
1A96B
331
1A9A6
  5
1A9A6
331
1A9E5
  5
1A9E5
331
1A92C
  5
1A92C
331
1A967
  5
1A967
331
1A9A2
  5
1A9A2
331
1A9E1
  5
1A9E1
331
1A928
  5
1A928
331
1A963
  5
1A963
331
1A99E
  5
1A99E
331
1A9DD
  5
1A9DD
331
1A924
  5
1A924
331
1A99A
  5
1A99A
331
1A9D9
  5
1A9D9
331
1A920
  5
1A920
331
1A8F4
  5
1A8F4
331
1A8F0
  5
1A8F0
331
1AAA6
  5
1AAA6
331
1AA1F
  5
1AA1F
331
1A8EC
  5
1A8EC
331
1AAA2
  5
1AAA2
331
1AA1B
  5
1AA1B
331
1AADD
  5
1AAE0
331
1AB2C
  5
1AB3E
331
1A8E8
  5
1A8E8
331
1AA9E
  5
1AA9E
331
1AAD9
  5
1AADB
331
1AA17
  5
1AA17
331
1AA9A
  5
1AA9A
331
1B31C
  5
1B328
331
1AA13
  5
1AA13
331
1AAD5
  5
1AAD7
331
1AB24
  5
1AB36
331
1AAD1
  5
1AAD3
331
1AB20
  5
1AB32
  0
SORTENTSTABLE
  5
1B618
102
{ACAD_REACTORS
330
1B617
102
}
330
1B617
100
AcDbSortentsTable
330
1B60D
  0
XRECORD
  5
1B6C4
102
{ACAD_REACTORS
330
1B6C3
102
}
330
1B6C3
100
AcDbXrecord
280
     1
 40
102645.0
  1
\pxqr;{\fArial TUR|b0|i0|c0|p34;\T1.05;AN ARCONIC COMPANY}
  0
XRECORD
  5
1B6C9
102
{ACAD_REACTORS
330
1B6C7
102
}
330
1B6C7
100
AcDbXrecord
280
     1
340
15
  0
XRECORD
  5
1B6CA
102
{ACAD_REACTORS
330
1B6C7
102
}
330
1B6C7
100
AcDbXrecord
280
     1
340
15
  0
XRECORD
  5
1B6C8
102
{ACAD_REACTORS
330
1B6C7
102
}
330
1B6C7
100
AcDbXrecord
280
     1
340
15
  0
LAYOUT
  5
59
102
{ACAD_XDICTIONARY
360
1B6CC
102
}
102
{ACAD_REACTORS
330
1A
102
}
330
1A
100
AcDbPlotSettings
  1

  2
None
  4

  6

 40
0.0
 41
0.0
 42
0.0
 43
0.0
 44
0.0
 45
0.0
 46
0.0
 47
0.0
 48
0.0
 49
0.0
140
0.0
141
0.0
142
1.0
143
1.0
 70
   688
 72
     0
 73
     0
 74
     5
  7
monochrome2.ctb
 75
    16
147
1.0
148
0.0
149
0.0
100
AcDbLayout
  1
Layout1
 70
     1
 71
     1
 10
0.0
 20
0.0
 11
12.0
 21
9.0
 12
0.0
 22
0.0
 32
0.0
 14
0.0
 24
0.0
 34
0.0
 15
0.0
 25
0.0
 35
0.0
146
0.0
 13
0.0
 23
0.0
 33
0.0
 16
1.0
 26
0.0
 36
0.0
 17
0.0
 27
1.0
 37
0.0
 76
     0
330
58
  0
LAYOUT
  5
5E
102
{ACAD_XDICTIONARY
360
1B6CE
102
}
102
{ACAD_REACTORS
330
1A
102
}
330
1A
100
AcDbPlotSettings
  1

  2
None
  4

  6

 40
0.0
 41
0.0
 42
0.0
 43
0.0
 44
0.0
 45
0.0
 46
0.0
 47
0.0
 48
0.0
 49
0.0
140
0.0
141
0.0
142
1.0
143
1.0
 70
   688
 72
     0
 73
     0
 74
     5
  7
monochrome2.ctb
 75
    16
147
1.0
148
0.0
149
0.0
100
AcDbLayout
  1
Layout2
 70
     1
 71
     2
 10
0.0
 20
0.0
 11
12.0
 21
9.0
 12
0.0
 22
0.0
 32
0.0
 14
0.0
 24
0.0
 34
0.0
 15
0.0
 25
0.0
 35
0.0
146
0.0
 13
0.0
 23
0.0
 33
0.0
 16
1.0
 26
0.0
 36
0.0
 17
0.0
 27
1.0
 37
0.0
 76
     0
330
5D
  0
LAYOUT
  5
22
102
{ACAD_XDICTIONARY
360
1A60A
102
}
102
{ACAD_REACTORS
330
1A
102
}
330
1A
100
AcDbPlotSettings
  1

  2
none_device
  4
ANSI_A_(8.50_x_11.00_Inches)
  6

 40
6.349999904632568
 41
19.04999923706055
 42
6.350006103515625
 43
19.04998779296875
 44
215.8999938964844
 45
279.3999938964844
 46
0.0
 47
0.0
 48
0.0
 49
0.0
140
0.0
141
0.0
142
1.0
143
2.584895464708373
 70
 11952
 72
     0
 73
     1
 74
     0
  7
monochrome2.ctb
 75
     0
147
0.3868628397755418
148
0.0
149
0.0
100
AcDbLayout
  1
Model
 70
     1
 71
     0
 10
0.0
 20
0.0
 11
12.0
 21
9.0
 12
0.0
 22
0.0
 32
0.0
 14
0.0
 24
0.0
 34
0.0
 15
0.0
 25
0.0
 35
0.0
146
0.0
 13
0.0
 23
0.0
 33
0.0
 16
1.0
 26
0.0
 36
0.0
 17
0.0
 27
1.0
 37
0.0
 76
     0
330
1F
331
2497
  0
MATERIAL
  5
8E
102
{ACAD_XDICTIONARY
360
8F
102
}
102
{ACAD_REACTORS
330
72
102
}
330
72
100
AcDbMaterial
  1
ByBlock
 72
     0
 43
0.0208333333333333
 43
0.0
 43
0.0
 43
0.0
 43
0.0
 43
0.0208333333333333
 43
0.0
 43
0.0
 43
0.0
 43
0.0
 43
1.0
 43
0.0
 43
0.0
 43
0.0
 43
0.0
 43
1.0
 77
     0
 47
0.0208333333333333
 47
0.0
 47
0.0
 47
0.0
 47
0.0
 47
0.0208333333333333
 47
0.0
 47
0.0
 47
0.0
 47
0.0
 47
1.0
 47
0.0
 47
0.0
 47
0.0
 47
0.0
 47
1.0
171
     0
 49
0.0208333333333333
 49
0.0
 49
0.0
 49
0.0
 49
0.0
 49
0.0208333333333333
 49
0.0
 49
0.0
 49
0.0
 49
0.0
 49
1.0
 49
0.0
 49
0.0
 49
0.0
 49
0.0
 49
1.0
175
     0
142
0.0208333333333333
142
0.0
142
0.0
142
0.0
142
0.0
142
0.0208333333333333
142
0.0
142
0.0
142
0.0
142
0.0
142
1.0
142
0.0
142
0.0
142
0.0
142
0.0
142
1.0
179
     0
144
0.0208333333333333
144
0.0
144
0.0
144
0.0
144
0.0
144
0.0208333333333333
144
0.0
144
0.0
144
0.0
144
0.0
144
1.0
144
0.0
144
0.0
144
0.0
144
0.0
144
1.0
147
0.0208333333333333
147
0.0
147
0.0
147
0.0
147
0.0
147
0.0208333333333333
147
0.0
147
0.0
147
0.0
147
0.0
147
1.0
147
0.0
147
0.0
147
0.0
147
0.0
147
1.0
  0
MATERIAL
  5
86
102
{ACAD_XDICTIONARY
360
87
102
}
102
{ACAD_REACTORS
330
72
102
}
330
72
100
AcDbMaterial
  1
ByLayer
 72
     0
 43
0.0208333333333333
 43
0.0
 43
0.0
 43
0.0
 43
0.0
 43
0.0208333333333333
 43
0.0
 43
0.0
 43
0.0
 43
0.0
 43
1.0
 43
0.0
 43
0.0
 43
0.0
 43
0.0
 43
1.0
 77
     0
 47
0.0208333333333333
 47
0.0
 47
0.0
 47
0.0
 47
0.0
 47
0.0208333333333333
 47
0.0
 47
0.0
 47
0.0
 47
0.0
 47
1.0
 47
0.0
 47
0.0
 47
0.0
 47
0.0
 47
1.0
171
     0
 49
0.0208333333333333
 49
0.0
 49
0.0
 49
0.0
 49
0.0
 49
0.0208333333333333
 49
0.0
 49
0.0
 49
0.0
 49
0.0
 49
1.0
 49
0.0
 49
0.0
 49
0.0
 49
0.0
 49
1.0
175
     0
142
0.0208333333333333
142
0.0
142
0.0
142
0.0
142
0.0
142
0.0208333333333333
142
0.0
142
0.0
142
0.0
142
0.0
142
1.0
142
0.0
142
0.0
142
0.0
142
0.0
142
1.0
179
     0
144
0.0208333333333333
144
0.0
144
0.0
144
0.0
144
0.0
144
0.0208333333333333
144
0.0
144
0.0
144
0.0
144
0.0
144
1.0
144
0.0
144
0.0
144
0.0
144
0.0
144
1.0
147
0.0208333333333333
147
0.0
147
0.0
147
0.0
147
0.0
147
0.0208333333333333
147
0.0
147
0.0
147
0.0
147
0.0
147
1.0
147
0.0
147
0.0
147
0.0
147
0.0
147
1.0
  0
MATERIAL
  5
96
102
{ACAD_XDICTIONARY
360
97
102
}
102
{ACAD_REACTORS
330
72
102
}
330
72
100
AcDbMaterial
  1
Global
 72
     0
 43
0.0208333333333333
 43
0.0
 43
0.0
 43
0.0
 43
0.0
 43
0.0208333333333333
 43
0.0
 43
0.0
 43
0.0
 43
0.0
 43
1.0
 43
0.0
 43
0.0
 43
0.0
 43
0.0
 43
1.0
 77
     0
 47
0.0208333333333333
 47
0.0
 47
0.0
 47
0.0
 47
0.0
 47
0.0208333333333333
 47
0.0
 47
0.0
 47
0.0
 47
0.0
 47
1.0
 47
0.0
 47
0.0
 47
0.0
 47
0.0
 47
1.0
171
     0
 49
0.0208333333333333
 49
0.0
 49
0.0
 49
0.0
 49
0.0
 49
0.0208333333333333
 49
0.0
 49
0.0
 49
0.0
 49
0.0
 49
1.0
 49
0.0
 49
0.0
 49
0.0
 49
0.0
 49
1.0
175
     0
142
0.0208333333333333
142
0.0
142
0.0
142
0.0
142
0.0
142
0.0208333333333333
142
0.0
142
0.0
142
0.0
142
0.0
142
1.0
142
0.0
142
0.0
142
0.0
142
0.0
142
1.0
179
     0
144
0.0208333333333333
144
0.0
144
0.0
144
0.0
144
0.0
144
0.0208333333333333
144
0.0
144
0.0
144
0.0
144
0.0
144
1.0
144
0.0
144
0.0
144
0.0
144
0.0
144
1.0
147
0.0208333333333333
147
0.0
147
0.0
147
0.0
147
0.0
147
0.0208333333333333
147
0.0
147
0.0
147
0.0
147
0.0
147
1.0
147
0.0
147
0.0
147
0.0
147
0.0
147
1.0
  0
MLEADERSTYLE
  5
D4
102
{ACAD_REACTORS
330
D3
102
}
330
D3
100
AcDbMLeaderStyle
170
     2
171
     1
172
     0
 90
        2
 40
0.0
 41
0.0
173
     1
 91
-1073741824
340
15
 92
       -1
290
     1
 42
0.125
291
     1
 43
0.25
  3
Standard
 44
0.25
300

342
11
174
     1
178
     1
175
     1
176
     0
 93
-1073741824
 45
0.25
292
     0
297
     0
 46
0.18
 94
-1056964608
 47
1.0
 49
1.0
140
1.0
293
     1
141
0.0
294
     1
177
     0
142
1.0
295
     0
296
     0
143
0.125
1001
ACAD
1000
AcRTDxfName
1000
MLEADERSTYLE
1001
ACAD_MLEADERVER
1070
     2
  0
MLINESTYLE
  5
18
102
{ACAD_REACTORS
330
17
102
}
330
17
100
AcDbMlineStyle
  2
STANDARD
 70
     0
  3

 62
   256
 51
90.0
 52
90.0
 71
     2
 49
0.5
 62
   256
  6
BYLAYER
 49
-0.5
 62
   256
  6
BYLAYER
  0
ACDBPLACEHOLDER
  5
F
102
{ACAD_REACTORS
330
E
102
}
330
E
  0
SCALE
  5
B2
102
{ACAD_REACTORS
330
B1
102
}
330
B1
100
AcDbScale
 70
     0
300
1:1
140
1.0
141
1.0
290
     1
1001
ACAD
1000
AcRTDxfName
1000
SCALE
  0
SCALE
  5
1B5F2
102
{ACAD_REACTORS
330
B1
102
}
330
B1
100
AcDbScale
 70
     0
300
1/128" = 1'-0"
140
0.0078125
141
12.0
290
     0
  0
SCALE
  5
1B5F3
102
{ACAD_REACTORS
330
B1
102
}
330
B1
100
AcDbScale
 70
     0
300
1/64" = 1'-0"
140
0.015625
141
12.0
290
     0
  0
SCALE
  5
1B5F4
102
{ACAD_REACTORS
330
B1
102
}
330
B1
100
AcDbScale
 70
     0
300
1/32" = 1'-0"
140
0.03125
141
12.0
290
     0
  0
SCALE
  5
1B5F5
102
{ACAD_REACTORS
330
B1
102
}
330
B1
100
AcDbScale
 70
     0
300
1/16" = 1'-0"
140
0.0625
141
12.0
290
     0
  0
SCALE
  5
1B5F6
102
{ACAD_REACTORS
330
B1
102
}
330
B1
100
AcDbScale
 70
     0
300
3/32" = 1'-0"
140
0.09375
141
12.0
290
     0
  0
SCALE
  5
1B5F7
102
{ACAD_REACTORS
330
B1
102
}
330
B1
100
AcDbScale
 70
     0
300
1/8" = 1'-0"
140
0.125
141
12.0
290
     0
  0
SCALE
  5
1B5F8
102
{ACAD_REACTORS
330
B1
102
}
330
B1
100
AcDbScale
 70
     0
300
3/16" = 1'-0"
140
0.1875
141
12.0
290
     0
  0
SCALE
  5
1B5F9
102
{ACAD_REACTORS
330
B1
102
}
330
B1
100
AcDbScale
 70
     0
300
1/4" = 1'-0"
140
0.25
141
12.0
290
     0
  0
SCALE
  5
1B5FA
102
{ACAD_REACTORS
330
B1
102
}
330
B1
100
AcDbScale
 70
     0
300
3/8" = 1'-0"
140
0.375
141
12.0
290
     0
  0
SCALE
  5
1B5FB
102
{ACAD_REACTORS
330
B1
102
}
330
B1
100
AcDbScale
 70
     0
300
1/2" = 1'-0"
140
0.5
141
12.0
290
     0
  0
SCALE
  5
1B5FC
102
{ACAD_REACTORS
330
B1
102
}
330
B1
100
AcDbScale
 70
     0
300
3/4" = 1'-0"
140
0.75
141
12.0
290
     0
  0
SCALE
  5
1B5FD
102
{ACAD_REACTORS
330
B1
102
}
330
B1
100
AcDbScale
 70
     0
300
1" = 1'-0"
140
1.0
141
12.0
290
     0
  0
SCALE
  5
1B5FE
102
{ACAD_REACTORS
330
B1
102
}
330
B1
100
AcDbScale
 70
     0
300
1-1/2" = 1'-0"
140
1.5
141
12.0
290
     0
  0
SCALE
  5
1B5FF
102
{ACAD_REACTORS
330
B1
102
}
330
B1
100
AcDbScale
 70
     0
300
3" = 1'-0"
140
3.0
141
12.0
290
     0
  0
SCALE
  5
1B600
102
{ACAD_REACTORS
330
B1
102
}
330
B1
100
AcDbScale
 70
     0
300
6" = 1'-0"
140
6.0
141
12.0
290
     0
  0
SCALE
  5
1B601
102
{ACAD_REACTORS
330
B1
102
}
330
B1
100
AcDbScale
 70
     0
300
1'-0" = 1'-0"
140
12.0
141
12.0
290
     0
  0
TABLESTYLE
  5
B0
102
{ACAD_XDICTIONARY
360
2458
102
}
102
{ACAD_REACTORS
330
AF
102
}
330
AF
100
AcDbTableStyle
  3
Standard
 70
     0
 71
     0
 40
0.06
 41
0.06
280
     0
281
     0
  7
Standard
140
0.18
170
     2
 62
     0
 63
     7
283
     0
274
    -2
284
     1
 64
     0
275
    -2
285
     1
 65
     0
276
    -2
286
     1
 66
     0
277
    -2
287
     1
 67
     0
278
    -2
288
     1
 68
     0
279
    -2
289
     1
 69
     0
  7
Standard
140
0.25
170
     5
 62
     0
 63
     7
283
     0
274
    -2
284
     1
 64
     0
275
    -2
285
     1
 65
     0
276
    -2
286
     1
 66
     0
277
    -2
287
     1
 67
     0
278
    -2
288
     1
 68
     0
279
    -2
289
     1
 69
     0
  7
Standard
140
0.18
170
     5
 62
     0
 63
     7
283
     0
274
    -2
284
     1
 64
     0
275
    -2
285
     1
 65
     0
276
    -2
286
     1
 66
     0
277
    -2
287
     1
 67
     0
278
    -2
288
     1
 68
     0
279
    -2
289
     1
 69
     0
  0
VISUALSTYLE
  5
A4
102
{ACAD_XDICTIONARY
360
1B6DD
102
}
102
{ACAD_REACTORS
330
9E
102
}
330
9E
100
AcDbVisualStyle
  2
2dWireframe
 70
     4
 71
     0
 72
     2
 73
     0
 90
        0
 40
-0.6
 41
-30.0
 62
     5
 63
     7
 74
     1
 91
        4
 64
     7
 65
   257
 75
     1
175
     1
 42
1.0
 92
        0
 66
   257
 43
1.0
 76
     1
 77
     6
 78
     2
 67
     7
 79
     5
170
     0
171
     0
290
     0
174
     0
 93
        1
 44
0.0
173
     0
291
     0
 45
0.0
1001
ACAD
1000
AcRTDxfName
1000
VISUALSTYLE
1000
AcDbSavedByObjectVersion
1070
     0
  0
VISUALSTYLE
  5
A6
102
{ACAD_XDICTIONARY
360
1B6E1
102
}
102
{ACAD_REACTORS
330
9E
102
}
330
9E
100
AcDbVisualStyle
  2
3D Hidden
 70
     6
 71
     1
 72
     2
 73
     2
 90
        0
 40
-0.6
 41
-30.0
 62
     5
 63
     7
 74
     2
 91
        2
 64
     7
 65
   257
 75
     2
175
     1
 42
40.0
 92
        0
 66
   257
 43
1.0
 76
     1
 77
     6
 78
     2
 67
     7
 79
     3
170
     0
171
     0
290
     0
174
     0
 93
        1
 44
0.0
173
     0
291
     0
 45
0.0
1001
ACAD
1000
AcRTDxfName
1000
VISUALSTYLE
1000
AcDbSavedByObjectVersion
1070
     0
  0
VISUALSTYLE
  5
A5
102
{ACAD_XDICTIONARY
360
1B6DF
102
}
102
{ACAD_REACTORS
330
9E
102
}
330
9E
100
AcDbVisualStyle
  2
3dWireframe
 70
     5
 71
     0
 72
     2
 73
     0
 90
        0
 40
-0.6
 41
-30.0
 62
     5
 63
     7
 74
     1
 91
        4
 64
     7
 65
   257
 75
     1
175
     1
 42
1.0
 92
        0
 66
   257
 43
1.0
 76
     1
 77
     6
 78
     2
 67
     7
 79
     5
170
     0
171
     0
290
     0
174
     0
 93
        1
 44
0.0
173
     0
291
     0
 45
0.0
1001
ACAD
1000
AcRTDxfName
1000
VISUALSTYLE
1000
AcDbSavedByObjectVersion
1070
     0
  0
VISUALSTYLE
  5
A3
102
{ACAD_XDICTIONARY
360
1B6DB
102
}
102
{ACAD_REACTORS
330
9E
102
}
330
9E
100
AcDbVisualStyle
  2
Basic
 70
     7
 71
     1
 72
     0
 73
     1
 90
        0
 40
-0.6
 41
-30.0
 62
     5
 63
     7
 74
     0
 91
        4
 64
     7
 65
   257
 75
     1
175
     1
 42
1.0
 92
        8
 66
     7
 43
1.0
 76
     1
 77
     6
 78
     2
 67
     7
 79
     5
170
     0
171
     0
290
     0
174
     0
 93
        1
 44
0.0
173
     0
291
     1
 45
0.0
1001
ACAD
1000
AcRTDxfName
1000
VISUALSTYLE
1000
AcDbSavedByObjectVersion
1070
     0
  0
VISUALSTYLE
  5
AA
102
{ACAD_XDICTIONARY
360
1B6E9
102
}
102
{ACAD_REACTORS
330
9E
102
}
330
9E
100
AcDbVisualStyle
  2
Brighten
 70
    12
 71
     2
 72
     2
 73
     0
 90
        0
 40
-0.6
 41
-30.0
 62
     5
 63
     7
 74
     1
 91
        4
 64
     7
 65
   257
 75
     1
175
     1
 42
1.0
 92
        8
 66
     7
 43
1.0
 76
     1
 77
     6
 78
     2
 67
     7
 79
     5
170
     0
171
     0
290
     0
174
     0
 93
        1
 44
50.0
173
     0
291
     1
 45
0.0
1001
ACAD
1000
AcRTDxfName
1000
VISUALSTYLE
1000
AcDbSavedByObjectVersion
1070
     0
  0
VISUALSTYLE
  5
AE
102
{ACAD_XDICTIONARY
360
1B6F1
102
}
102
{ACAD_REACTORS
330
9E
102
}
330
9E
100
AcDbVisualStyle
  2
ColorChange
 70
    16
 71
     2
 72
     2
 73
     3
 90
        0
 40
-0.6
 41
-30.0
 62
     5
 63
     8
 74
     1
 91
        4
 64
     7
 65
   257
 75
     1
175
     1
 42
1.0
 92
        8
 66
     8
 43
1.0
 76
     1
 77
     6
 78
     2
 67
     7
 79
     5
170
     0
171
     0
290
     0
174
     0
 93
        1
 44
0.0
173
     0
291
     1
 45
0.0
1001
ACAD
1000
AcRTDxfName
1000
VISUALSTYLE
1000
AcDbSavedByObjectVersion
1070
     0
  0
VISUALSTYLE
  5
A7
102
{ACAD_XDICTIONARY
360
1B6E3
102
}
102
{ACAD_REACTORS
330
9E
102
}
330
9E
100
AcDbVisualStyle
  2
Conceptual
 70
     9
 71
     3
 72
     2
 73
     0
 90
        0
 40
-0.6
 41
-30.0
 62
     5
 63
     7
 74
     2
 91
        2
 64
     7
 65
   257
 75
     1
175
     1
 42
40.0
 92
        8
 66
     7
 43
1.0
 76
     1
 77
     6
 78
     2
 67
     7
 79
     3
170
     0
171
     0
290
     0
174
     0
 93
        1
 44
0.0
173
     0
291
     0
 45
0.0
1001
ACAD
1000
AcRTDxfName
1000
VISUALSTYLE
1000
AcDbSavedByObjectVersion
1070
     0
  0
VISUALSTYLE
  5
A9
102
{ACAD_XDICTIONARY
360
1B6E7
102
}
102
{ACAD_REACTORS
330
9E
102
}
330
9E
100
AcDbVisualStyle
  2
Dim
 70
    11
 71
     2
 72
     2
 73
     0
 90
        0
 40
-0.6
 41
-30.0
 62
     5
 63
     7
 74
     1
 91
        4
 64
     7
 65
   257
 75
     1
175
     1
 42
1.0
 92
        8
 66
     7
 43
1.0
 76
     1
 77
     6
 78
     2
 67
     7
 79
     5
170
     0
171
     0
290
     0
174
     0
 93
        1
 44
-50.0
173
     0
291
     1
 45
0.0
1001
ACAD
1000
AcRTDxfName
1000
VISUALSTYLE
1000
AcDbSavedByObjectVersion
1070
     0
  0
VISUALSTYLE
  5
2555
102
{ACAD_XDICTIONARY
360
1B706
102
}
102
{ACAD_REACTORS
330
9E
102
}
330
9E
100
AcDbVisualStyle
  2
EdgeColorOff
 70
    22
 71
     2
 72
     2
 73
     0
 90
        0
 40
-0.6
 41
-30.0
 62
     5
 63
     7
 74
     1
 91
        4
 64
     7
 65
   257
 75
     1
175
     1
 42
1.0
 92
        8
 66
     7
 43
1.0
 76
     1
 77
     6
 78
     2
 67
     7
 79
     5
170
     0
171
     0
290
     0
174
     0
 93
        1
 44
0.0
173
     0
291
     1
 45
0.0
1001
ACAD
1000
AcDbSavedByObjectVersion
1070
     0
  0
VISUALSTYLE
  5
AD
102
{ACAD_XDICTIONARY
360
1B6EF
102
}
102
{ACAD_REACTORS
330
9E
102
}
330
9E
100
AcDbVisualStyle
  2
Facepattern
 70
    15
 71
     2
 72
     2
 73
     0
 90
        0
 40
-0.6
 41
-30.0
 62
     5
 63
     7
 74
     1
 91
        4
 64
     7
 65
   257
 75
     1
175
     1
 42
1.0
 92
        8
 66
     7
 43
1.0
 76
     1
 77
     6
 78
     2
 67
     7
 79
     5
170
     0
171
     0
290
     0
174
     0
 93
        1
 44
0.0
173
     0
291
     1
 45
0.0
1001
ACAD
1000
AcRTDxfName
1000
VISUALSTYLE
1000
AcDbSavedByObjectVersion
1070
     0
  0
VISUALSTYLE
  5
9F
102
{ACAD_XDICTIONARY
360
1B6D3
102
}
102
{ACAD_REACTORS
330
9E
102
}
330
9E
100
AcDbVisualStyle
  2
Flat
 70
     0
 71
     2
 72
     1
 73
     1
 90
        2
 40
-0.6
 41
30.0
 62
     5
 63
     7
 74
     0
 91
        4
 64
     7
 65
   257
 75
     1
175
     1
 42
1.0
 92
        8
 66
     7
 43
1.0
 76
     1
 77
     6
 78
     2
 67
     7
 79
     5
170
     0
171
     0
290
     0
174
     0
 93
       13
 44
0.0
173
     0
291
     1
 45
0.0
1001
ACAD
1000
AcRTDxfName
1000
VISUALSTYLE
1000
AcDbSavedByObjectVersion
1070
     0
  0
VISUALSTYLE
  5
A0
102
{ACAD_XDICTIONARY
360
1B6D5
102
}
102
{ACAD_REACTORS
330
9E
102
}
330
9E
100
AcDbVisualStyle
  2
FlatWithEdges
 70
     1
 71
     2
 72
     1
 73
     1
 90
        2
 40
-0.6
 41
30.0
 62
     5
 63
     7
 74
     1
 91
        4
 64
     7
 65
   257
 75
     1
175
     1
 42
1.0
 92
        0
 66
   257
 43
1.0
 76
     1
 77
     6
 78
     2
 67
     7
 79
     5
170
     0
171
     0
290
     0
174
     0
 93
       13
 44
0.0
173
     0
291
     1
 45
0.0
1001
ACAD
1000
AcRTDxfName
1000
VISUALSTYLE
1000
AcDbSavedByObjectVersion
1070
     0
  0
VISUALSTYLE
  5
A1
102
{ACAD_XDICTIONARY
360
1B6D7
102
}
102
{ACAD_REACTORS
330
9E
102
}
330
9E
100
AcDbVisualStyle
  2
Gouraud
 70
     2
 71
     2
 72
     2
 73
     1
 90
        2
 40
-0.6
 41
30.0
 62
     5
 63
     7
 74
     0
 91
        4
 64
     7
 65
   257
 75
     1
175
     1
 42
1.0
 92
        0
 66
     7
 43
1.0
 76
     1
 77
     6
 78
     2
 67
     7
 79
     5
170
     0
171
     0
290
     0
174
     0
 93
       13
 44
0.0
173
     0
291
     1
 45
0.0
1001
ACAD
1000
AcRTDxfName
1000
VISUALSTYLE
1000
AcDbSavedByObjectVersion
1070
     0
  0
VISUALSTYLE
  5
A2
102
{ACAD_XDICTIONARY
360
1B6D9
102
}
102
{ACAD_REACTORS
330
9E
102
}
330
9E
100
AcDbVisualStyle
  2
GouraudWithEdges
 70
     3
 71
     2
 72
     2
 73
     1
 90
        2
 40
-0.6
 41
30.0
 62
     5
 63
     7
 74
     1
 91
        4
 64
     7
 65
   257
 75
     1
175
     1
 42
1.0
 92
        0
 66
   257
 43
1.0
 76
     1
 77
     6
 78
     2
 67
     7
 79
     5
170
     0
171
     0
290
     0
174
     0
 93
       13
 44
0.0
173
     0
291
     1
 45
0.0
1001
ACAD
1000
AcRTDxfName
1000
VISUALSTYLE
1000
AcDbSavedByObjectVersion
1070
     0
  0
VISUALSTYLE
  5
254D
102
{ACAD_XDICTIONARY
360
1B6F6
102
}
102
{ACAD_REACTORS
330
9E
102
}
330
9E
100
AcDbVisualStyle
  2
Hidden
 70
     6
 71
     1
 72
     2
 73
     2
 90
        0
 40
-0.6
 41
-30.0
 62
     5
 63
     7
 74
     2
 91
        2
 64
     7
 65
   257
 75
     2
175
     1
 42
40.0
 92
        0
 66
   257
 43
1.0
 76
     1
 77
     6
 78
     2
 67
     7
 79
     3
170
     0
171
     0
290
     0
174
     0
 93
        1
 44
0.0
173
     0
291
     0
 45
0.0
1001
ACAD
1000
AcDbSavedByObjectVersion
1070
     0
  0
VISUALSTYLE
  5
2553
102
{ACAD_XDICTIONARY
360
1B702
102
}
102
{ACAD_REACTORS
330
9E
102
}
330
9E
100
AcDbVisualStyle
  2
JitterOff
 70
    20
 71
     2
 72
     2
 73
     0
 90
        0
 40
-0.6
 41
-30.0
 62
     5
 63
     7
 74
     1
 91
        4
 64
     7
 65
   257
 75
     1
175
     1
 42
1.0
 92
       10
 66
     7
 43
1.0
 76
     1
 77
     6
 78
     2
 67
     7
 79
     5
170
     0
171
     0
290
     0
174
     0
 93
        1
 44
0.0
173
     0
291
     1
 45
0.0
1001
ACAD
1000
AcDbSavedByObjectVersion
1070
     0
  0
VISUALSTYLE
  5
AC
102
{ACAD_XDICTIONARY
360
1B6ED
102
}
102
{ACAD_REACTORS
330
9E
102
}
330
9E
100
AcDbVisualStyle
  2
Linepattern
 70
    14
 71
     2
 72
     2
 73
     0
 90
        0
 40
-0.6
 41
-30.0
 62
     5
 63
     7
 74
     1
 91
        4
 64
     7
 65
   257
 75
     7
175
     7
 42
1.0
 92
        8
 66
     7
 43
1.0
 76
     1
 77
     6
 78
     2
 67
     7
 79
     5
170
     0
171
     0
290
     0
174
     0
 93
        1
 44
0.0
173
     0
291
     1
 45
0.0
1001
ACAD
1000
AcRTDxfName
1000
VISUALSTYLE
1000
AcDbSavedByObjectVersion
1070
     0
  0
VISUALSTYLE
  5
2554
102
{ACAD_XDICTIONARY
360
1B704
102
}
102
{ACAD_REACTORS
330
9E
102
}
330
9E
100
AcDbVisualStyle
  2
OverhangOff
 70
    21
 71
     2
 72
     2
 73
     0
 90
        0
 40
-0.6
 41
-30.0
 62
     5
 63
     7
 74
     1
 91
        4
 64
     7
 65
   257
 75
     1
175
     1
 42
1.0
 92
        9
 66
     7
 43
1.0
 76
     1
 77
     6
 78
     2
 67
     7
 79
     5
170
     0
171
     0
290
     0
174
     0
 93
        1
 44
0.0
173
     0
291
     1
 45
0.0
1001
ACAD
1000
AcDbSavedByObjectVersion
1070
     0
  0
VISUALSTYLE
  5
A8
102
{ACAD_XDICTIONARY
360
1B6E5
102
}
102
{ACAD_REACTORS
330
9E
102
}
330
9E
100
AcDbVisualStyle
  2
Realistic
 70
     8
 71
     2
 72
     2
 73
     0
 90
        0
 40
-0.6
 41
-30.0
 62
     5
 63
     7
 74
     1
 91
        0
 64
     7
 65
   257
 75
     1
175
     1
 42
1.0
 92
        8
 66
     8
 43
1.0
 76
     1
 77
     6
 78
     2
 67
     7
 79
     5
170
     0
171
     0
290
     0
174
     0
 93
       13
 44
0.0
173
     0
291
     0
 45
0.0
1001
ACAD
1000
AcRTDxfName
1000
VISUALSTYLE
1000
AcDbSavedByObjectVersion
1070
     0
  0
VISUALSTYLE
  5
2552
102
{ACAD_XDICTIONARY
360
1B700
102
}
102
{ACAD_REACTORS
330
9E
102
}
330
9E
100
AcDbVisualStyle
  2
Shaded
 70
    27
 71
     2
 72
     2
 73
     1
 90
        2
 40
-0.6
 41
30.0
 62
     5
 63
     7
 74
     0
 91
        4
 64
     7
 65
   257
 75
     1
175
     1
 42
1.0
 92
        8
 66
   257
 43
1.0
 76
     1
 77
     6
 78
     2
 67
     8
 79
     3
170
     0
171
     0
290
     0
174
     0
 93
        5
 44
0.0
173
     0
291
     0
 45
0.0
1001
ACAD
1000
AcDbSavedByObjectVersion
1070
     0
  0
VISUALSTYLE
  5
2551
102
{ACAD_XDICTIONARY
360
1B6FE
102
}
102
{ACAD_REACTORS
330
9E
102
}
330
9E
100
AcDbVisualStyle
  2
Shaded with edges
 70
    26
 71
     2
 72
     2
 73
     1
 90
        2
 40
-0.6
 41
30.0
 62
     5
 63
     7
 74
     1
 91
       10
 64
     7
 65
   257
 75
     2
175
     1
 42
1.0
 92
        8
 66
   257
 43
1.0
 76
     1
 77
     6
 78
     2
 67
     7
 79
     3
170
     0
171
     0
290
     0
174
     0
 93
        5
 44
0.0
173
     0
291
     0
 45
0.0
1001
ACAD
1000
AcDbSavedByObjectVersion
1070
     0
  0
VISUALSTYLE
  5
254E
102
{ACAD_XDICTIONARY
360
1B6F8
102
}
102
{ACAD_REACTORS
330
9E
102
}
330
9E
100
AcDbVisualStyle
  2
Shades of Gray
 70
    23
 71
     2
 72
     2
 73
     3
 90
        0
 40
-0.6
 41
-30.0
 62
     5
 63
     7
 74
     2
 91
        2
 64
     7
 65
     7
 75
     1
175
     1
 42
40.0
 92
        8
 66
     7
 43
1.0
 76
     1
 77
     6
 78
     2
 67
     7
 79
     3
170
     0
171
     0
290
     0
174
     0
 93
        1
 44
0.0
173
     0
291
     0
 45
0.0
1001
ACAD
1000
AcDbSavedByObjectVersion
1070
     0
  0
VISUALSTYLE
  5
254F
102
{ACAD_XDICTIONARY
360
1B6FA
102
}
102
{ACAD_REACTORS
330
9E
102
}
330
9E
100
AcDbVisualStyle
  2
Sketchy
 70
    24
 71
     1
 72
     2
 73
     2
 90
        0
 40
-0.6
 41
-30.0
 62
     5
 63
     7
 74
     2
 91
        2
 64
     7
 65
     7
 75
     1
175
     1
 42
40.0
 92
       11
 66
     7
 43
1.0
 76
     1
 77
     6
 78
     2
 67
     7
 79
     6
170
     0
171
     0
290
     0
174
     0
 93
        1
 44
0.0
173
     0
291
     0
 45
0.0
1001
ACAD
1000
AcDbSavedByObjectVersion
1070
     0
  0
VISUALSTYLE
  5
AB
102
{ACAD_XDICTIONARY
360
1B6EB
102
}
102
{ACAD_REACTORS
330
9E
102
}
330
9E
100
AcDbVisualStyle
  2
Thicken
 70
    13
 71
     2
 72
     2
 73
     0
 90
        0
 40
-0.6
 41
-30.0
 62
     5
 63
     7
 74
     1
 91
        4
 64
     7
 65
   257
 75
     1
175
     1
 42
1.0
 92
       12
 66
     7
 43
1.0
 76
     1
 77
     6
 78
     2
 67
     7
 79
     5
170
     0
171
     0
290
     0
174
     0
 93
        1
 44
0.0
173
     0
291
     1
 45
0.0
1001
ACAD
1000
AcRTDxfName
1000
VISUALSTYLE
1000
AcDbSavedByObjectVersion
1070
     0
  0
VISUALSTYLE
  5
254C
102
{ACAD_XDICTIONARY
360
1B6F4
102
}
102
{ACAD_REACTORS
330
9E
102
}
330
9E
100
AcDbVisualStyle
  2
Wireframe
 70
     5
 71
     0
 72
     2
 73
     0
 90
        0
 40
-0.6
 41
-30.0
 62
     5
 63
     7
 74
     1
 91
        4
 64
     7
 65
   257
 75
     1
175
     1
 42
1.0
 92
        0
 66
   257
 43
1.0
 76
     1
 77
     6
 78
     2
 67
     7
 79
     3
170
     0
171
     0
290
     0
174
     0
 93
        1
 44
0.0
173
     0
291
     0
 45
0.0
1001
ACAD
1000
AcDbSavedByObjectVersion
1070
     0
  0
VISUALSTYLE
  5
2550
102
{ACAD_XDICTIONARY
360
1B6FC
102
}
102
{ACAD_REACTORS
330
9E
102
}
330
9E
100
AcDbVisualStyle
  2
X-Ray
 70
    25
 71
     2
 72
     2
 73
     1
 90
        1
 40
0.5
 41
-30.0
 62
     5
 63
     7
 74
     1
 91
        0
 64
     7
 65
   257
 75
     1
175
     1
 42
1.0
 92
        8
 66
     7
 43
1.0
 76
     1
 77
     6
 78
     2
 67
     7
 79
     3
170
     0
171
     0
290
     0
174
     0
 93
       13
 44
0.0
173
     0
291
     0
 45
0.0
1001
ACAD
1000
AcDbSavedByObjectVersion
1070
     0
  0
DICTIONARYVAR
  5
246C
102
{ACAD_REACTORS
330
66
102
}
330
66
100
DictionaryVariables
280
     0
  1
1:1
  0
DICTIONARYVAR
  5
246B
102
{ACAD_REACTORS
330
66
102
}
330
66
100
DictionaryVariables
280
     0
  1
STANDARD
  0
DICTIONARYVAR
  5
246A
102
{ACAD_REACTORS
330
66
102
}
330
66
100
DictionaryVariables
280
     0
  1
STANDARD
  0
DICTIONARYVAR
  5
67
102
{ACAD_REACTORS
330
66
102
}
330
66
100
DictionaryVariables
280
     0
  1
2
  0
DICTIONARYVAR
  5
6B
102
{ACAD_REACTORS
330
66
102
}
330
66
100
DictionaryVariables
280
     0
  1
1
  0
DICTIONARYVAR
  5
24C0
102
{ACAD_REACTORS
330
66
102
}
330
66
100
DictionaryVariables
280
     0
  1
0
  0
DICTIONARYVAR
  5
1A21A
102
{ACAD_REACTORS
330
66
102
}
330
66
100
DictionaryVariables
280
     0
  1
1
  0
DICTIONARYVAR
  5
1A21B
102
{ACAD_REACTORS
330
66
102
}
330
66
100
DictionaryVariables
280
     0
  1
15
  0
DICTIONARYVAR
  5
2530
102
{ACAD_REACTORS
330
66
102
}
330
66
100
DictionaryVariables
280
     0
  1
0
  0
DICTIONARYVAR
  5
252F
102
{ACAD_REACTORS
330
66
102
}
330
66
100
DictionaryVariables
280
     0
  1
0
  0
DICTIONARYVAR
  5
24A0
102
{ACAD_REACTORS
330
66
102
}
330
66
100
DictionaryVariables
280
     0
  1

  0
DICTIONARYVAR
  5
24BF
102
{ACAD_REACTORS
330
66
102
}
330
66
100
DictionaryVariables
280
     0
  1
127
  0
DICTIONARYVAR
  5
1B6C1
102
{ACAD_REACTORS
330
66
102
}
330
66
100
DictionaryVariables
280
     0
  1
2
  0
DICTIONARY
  5
1B6CC
330
59
100
AcDbDictionary
280
     1
281
     1
  3
ACAD_XREC_ROUNDTRIP
360
1B6CD
  0
DICTIONARY
  5
1B6CE
330
5E
100
AcDbDictionary
280
     1
281
     1
  3
ACAD_XREC_ROUNDTRIP
360
1B6CF
  0
DICTIONARY
  5
1A60A
330
22
100
AcDbDictionary
280
     1
281
     1
  3
ACAD_XREC_ROUNDTRIP
360
1B6CB
  3
ADSK_XREC_LAYOUTTHUMBNAIL
360
1A60B
  0
DICTIONARY
  5
8F
330
8E
100
AcDbDictionary
280
     1
281
     1
  3
ACAD_XREC_ROUNDTRIP
360
1B6D1
  3
BUMPTILE
360
91
  3
DIFFUSETILE
360
90
  3
OPACITYTILE
360
94
  3
REFLECTIONTILE
360
93
  3
REFRACTIONTILE
360
95
  3
SPECULARTILE
360
92
  0
DICTIONARY
  5
87
330
86
100
AcDbDictionary
280
     1
281
     1
  3
ACAD_XREC_ROUNDTRIP
360
1B6D0
  3
BUMPTILE
360
89
  3
DIFFUSETILE
360
88
  3
OPACITYTILE
360
8C
  3
REFLECTIONTILE
360
8B
  3
REFRACTIONTILE
360
8D
  3
SPECULARTILE
360
8A
  0
DICTIONARY
  5
97
330
96
100
AcDbDictionary
280
     1
281
     1
  3
ACAD_XREC_ROUNDTRIP
360
1B6D2
  3
BUMPTILE
360
99
  3
DIFFUSETILE
360
98
  3
OPACITYTILE
360
9C
  3
REFLECTIONTILE
360
9B
  3
REFRACTIONTILE
360
9D
  3
SPECULARTILE
360
9A
  0
DICTIONARY
  5
2458
330
B0
100
AcDbDictionary
280
     1
281
     1
  3
ACAD_ROUNDTRIP_2008_TABLESTYLE_CELLSTYLEMAP
360
1B6C2
  3
ACAD_XREC_ROUNDTRIP
360
1B6F3
  0
DICTIONARY
  5
1B6DD
330
A4
100
AcDbDictionary
280
     1
281
     1
  3
ACAD_XREC_ROUNDTRIP
360
1B6DE
  0
DICTIONARY
  5
1B6E1
330
A6
100
AcDbDictionary
280
     1
281
     1
  3
ACAD_XREC_ROUNDTRIP
360
1B6E2
  0
DICTIONARY
  5
1B6DF
330
A5
100
AcDbDictionary
280
     1
281
     1
  3
ACAD_XREC_ROUNDTRIP
360
1B6E0
  0
DICTIONARY
  5
1B6DB
330
A3
100
AcDbDictionary
280
     1
281
     1
  3
ACAD_XREC_ROUNDTRIP
360
1B6DC
  0
DICTIONARY
  5
1B6E9
330
AA
100
AcDbDictionary
280
     1
281
     1
  3
ACAD_XREC_ROUNDTRIP
360
1B6EA
  0
DICTIONARY
  5
1B6F1
330
AE
100
AcDbDictionary
280
     1
281
     1
  3
ACAD_XREC_ROUNDTRIP
360
1B6F2
  0
DICTIONARY
  5
1B6E3
330
A7
100
AcDbDictionary
280
     1
281
     1
  3
ACAD_XREC_ROUNDTRIP
360
1B6E4
  0
DICTIONARY
  5
1B6E7
330
A9
100
AcDbDictionary
280
     1
281
     1
  3
ACAD_XREC_ROUNDTRIP
360
1B6E8
  0
DICTIONARY
  5
1B706
330
2555
100
AcDbDictionary
280
     1
281
     1
  3
ACAD_XREC_ROUNDTRIP
360
1B707
  0
DICTIONARY
  5
1B6EF
330
AD
100
AcDbDictionary
280
     1
281
     1
  3
ACAD_XREC_ROUNDTRIP
360
1B6F0
  0
DICTIONARY
  5
1B6D3
330
9F
100
AcDbDictionary
280
     1
281
     1
  3
ACAD_XREC_ROUNDTRIP
360
1B6D4
  0
DICTIONARY
  5
1B6D5
330
A0
100
AcDbDictionary
280
     1
281
     1
  3
ACAD_XREC_ROUNDTRIP
360
1B6D6
  0
DICTIONARY
  5
1B6D7
330
A1
100
AcDbDictionary
280
     1
281
     1
  3
ACAD_XREC_ROUNDTRIP
360
1B6D8
  0
DICTIONARY
  5
1B6D9
330
A2
100
AcDbDictionary
280
     1
281
     1
  3
ACAD_XREC_ROUNDTRIP
360
1B6DA
  0
DICTIONARY
  5
1B6F6
330
254D
100
AcDbDictionary
280
     1
281
     1
  3
ACAD_XREC_ROUNDTRIP
360
1B6F7
  0
DICTIONARY
  5
1B702
330
2553
100
AcDbDictionary
280
     1
281
     1
  3
ACAD_XREC_ROUNDTRIP
360
1B703
  0
DICTIONARY
  5
1B6ED
330
AC
100
AcDbDictionary
280
     1
281
     1
  3
ACAD_XREC_ROUNDTRIP
360
1B6EE
  0
DICTIONARY
  5
1B704
330
2554
100
AcDbDictionary
280
     1
281
     1
  3
ACAD_XREC_ROUNDTRIP
360
1B705
  0
DICTIONARY
  5
1B6E5
330
A8
100
AcDbDictionary
280
     1
281
     1
  3
ACAD_XREC_ROUNDTRIP
360
1B6E6
  0
DICTIONARY
  5
1B700
330
2552
100
AcDbDictionary
280
     1
281
     1
  3
ACAD_XREC_ROUNDTRIP
360
1B701
  0
DICTIONARY
  5
1B6FE
330
2551
100
AcDbDictionary
280
     1
281
     1
  3
ACAD_XREC_ROUNDTRIP
360
1B6FF
  0
DICTIONARY
  5
1B6F8
330
254E
100
AcDbDictionary
280
     1
281
     1
  3
ACAD_XREC_ROUNDTRIP
360
1B6F9
  0
DICTIONARY
  5
1B6FA
330
254F
100
AcDbDictionary
280
     1
281
     1
  3
ACAD_XREC_ROUNDTRIP
360
1B6FB
  0
DICTIONARY
  5
1B6EB
330
AB
100
AcDbDictionary
280
     1
281
     1
  3
ACAD_XREC_ROUNDTRIP
360
1B6EC
  0
DICTIONARY
  5
1B6F4
330
254C
100
AcDbDictionary
280
     1
281
     1
  3
ACAD_XREC_ROUNDTRIP
360
1B6F5
  0
DICTIONARY
  5
1B6FC
330
2550
100
AcDbDictionary
280
     1
281
     1
  3
ACAD_XREC_ROUNDTRIP
360
1B6FD
  0
XRECORD
  5
1B6CD
102
{ACAD_REACTORS
330
1B6CC
102
}
330
1B6CC
100
AcDbXrecord
280
     1
102
SHADEPLOT
 70
     0
102
SHADEPLOTRESLEVEL
 70
     2
102
SHADEPLOTCUSTOMDPI
 70
   300
  0
XRECORD
  5
1B6CF
102
{ACAD_REACTORS
330
1B6CE
102
}
330
1B6CE
100
AcDbXrecord
280
     1
102
SHADEPLOT
 70
     0
102
SHADEPLOTRESLEVEL
 70
     2
102
SHADEPLOTCUSTOMDPI
 70
   300
  0
XRECORD
  5
1B6CB
102
{ACAD_REACTORS
330
1A60A
102
}
330
1A60A
100
AcDbXrecord
280
     1
102
SHADEPLOT
 70
     0
102
SHADEPLOTRESLEVEL
 70
     2
102
SHADEPLOTCUSTOMDPI
 70
   300
  0
XRECORD
  5
1A60B
102
{ACAD_REACTORS
330
1A60A
102
}
330
1A60A
100
AcDbXrecord
280
     1
310
280000000001000080000000010008000000000000800000000000000000000000010000000000003028210000000000C8C8C8000000000000000000000000000000000000000000000000000000000000000000330000006600000099000000CC000000FF00000000330000333300006633000099330000CC330000FF3300
310
0000660000336600006666000099660000CC660000FF66000000990000339900006699000099990000CC990000FF99000000CC000033CC000066CC000099CC0000CCCC0000FFCC000000FF000033FF000066FF000099FF0000CCFF0000FFFF000000003300330033006600330099003300CC003300FF003300003333003333
310
33006633330099333300CC333300FF33330000663300336633006666330099663300CC663300FF66330000993300339933006699330099993300CC993300FF99330000CC330033CC330066CC330099CC3300CCCC3300FFCC330000FF330033FF330066FF330099FF3300CCFF3300FFFF330000006600330066006600660099
310
006600CC006600FF00660000336600333366006633660099336600CC336600FF33660000666600336666006666660099666600CC666600FF66660000996600339966006699660099996600CC996600FF99660000CC660033CC660066CC660099CC6600CCCC6600FFCC660000FF660033FF660066FF660099FF6600CCFF6600
310
FFFF660000009900330099006600990099009900CC009900FF00990000339900333399006633990099339900CC339900FF33990000669900336699006666990099669900CC669900FF66990000999900339999006699990099999900CC999900FF99990000CC990033CC990066CC990099CC9900CCCC9900FFCC990000FF99
310
0033FF990066FF990099FF9900CCFF9900FFFF99000000CC003300CC006600CC009900CC00CC00CC00FF00CC000033CC003333CC006633CC009933CC00CC33CC00FF33CC000066CC003366CC006666CC009966CC00CC66CC00FF66CC000099CC003399CC006699CC009999CC00CC99CC00FF99CC0000CCCC0033CCCC0066CC
310
CC0099CCCC00CCCCCC00FFCCCC0000FFCC0033FFCC0066FFCC0099FFCC00CCFFCC00FFFFCC000000FF003300FF006600FF009900FF00CC00FF00FF00FF000033FF003333FF006633FF009933FF00CC33FF00FF33FF000066FF003366FF006666FF009966FF00CC66FF00FF66FF000099FF003399FF006699FF009999FF00CC
310
99FF00FF99FF0000CCFF0033CCFF0066CCFF0099CCFF00CCCCFF00FFCCFF0000FFFF0033FFFF0066FFFF0099FFFF00CCFFFF00FFFFFF00000000000D0D0D001A1A1A00282828003535350043434300505050005D5D5D006B6B6B00787878008686860093939300A1A1A100AEAEAE00BBBBBB00C9C9C900D6D6D600E4E4E400
310
F1F1F100FFFFFF00000000000000000000000000000000000000000000000000000000000000000000000000000000000000000000000000000000F5F5F5F5F5F5F5F5F5F5F5F5F5F5F5F5F5F5F5F5F5F5F5F5F5F5F5F5F5F5F5F5F5F5F5F5F5F5F5F5F5F5F5F5F5F5F5F5F5F5F5F5F5F5F5F5F5F5F5F5F5F5F5F5F5F5F5F5
310
F5F5F5F5F5F5F5F5F5F5F5F5F5F5F5F5F5F5F5F5F5F5F5F5F5F5F5F5F5F5F5F5F5F5F5F5F5F5F5F5F5F5F5F5F5F5F5F5F5F5F5F5F5F5F5F5F5F5F5F5F5F5F5F5F5F5F5F5F5F5F5F5F5F5F5F5F5F5F5F5F5F5F5F5F5F5F5F5F5F5F5F5F5F5F5F5F5F5F5F5F5F5F5F5F5F5F5F5F5F5F5F5F5F5F5F5F5F5F5F5F5F5F5F5F5F5F5
310
F5F5F5F5F5F5F5F5F5F5F5F5F5F5F5F5F5F5F5F5F5F5F5F5F5F5F5F5F5F5F5F5F5F5F5F5F5F5F500000000000000000000000000000000000000000000F50000000000000000000000000000000000000000000000000000000000000000000000000000000000000000000000000000000000000000000000000000000000
310
00000000000000000000000000000000000000000000000000000000000000000000000000000000000000000000000000000000000000000000000000000000000000000000000000000000000000000000000000000000000000000000000000000000000000000000000000000000000000000000000000000000000000
310
000000000000000000000000000000000000000000000000000000000000000000000000000000000000000000000000000000000000000000000000000000F5000000000000000000000000000000000000000000000000000000000000000000000000000000000000000000000000000000000000000000000000000000
310
00000000000000000000000000000000000000000000000000000000000000000000000000000000000000000000000000000000000000000000000000000000000000000000000000000000000000000000000000000000000000000000000000000000000000000000000000000000000000000000000000000000000000
310
0000000000000000000000000000000000000000000000000000000000000000000000000000000000000000000000000000000000000000000000000000000000F500000000000000000000000000000000000000000000000000000000000000000000000000000000000000000000000000000000000000000000000000
310
00000000000000000000000000000000000000000000000000000000000000000000000000000000000000000000000000000000000000000000000000000000000000000000000000000000000000000000000000000000000000000000000000000000000000000000000000000000000000000000000000000000000000
310
00000000000000000000000000000000000000000000000000000000000000000000000000000000000000000000000000000000000000000000000000000000000000F50000282828282828282828282828282828282828282828282800000000000000000000000000000000000000000000000000000000000000000000
310
00002828282828282828282828282828280000000000000000000000000000000000000000000000000000000000000000000000000000000000000000000000000000000000000000000000000000000000000000000000000000000000000000000000000000000000000000000000000000000000000000000000000000
310
000000000000000000000000000000000000000000000000000000000000000000000000000000000000000000000000000000000000000000000000000000000000000000F5000028282828282828282828282828282828282828282828282828282828000000000000000000000000000000000000000000000000000000
310
00000000282828282828282828282828282828000000000000000000000000000000000000000000000000000000000000000000000000000000000000000000000000000000000000000000000000000000000000000000000000000000000000000000000000000000000000000000000000000000000000000000000000
310
0000000000000000000000000000000000000000000000000000000000000000000000000000000000000000000000000000000000000000000000000000000000000000000000F500000000000000000000000000000000000000000000000000000000000000000000000000000000000000000000000000000000000000
310
00000000000000000000000000000000000000000000000000000000000000000000000000000000000000000000000000000000000000000000000000000000000000000000000000000000000000000000000000000000000000000000000000000000000000000000000000000000000000000000000000000000000000
310
00000000000000000000000000000000000000000000000000000000000000000000000000000000000000000000000000000000000000000000000000000000000000000000000000F50000000000000000000000000000000000000000000000000000000000000000000000000000000000000000000000000000000000
310
00000000000000000000000000000000000000000000000000000000000000000000000000000000000000000000000000000000000000000000000000000000000000000000000000000000000000000000000000000000000000000000000000000000000000000000000000000000000000000000000000000000000000
310
000000000000000000000000000000000000000000000000000000000000000000000000000000000000000000000000000000000000000000000000000000000000000000000000000000F500000000F5F5F500000000000000F5F5F5F5F5F5F5F50000000000000000000000000000000000000000000000000000000000
310
00000000000000000028282828282828282828282828282828280000000000000000000000000000000000000000000000000000000000000000000000000000000000000000000000000000000000000000000000000000000000000000000000000000000000000000000000000000000000000000000000000000000000
310
0000000000000000000000000000000000000000000000000000000000000000000000000000000000000000000000000000000000000000000000000000000000000000000000000000000000F50000F5F5F5F5F5F5F5F5F5F5F5F5F5F5F5F5F5F5F5F5000000000000000000000000000000000000000000000000000000
310
00000000000000000000002828282828282828282828282828282828000000000000000000000000000000000000000000000000000000000000000000000000000000000000000000000000000000000000000000000000000000000000000000000000000000000000000000000000000000000000000000000000000000
310
00000000000000000000000000000000000000000000000000000000000000000000000000000000000000000000000000000000000000000000000000000000000000000000000000000000000000F50000F5F5F500F5F5F5F5F5F5F5F5F5F5F5F5F5F5F5F500000000000000000000000000000000000000000000000000
310
00000000000000000000000028282828282828282828282828282828282800000000000000000000000000000000000000000000000000000000000000000000000000000000000000000000000000000000000000000000000000000000000000000000000000000000000000000000000000000000000000000000000000
310
000000000000000000000000000000000000000000000000000000000000000000000000000000000000000000000000000000000000000000000000000000000000000000000000000000000000000000F50000F5F5F5F5F5F5F5F5F5F5F5F5F5F5F5F5F5F5F5000000000000000000000000000000000000000000000000
310
00000000000000000000000000002828282828282828282828282828282828280000000000000000000000000000000000000000000000000000000000000000000000000000000000000000000000000000000000000000000000000000000000000000000000000000000000000000000000000000000000000000000000
310
0000000000000000000000000000000000000000000000000000000000000000000000000000000000000000000000000000000000000000000000000000000000000000000000000000000000000000000000F50000000000F5F5000000000000000000000000000000000000000000000000000000000000000000000000
310
00000000000000000000000000000000000000000028282828282828282800000000000000000000000000000000000000000000000000000000000000000000000000000000000000000000000000000000000000000000000000000000000000000000000000000000000000000000000000000000000000000000000000
310
00000000000000000000000000000000000000000000000000000000000000000000000000000000000000000000000000000000000000000000000000000000000000000000000000000000000000000000000000F50000000000000000000000000000000000000000000000000000000000000000000000000000000000
310
00000000000000000000000000000000000000000000002828282828282828280000000000000000000000000000000000000000000000000000000000000000000000000000000000000000000000000000000000000000000000000000000000000000000000000000000000000000000000000000000000000000000000
310
000000000000000000000000000000000000000000000000000000000000000000000000000000000000000000000000000000000000000000000000000000000000000000000000000000000000000000000000000000F5000000000000000000000000000000000000000000000000000000000000000000000000000000
310
00000000000000000000000000000000000000000000000000000000000000000000000000000000000000000000000000000000000000000000000000000000000000000000000000000000000000000000000000000000000000000000000000000000000000000000000000000000000000000000000000000000000000
310
0000000000000000000000000000000000000000000000000000000000000000000000000000000000000000000000000000000000000000000000000000000000000000000000000000000000000000000000000000000000F500000000000000000000000000000000000000000000000000000000000000000000000000
310
00000000000000000000000000000000000000000000000000000000000000000000000000000000000000000000000000000000000000000000000000000000000000000000000000000000000000000000000000000000000000000000000000000000000000000000000000000000000000000000000000000000000000
310
00000000000000000000000000000000000000000000000000000000000000000000000000000000000000000000000000000000000000000000000000000000000000000000000000000000000000000000000000000000000000F50000000000000000000000000000000000000000000000000000000000000000000000
310
00000000000000000000000000000000000000000000000000000000000000000000000000000000000000000000000000000000000000000000000000000000000000000000000000000000000000000000000000000000000000000000000000000000000000000000000000000000000000000000000000000000000000
310
000000000000000000000000000000000000000000000000000000000000000000000000000000000000000000000000000000000000000000000000000000000000000000000000000000000000000000000000000000000000000000F5000000000000000000000000000000000000000000000000000000000000000000
310
00000000000000000000000000000000000000000000000000000000000000000000000000000000000000000000000000000000000000000000000000000000000000000000000000000000000000000000000000000000000000000000000000000000000000000000000000000000000000000000000000000000000000
310
0000000000000000000000000000000000000000000000000000000000000000000000000000000000000000000000000000000000000000000000000000000000000000000000000000000000000000000000000000000000000000000000F500000000000000000000000000000000000000000000000000000000000000
310
00000000000000000000000000000000000000000000000000000000000000000000000000000000000000000000000000000000000000000000000000000000000028282800000000000000002828280000000000000000000000000000000000000000000000000000000000000000000000000000000000000000000000
310
00000000000000000000000000000000000000000000000000000000000000000000000000000000000000000000000000000000000000000000000000000000000000000000000000000000000000000000000000000000000000000000000000F50000000000000000000000000000000000000000000000000000000000
310
00000000000000000000000000000000000000000000000000000000000000000000000000000000000000000000000000000000000000000000000000000000000000282828280000000000000028280028000000000000000000000000000000000000000000000000000000000000000000000000000000000000000000
310
000000000000000000000000000000000000000000000000000000000000000000000000000000000000000000000000000000000000000000000000000000000000000000000000000000000000000000000000000000000000000000000000000000F5000000000000000000000000000000000000000000000000000000
310
00000000000000000000000000000000000000000000000000000000000000000000000000000000000000000000000000000000000000000000000000000000000000000028282828000000000000002828282800000000000000000000000000000000000000000000000000000000000000000000000000000000000000
310
0000000000000000000000000000000000000000000000000000000000000000000000000000000000000000000000000000000000000000000000000000000000000000000000000000000000000000000000000000000000000000000000000000000000F50000000000000000002D2D2D2D2D2D2D2D2D2D2D2D2D2D2D2D
310
2D2D2D2D2D2D2D2D002D2D2D2D2D2D002D2D2D2D2D2D2D2D2D2D2D2D2D2D2D2D2D2D2D2D2D2D2D2D2D2D2D2D2D2D2D2D2D2D2D2D002D2D2D2D2D2D2D2D2D2D2D2D2D2D2D2D2D2D2D2D282D2D2D2D2D2D2D2D2D2D282D2D2D2D2D2D2D2D2D2D2D002D2D2D2D2D2D2D2D2D2D2D2D2D2D2D2D2D2D2D2D2D2D2D2D2D2D2D2D2D2D
310
2D2D2D2D2D2D002D2D2D2D2D2D2D2D2D2D2D2D2D2D2D2D2D2D2D2D2D2D2D2D2D2D2D2D2D2D2D2D2D2D2D2D002D2D2D2D2D2D002D2D2D2D2D2D2D2D2D2D2D2D2D2D2D2D2D2D2D2D2D2D2D2D00000000000000000000000000000000000000000000000000000000F500000000000000000000000000002D0000000000000000
310
002D002D00000000000000002D2D00000000000000000000002D2D2D00000000000000002D2D00000000000000000000000000000000000000002D2D0000000000000000002D2D2D2D2D2D282D2D2D2D2D2D2D2D2D2D282D2D2D2D2D00000000000000000000002D2D0000000000002828282D2D2D00000000000000002D2D
310
0000000000000000000000002D2D0000000000002828282D2D2D00000000000000002D2D000000000000000000000000002D0000000000000028282D2D2D0000000000000000002D000000000000000000000000000000000000000000000000000000000000000000F500000000000000000000000000002D000000000000
310
00002D00002D00000000000000002D2D00000000000000000000002D2D2D00000000000000002D2D00000000000000000000000000000000000000002D002D00000000000000002D000000000028000000002D000000000028000000002D00000000000000000000002D2D0000000000002828282D2D2D0000000000000000
310
2D2D0000000000000000000000002D2D0000000000002828282D2D2D00000000000000002D2D000000000000000000000000002D000000000000282828282D002D00000000000000002D000000000000000000000000000000000000000000000000000000000000000000F500000000000000000000000000002D00000000
310
000000002D0000002D000000000000002D2D00000000000000000000002D2D002D000000000000002D2D00000000000000000000000000000000000000002D00002D000000000000002D000000000000000000002D000000000000000000002D00000000000000000000002D2D0000000000002800282828282D0000000000
310
00002D2D0000000000000000000000002D2D0000000000002800282828282D000000000000002D2D000000000000000000000000002D0000000000002828282828282D00000000000000002D000000000000000000000000000000000000000000000000000000000000000000F500000000000000000000000000002D0000
310
00000000002D00000000002D0000000000002D2D00000000000000000000002D2D00002D0000000000002D2D00000000000000000000000000000000000000002D0000002D0000000000002D000000000000000000002D000000000000000000002D00000000000000000000002D2D0000000000002828282D2D00002D0000
310
000000002D2D0000000000000000000000002D2D0000000000002828282D2D00002D0000000000002D2D000000000000000000000000002D000000000000002828002D00002D000000000000002D000000000000000000000000000000000000000000000000000000000000000000F500000000000000000000000000002D
310
0000000000002D000000000000002D00000000002D2D00000000000000000000002D2D00002D0000000000002D2D00000000000000000000000000000000002828002D0000002D0000000000002D000000000000000000002D000000000000000000002D00000000000000000000002D2D00000000002D0000002D2D00002D
310
0000000000002D2D0000000000000000000000002D2D00000000002D0000002D2D0000002D00000000002D2D000000000000000000000000002D00000000002D2D0000002D0000002D0000000000002D000000000000000000000000000000000000000000000000000000000000000000F500000000000000000000000000
310
002D00000000002D00000000000000002D00000000002D2D00000000000000000000002D2D0000002D00000000002D2D000000000000000000000000000000002828002828282800002D00000000002D000000000000000000002D000000000000000000002D00000000000000000000002D2D000000002D000000002D2D00
310
00002D00000000002D2D0000000000000000000000002D2D000000002D000000002D2D0000002D00000000002D2D000000000000000000000000002D00000000002D000000002D000000002D00000000002D000000000000000000000000000000000000000000000000000000000000000000F50000000000000000000000
310
0000002D000000002D000000000000000000002D2D0000002D2D00000000000000000000002D2D000000002D2D0000002D2D00000000000000000000000000000000282828282D00000000002D000000002D000000000000000000002D000000000000000000002D00000000000000000000002D2D000000002D000000002D
310
2D000000002D000000002D2D0000000000000000000000002D2D000000002D000000002D2D000000002D2D0000002D2D000000000000000000000000002D000000002D00000000002D00000000002D000000002D000000000000000000000000000000000000000000000000000000000000000000F5000000000000000000
310
00000000002D0000002D000000000000000000000000002D00002D2D00000000000000000000002D2D00000000002D0000002D2D00000000000000000000000000000000002828002D0000000000002D0000002D000000000000000000002D000000000000000000002D00000000000000000000002D2D0000002D00000000
310
002D2D00000000002D0000002D2D0000000000000000000000002D2D0000002D00000000002D2D0000000000002D00002D2D000000000000000000000000002D0000002D0000000000002D0000000000002D0000002D000000000000000000000000000000000000000000000000000000000000000000F500000000000000
310
000000000000002D0000002D00000000000000000000000000002D002D2D00000000000000000000002D2D0000000000002D00002D2D00000000000000000000000000000000000000002D000000000000002D00002D000000000000000000002D000000000000000000002D00000000000000000000002D2D00002D000000
310
0000002D2D0000000000002D00002D2D0000000000000000000000002D2D00002D0000000000002D2D000000000000002D002D2D000000000000000000000000002D00002D000000000000002D000000000000002D00002D000000000000000000000000000000000000000000000000000000000000000000F50000000000
310
0000000000000000002D00002D0000000000000000000000000000002D002D2D00000000000000000000002D2D000000000000002D002D2D00000000000000000000000000000028282800002D00000000000000002D002D000000002828000000002D000000002828000000002D00000000000000000000002D2D2D2D0000
310
00000000002D2D000000000000002D002D2D0000000000000000000000002D2D002D000000000000002D2D000000000000002D002D2D000000000000000000000000002D002D00000000000000002D000000000000002D00002D000000000000000000000000000000000000000000000000000000000000000000F5000000
310
00000000000000000000002D002D00000000000000000000000000000000002D2D2D00000000000000000000002D2D00000000000000002D2D2D00000000000000000000000000000028282800002D00000000000000002D002D000000282800280000002D000000282828280000002D00000000000000000000002D2D2D00
310
000000000000002D2D000000000000002D002D2D0000000000000000000000002D2D2D00000000000000002D2D00000000000000002D2D2D000000000000000000000000002D2D0000000000000000002D00000000000000002D002D000000000000000000000000000000000000000000000000000000000000000000F500
310
000000000000000000000000002D2D000000000000000000000000000000000000002D2D00000000000000000000002D2D0000000000000000002D2D00000000000000000000000000000028002800002D0000000000000000002D2D000000282828280000002D000000282828280000002D00000000000000000000002D2D
310
2D00000000000000002D2D00000000000000002D2D2D0000000000000000000000002D2D2D00000000000000002D2D0000000000000000002D2D000000000000000000000000002D2D0000000000000000002D0000000000000000002D2D000000000000000000000000000000000000000000000000000000000000000000
310
F500000000000000000000000000002D00000000000000000000000000000000000000002D2828280000000000000000002D2D0000000000000000002D2828280000000000000000002D2D2D2D28282D2D2D2D000000000000000000002D2D2D2D2D28282D2D2D2D2D2D2D2D2D2D2D2D2D2D2D2D0000000000000000000000
310
2D2D0000000000000000002D2D0000000000000000002D282828000000000000000000002D2D0000000000000000002D2D0000000000000000002D28282800000000000000000000002D000000000000000000002D000000000000000000002D28280000000000000000000000000000000000000000000000000000000000
310
0000F500000000000000000000000028002D2D2D00000000000000000000000000000000002D2D2D00280000000000000028002D2D00000000000000002D2D2D28280000000000000000002D2D2D2D2D282D2D2D2D00000000000000002D2D2D2D2D2D2D2D282D2D2D2D2D2D2D2D2D2D2D2D2D2D2D2D000000000000000000
310
28002D2D2D00000000000028002D2D00000000000000002D2D2D2828000000000000000028002D2D2D00000000000028002D2D00000000000000002D2D2D002800000000000000002828002D2D0000000000002828002D00000000000000002D2D2D0028000000000000000000000000000000000000000000000000000000
310
00000000F500000000000000000000002828282D00002D0000000000000000000000000000002D002D2D28282800000000002828282D2D000000000000002D002D2828282800000000000000002D2D000000280000002D00000000000000002D002D000000282828000000002D000000000028000000002D00000000000000
310
002828282D2D002D000000002828282D2D000000000000002D002D282828280000000000002828282D2D002D000000002828282D2D000000000000002D002D2D282828000000000000282828282D002D00000000282828282D000000000000002D00002D282828000000000000000000000000000000000000000000000000
310
000000000000F50000000000000000000000280028282828002D00000000000000000000000000002D282828280028000000000028002828282800000000002D0028282828002800000000000000002D2D000000000000002D000000000000002D00002D000000000000000000002D282828000000000000002D2828280000
310
000000280028282828002D00000028002828282800000000002D28282828000028000000000000280028282828002D0000002800282828280000000000002D282828280028000000000000280028282828002D0000002800282828280000000000002D28282828002800000000000000000000000000000000000000000000
310
0000000000000000F500000000000000000000002828282D0000002D000000000000000000000000002D00002D2D28282800000000002828282D2D00000000002D0000002D2D28280000000000000000002D2D000000000000002D0000000000002D0000002D000000000000000000002D282828000000000000002D282828
310
00000000002828282D2D00002D0000002828282D2D00000000002D0000002D2D2828000000000000002828282D2D0000002D00002828282D2D0000000000002D00002D2D282828000000000000002828002D0000002D0000002828002D0000000000002D0000002D2828280000000000000000000000000000000000000000
310
00000000000000000000F500000000000000000000000000002D000000002D00000000000000000000002D0000002D2D00000000000000000000002D2D00000000002D0000002D2D00000000000000002828282D2D000000282828282D00000000002D000000002D282828000000000000002D282828280000000000002D28
310
282828000000000000002D2D0000002D00000000002D2D00000000002D0000002D2D0000000000000000000000002D2D0000002D00000000002D2D00000000002D0000002D2D000000000000000000000000002D000000002D00000000002D00000000002D000000002D000000000000000000000000000000000000000000
310
000000000000000000000000F500000000000000000000000000002D00000000002D00000000000000002D2D000000002D2D00000000000000000000002D2D0000002D2D000000002D2D000000000000000028282828282800002828002828282800002D000000282828282828280000000000282828280028000000002828
310
2828280028000000000000002D2D000000002D2D0000002D2D0000002D2D000000002D2D0000000000000000000000002D2D000000002D2D0000002D2D0000002D2D000000002D2D000000000000000000000000002D00000000002D000000002D000000002D00000000002D00000000000000000000000000000000000000
310
0000000000000000000000000000F500000000000000000000000000002D0000000000002D000000000000002D00000000002D2D00000000000000000000002D2D00002D2828000000002D2D00000000000000002828282D2D000000002828282D0000002D2828000000002D282828000000000000002D0028282800000000
310
00002D28282800000000000000002D2D00000000002D0000002D2D00002D0000000000002D2D0000000000000000000000002D2D0000000000002D00002D2D00002D0028280000002D2D000000000000000000000000002D0000000000002D0000002D0000002D2828000000002D0000000000000000000000000000000000
310
00000000000000000000000000000000F500000000000000000000000000002D000000000000002D00000000002D0000000000002D2D00000000000000000000002D2D00002D2828280000002D2D00000000000000000000002D2D000000000000002D000000282828280000002D000000000000000000002D000000000000
310
000000002D00000000000000000000002D2D0000000000002D00002D2D00002D0000000000002D2D0000000000000000000000002D2D000000000000002D002D2D00002D2828280000002D2D000000000000000000000000002D000000000000002D00002D00002D282828280000002D000000000000000000000000000000
310
000000000000000000000000000000000000F500000000000000000000000000002D00000000000000002D0000002D000000000000002D2D00000000000000000000002D2D002D002800280000002D2D00000000000000000000002D2D000000000000002D00002D282800280000002D000000000000000000002D00000000
310
0000000000002D00000000000000000000002D2D000000000000002D002D2D002D000000000000002D2D0000000000000000000000002D2D000000000000002D002D2D002D002800280000002D2D000000000000000000000000002D000000000000002D00002D002D00280028280000002D00000000000000000000000000
310
0000000000000000000000000000000000000000F500000000000000000000000000002D00000000000000002D00002D00000028000000002D2D00000000000000000000002D2D2D00002828280000002D2D00000000000000000000002D2D000000000000002D002D00002828000000002D000000000000000000002D0000
310
00000000000000002D00000000000000000000002D2D00000000280000002D2D2D2D00000000000000002D2D0000000000000000000000002D2D00000000000000002D2D2D2D00002828280000002D2D000000000000000000000000002D00000000000000002D002D2D0000002828000000002D0000000000000000000000
310
00000000000000000000000000000000000000000000F500000000000000000000000000002D2D2D2D2D2D2D2D2D2D2D2D2D2D2D2D282D2D2D2D2D2D00000000000000000000002D2D2D2D2D2D282D2D2D2D2D2828280000000000000000002D2D000000000000002D2D2D2D2D2D282D2D2D2D2D000000000000000000002D
310
000000000000000000002D00000000000000000000002D2D2D2D2D2D282D2D2D2D2D2D2D2D2D2D2D2D2D2D2D2D2D0000000000000000000000002D2D2D2D2D2D2D2D2D2D2D2D2D2D2D2D2D2D2D2D2D2D2D28282800000000000000000000002D2D2D2D2D2D2D2D2D2D2D2D2D2D2D2D282D2D2D2D2D2D282800000000000000
310
000000000000000000000000000000000000000000000000F500000000000000000000000000002D2D2D2D2D2D2D2D2D2D2D2D2D2D2D2D282D2D2D2D2D2D00000000000000000000002D2D2D2D2D2D282D2D2D2D2D2828280000000000000000002D2D000000282828282D2D2D2D2D2D282D2D2D2D2D282828000000000000
310
002D000000000000000000002D00000000000000000000002D2D2D2D2D2D282D2D2D2D2D2D2D2D2D2D2D2D2D2D2D2D2D0000000000000000000000002D2D2D2D2D2D2D2D2D2D2D2D2D2D2D2D2D2D2D2D2D2D2D28282800000000000000000000002D2D2D2D2D2D2D2D2D2D2D2D2D2D2D2D282D2D2D2D2D2D28280000000000
310
0000000000000000000000000000000000000000000000000000F50000000000000000000000000000000000000000000000000000000000282828000000000000000000000000002828282D2D0000000028000000002D2828282800000000000000002D2D0000002800002828282800000028000028282828002828000000
310
0000002D000000000000000000002D00000000000000000000000000000000282828000000000000000000000000000000000000000000000000002828282D2D00000000000000000000000000000028000000002D2D282828000000000000282828282D000000000000282828282D000000002800000000002D2828280000
310
00000000000000000000000000000000000000000000000000000000F50000000000000000000000000000000000000000000000000000000028282828000000000000000000000000002800282828280000002800000028282800002800000000000000002D2D000000282828282D000000000028000000002D2828280000
310
00000000002D000000000028000000002D0000000000000000000000000000000028282800000000000000000000000000000000000000000000000000280028282828000000000000000000280000000000000000282828280028000000000000280000282828000000000028002828282800280000002800282828280028
310
000000000000000000000000000000000000000000000000000000000000F50000000000000000000000000000000000000000000000000000000028282828000000000000000000000000002828282D2D0000000028000000002D2D28282800000000000000002D2D000000280000002D000000000028000000002D000000
310
000000000000002D000000000028000000002D00000000000000000000000000000000280028000000000000000000000000000000000000000000000000002828282D2D00000000000000000000280000000000000000002D2D282828000000000000282828002D000000000000002828002D000028000000280000002D28
310
2828000000000000000000000000000000000000000000000000000000000000F50000000000000000000000000000000000000000000000000000000000282800000000000000000000000000000000002D2D2D2D2D2D282D2D2D2D2D2D00000000000000000000002D2D2D2D2D282D2D2D2D2D2D2D2D2D282D2D2D2D2D2D
310
2D2D2D2D2D2D2D2D2D2D2D2D2D2D2D282D2D2D2D2D00000000000000000000000000000000282800000000000000000000000000000000000000000000000000000000002D2D2D2D2D2D2D2D2D2D2D2D2D2D2D2D2D2D2D2D2D2D2D2D000000000000000000000000002D2D2D2D2D2D2D2D2D2D2D2D2D2D282D2D2D2D2D2D2D
310
2D000000000000000000000000000000000000000000000000000000000000000000F50000000000000000000000000000000000000000000000000000000000000000000000000000000000000000000000002D2D2D2D2D2828282D2D2D2D2D00000000000000000000002D2D2D2D2828282D2D2D2D2D2D2D2828282D2D2D
310
2D2D2D2D2D2D2D2D2D2D2D2D2D2D2D2D2828282D2D2D2D00000000000000000000000000000000000000000000000000000000000000000000000000000000000000000000002D2D2D2D2D2D2D2D2D2D2D2D2D2D2D2D2D2D2D2D2D2D2D2D000000000000000000000000002D2D2D2D2D2D2D2D2D2D2D2D2D2828282D2D2D2D
310
2D2D2D000000000000000000000000000000000000000000000000000000000000000000F5000000000000000000000000000000000000000000000000000000000000000000000000000000000000000000000000000000000028282800000000000000000000000000000000000000002828280000000000002828282800
310
00000000000000000000000000000000002828282800000000000000000000000000000000000000000000000000000000000000000000000000000000000000000000000000000000000000000000000000282828280000000000000000000000000000000000000000000000000000000000000000000000002828282828
310
2828000000000000000000000000000000000000000000000000000000000000000000000000F500000000000000000000000000000000000000000000000000000000000000000000000000000000000000000000000000000000002800280000000000000000000000000000000000000000280028000000000000282828
310
28000000000000000000000000000000000000282828280000000000000000000000000000000000000000000000000000000000000000000000000000000000000000000000000000000000000000000000000028282828000000000000000000000000000000000000000000000000000000000000000000000000282828
310
28280028000000000000000000000000000000000000000000000000000000000000000000000000F50000000000000000000000000000000000000000000000000000000000000000000000000000000000000000000000000000000000282800000000000000000000000000000000000000000028280000000000000000
310
28280000000000000000000000000000000000000000282800000000000000000000000000000000000000000000000000000000000000000000000000000000000000000000000000000000000000000000000000000028280000000000000000000000000000000000000000000000000000000000000000000000000000
310
282800002828000000000000000000000000000000000000000000000000000000000000000000000000F5000000000000000000000000000000000000000000000000000000000000000000000000000000000000000000000000000000000000000000000000000000000000000000000000000000000000000000000000
310
00000000000000000000000000000000000000000000000000000000000000000000000000000000000000000000000000000000000000000000000000000000000000000000000000000000000000000000000000000000000000000000000000000000000000000000000000000000000000000000000000000000000000
310
0000000000000000000000000000000000000000000000000000000000000000000000000000000000000000F500000000000000000000000000000000000000000000000000000000000000000000000000000000000000000000000000000000000000000000000000000000000000000000000000000000000000000000
310
00000000000000000000000000000000000000000000000000000000000000000000000000000000000000000000000000000000000000000000000000000000000000000000000000000000000000000000000000000000000000000000000000000000000000000000000000000000000000000000000000000000000000
310
00000000000000000000000000000000000000000000000000000000000000000000000000000000000000000000F50000000000000000000000000000000000000000000000000000000000000000000000000000000000000000000000000000000000000000000000000000000000000000000000000000000000000000
310
00000000000000000000000000000000000000000000000000000000000000000000000000000000000000000000000000000000000000000000000000000000000000000000000000000000000000000000000000000000000000000000000000000000000000000000000000000000000000000000000000000000000000
310
000000000000000000000000000000000000000000000000000000000000000000000000000000000000000000000000F5000000000000000000000000000000000000000000000000000000000000000000000000000000000000000000000000000000000000000000000000000000000000000000000000000000000000
310
00000000000000000000000000000000000000000000000000000000000000000000000000000000000000000000000000000000000000000000000000000000000000000000000000000000000000000000000000000000000000000000000000000000000000000000000000000000000000000000000000000000000000
310
0000000000000000000000000000000000000000000000000000000000000000000000000000000000000000000000000000F500000000000000000000000000000000000000000000000000000000000000000000000000000000000000000000000000000000000000000000000000000000000000000000000000000000
310
00000000000000000000000000000000000000000000000000000000000000000000000000000000000000000000000000000000000000000000000000000000000000000000000000000000000000000000000000000000000000000000000000000000000000000000000000000000000000000000000000000000000000
310
00000000000000000000000000000000000000000000000000000000000000000000000000000000000000000000000000000000F50000000000000000000000000000000000000000000000000000000000000000000000000000000000000000000000000000000000000000000000000000000000002828280000000000
310
00000000000000000000000000000000000000000000000000000000000000000000000000000000000000000000000000000000000000000000000000000000000000000000000000000000000000000000000000000000000000000000000000000000000000000000000000000000000000000000282828000000000000
310
000000000000000000000000000000000000000000000000000000000000000000000000000000000000000000000000000000000000F5000000000000000000000000000000000000000000000000000000000000000000000000000000000000000000000000000000000000000000000000000000000000282828000000
310
00000000000000000000000000000000000000000000000000000000000000000000000000000000000000000000000000000000000000000000000000000000000000000000000000000000000000000000000000000000000000000000000000000000000000000000000000000000000000000000000028002800000000
310
0000000000000000000000000000000000000000000000000000000000000000000000000000000000000000000000000000000000000000F500000000000000000000000000000000000000000000000000000000000000000000000000000000000000000000000000000000000000000000000000000000000028282800
310
00000000000000000000000000000000000000000000000000000000000000000000000000000000000000000000000000000000000000000000000000000000000000000000000000000000000000000000000000000000000000000000000000000000000000000000000000000000000000000000000000002828280000
310
00000000000000000000000000000000000000000000000000000000000000000000000000000000000000000000000000000000000000000000F50000000000000000002D2D2D2D2D2D2D2D2D2D2D2D2D2D2D2D2D2D2D2D2D2D2D2D002D2D2D2D2D2D002D2D2D2D2D2D2D2D2D2D2D2D2D2D2D2D2D2D2D2D2D2D2D2D2D2D2D
310
2D2D2D2D2D2D2D2D2D2D2D2D2D2D2D2D2D2D2D2D2D2D2D2D2D2D2D2D2D2D2D2D2D2D2D2D2D2D2D2D2D2D2D2D2D2D002D2D2D2D2D2D002D2D2D2D2D2D2D2D2D2D2D2D2D2D2D2D2D2D2D2D2D2D2D2D2D2D2D2D2D2D2D2D2D2D2D2D002D2D2D2D2D2D2D2D2D2D2D2D2D2D2D2D2D2D2D2D2D2D2D2D2D2D2D2D2D2D2D2D2D2D282D
310
2D2D2D2D2D2D2D002D2D2D2D2D2D2D2D2D2D2D2D2D2D2D2D2D2D2D2D2D2D2D2D00000000000000000000000000000000000000000000000000000000F500000000000000000000000000000000000000000000000000000000000000000000000000000000000000000000000000002D2D2D2D2D2D2D2D2D2D2D2D2D2D2D2D
310
2D2D2D2D2D2D2D2D2D2D2D2D2D2D2D2D2D2D2D0000000000000000000000000000000000000000000000000000002D2D2D00000000000000002D2D000000000000000000000000000000000000000000000000000000000000000000000000000000002D2D2D00000000000000002D2D0000000000000000002D2D2D2D2D2D
310
282D2D2D2D2D2D000000000000000000002D2D2D00000000000000002D2D0000000000000000000000000000000000000000000000000000000000000000F500000000000000000000000000000000000000000000000000000000000000000000000000000000000000000000000000002D2D0000000000000000002D2D00
310
00000028000000002D2D0000000000000000002D2D0000000000000000000000000000000000000000000000000000002D2D2D00000000000000002D2D000000000000000000000000000000000000000000000000000000000000000000000000000000002D2D2D00000000000000002D2D0000000000000000002D2D0000
310
000028000000002D2D000000000000000000002D2D002D000000000000002D2D0000000000000000000000000000000000000000000000000000000000000000F500000000000000000000000000000000000000000000000000000000000000000000000000000000000000002828282828282D2D0000000000000000002D
310
2D0000000000000000002D2D0000000000000000002D2D0000000000000000000000000000000000000000000000000000002D2D002D000000000000002D2D000000000000000000000000000000000000000000000000000000000000000000000000000000002D2D002D000000000000002D2D0000000000000000002D2D
310
0000000000000000002D2D000000000000000000002D2D002D000000000000002D2D0000000000000000000000000000000000000000000000000000000000000000F5000000000000000000000000000000000000000000000000000000000000000000000000000000000000000028280028282828282800000000000000
310
002D2D0000000000000000002D2D0000000000000000002D2D0000000000000000000000000000000000000000000000000000002D2D00002D0000000000002D28282800000000000000000000000000000000000000000000000000000000000000000000000000002D2D00002D0000000000002D28282800000000000000
310
2D2D0000000000000000002D2D000000000000000000002D2D00002D2D00000000002D2D0000000000000000000000000000000000000000000000000000000000000000F500000000000000000000000000000000000000000000000000000000000000000000000000000000000000002828282828282D2D000000000000
310
0000002D2D0000000000000000002D2D0000000000000000002D2D0000000000000000000000000000000000000000000000002828002D2D0000002D00000000002D2D282800000000000000000000000000000000000000000000000000000000000000000000002828002D2D0000002D00000000002D2D28280000000000
310
00002D2D2828000000000000002D2D000000000000000000002D2D0000002D00000000002D2D0000000000000000000000000000000000000000000000000000000000000000F500000000000000000000000000000000000000000000000000000000000000000000000000000000000000000000000000002D2D00000000
310
00000000002D2D0000000028000000002D2D0000000000000000002D2D0000000000000000000000000000000000000000000000282828282D2D000000002D000000002D28282828000000000000000000000000000000000000000000000000000000000000000000002800282D2D000000002D000000002D282828280000
310
000000002D2D2800280000000000002D2D000000000000000000002D2D000000002D000000002D2D0000000000000000000000000000000000000000000000000000000000000000F500000000000000000000000000000000000000000000000000000000000000000000000000000000000000000000000000002D2D2D2D
310
2D2D2D2D2D2D2D2D2D2D2D2D2D2D2D2D2D2D2D2D2D2D2D2D2D2D2D2D2D2D2D000000000000000000000000000000000000000000000028280028282828000000002D002828282800282800000000000000000000000000000000000000000000000000000000000000000000280028282828000000002D0028282828000028
310
00000000002828282800280000000000002D2D000000000000000000002D2D00000000002D0000002D2D0000000000000000000000000000000000000000000000000000000000000000F500000000000000000000000000000000000000000000000000000000000000000000000000000000000000000000000000002D2D
310
2D2D2D2D2D2D2D2D2D2D2D2D2D2D2D2D2D2D2D2D2D2D2D2D2D2D2D2D2D2D2D2D2D0000000000000000000000000000000000000000000000002828282D2D00000000002D0000002D28282800000000000000000000000000000000000000000000000000000000000000000000002828282D2D00000000002D0000002D2D28
310
28000000000000002D2D2828280000000000002D2D000000000000000000002D2D0000000000002D00002D2D0000000000000000000000000000000000000000000000000000000000000000F50000000000000000000000000000000000000000000000000000000000000000000000000000000000000000000000000000
310
2D2D0000000000000000002D2D0000002828280000002D2D0000000000000000002D2D0000000000000000000000000000000000000000000000000000002D2D0000000000002D00002D2D000000000000000000000000000000000000000000000000000000000000000000000000000000002D2D0000000000002D00002D
310
2D0000000000000000002D2D0000000000000000002D2D000000000000000000002D2D000000000000002D002D2D0000000000000000000000000000000000000000000000000000000000000000F5000000000000000000000000000000000000000028282800000000000000000000000000000000000000000000282828
310
00002D2D0000000000000000002D2D0000002800280000002D2D0000000000000000002D2D0000000000000000000000000028282800000000000028282800002D2D000000000000002D002D2D000000282828000000000000000028282800000000000000000000000000000000000028282800002D2D000000000000002D
310
002D2D0000002828280000002D2D0000002828280000002D2D000000000000000000002D2D000000000000002D002D2D0000000000000000000000000000000000000000000000000000000000000000F500000000000000000000000000000000000000002828280000000000000000000000000000000000000000000028
310
282828002D2D0000000000000000002D2D0000002828280000002D2D0000000000000000002D2D0000000000000000000000000028282800000000000028282800002D2D000000000000002D002D2D000000280028000000000000000028282800000000000000000000000000000000000028282800002D2D000000000000
310
00002D2D2D0000002828280000002D2D0000002828280000002D2D000000000000000000002D2D00000000000000002D2D2D0000000000000000000000000000000000000000000000000000000000000000F50000000000000000000000000000000000000000282828000000000000000000000000000000000000000000
310
0028282800002D2D0000000000000000002D2D0000000000000000002D2D0000000000000000002D2D0000000000000000000000000028282800000000000028282800002D2D00000000000000002D2D2D000000282828000000000000000028282800000000000000000000000000000000000028282800002D2D00000000
310
00000000002D2D0000002828280000002D2D0000002828280000002D2D000000000000000000002D2D0000000000000000002D2D0000000000000000000000000000000000000000000000000000000000000000F5000000000000000000000000000000002D2D2D2D2D282D2D2D2D2D2D2D2D2D2D2D2D2D2D2D2D2D2D2D2D
310
2D2D2D2D282D2D2D2D2D0000000000000000002D2D0000000000000000002D2D0000000000000000002D28282800000000000000002D2D2D2D282D2D2D2D2D2D2D2D282D2D2D2D2D0000000000000000002D2D2D2D2D2D282D2D2D2D2D2D2D2D2D2D2D2D2D2D2D2D2D000000000000000000002D2D2D2D282D2D2D2D2D0000
310
000000000000002D2D2D2D2D2D2D2D2D2D2D2D2D2D2D2D2D2D2D2D2D2D2D2D000000000000000000002D2D0000000000000000002D2D2828000000000000000000000000000000000000000000000000000000000000F5000000000000000000000000000000002D2D2D2D2D282D2D2D2D2D2D2D2D2D2D2D2D2D2D2D2D2D2D
310
2D2D2D2D2D2D282D2D2D2D2D0000000000000000002D2D2828280000000000002D2D2828280000000000002D2D282828000000000000002D2D2D2D282D2D2D2D2D2D2D2D282D2D2D2D2D00000000000000002D2D2D2D2D2D2D282D2D2D2D2D2D2D2D2D2D2D2D2D2D2D2D2D000000000000000000002D2D2D2D282D2D2D2D2D
310
00000000000000002D2D2D2D2D2D2D2D2D2D2D2D2D2D2D2D2D2D2D2D2D2D2D2D2D000000000000000028282D2D00000000000000002D2D2D2828280000000000000000000000000000000000000000000000000000000000F5000000000000000000000000000000002D2D002828280000002D000000000000002D2D000000
310
000000002D000000280000002D2D000000000000000028282828282800000000002828282828280000000000282828280028000000000000002D2D0028280000002D2D000000280000002D2D000000000000002D002D2D0000282828000000002D2D0000000028000000002D2D000000000000000000002D00000028000000
310
2D2D000000000000002D002D2D0000000028000000002D2D0000000028000000002D2D00000000000000282828282D000000000000002D002D2D2828280000000000000000000000000000000000000000000000000000000000F5000000000000000000000000000000002D2D000000000000002D000000000000002D2D00
310
0000000000002D000000000000002D2D0000000000000000002D2D2828280000000000002D2D2828280000000000002D2D282828000000000000002D2D0000000000002D2D000000000000002D2D0000000000002D00002D2D0000000000000000002D282828000000000000002D28282800000000000000002D0000000000
310
00002D2D0000000000002D00002D2D0000000000000000002D282828000000000000002D28282800000000002800282828280000000000002D2828282800280000000000000000000000000000000000000000000000000000000000F5000000000000000000000000000028002D2D000000002828002D000000000028002D
310
2D000000002828002D000028280028002D2D0000000000000000002D2D0000000000000000002D2D0000000000000000002D2D000000000000002828002D2D0000000028002D2D000000002828002D2D00000000002D0000002D2D2828000000000000002D2D2828000000000000002D2D282800000000002828002D000000
310
000028002D2D00000000002D0000002D2D2828000000000000002D2D2828000000000000002D2D282800000000000028282D2D00000000002D2D00002D2D2828280000000000000000000000000000000000000000000000000000000000F5000000000000000000000000002828282D2D000000282828282D000000002828
310
282D2D000000282828282D002828282828282D2D0000000000000000002D2D0000000000000000002D2D0000000000000000002D2D000000000000282828282D2D0000002828282D2D000000282828282D2D000000002D000000002D282828280000000000002D282828280000000000002D28282828000000282828282D00
310
0000002828282D2D000000002D000000002D282828280000000000002D282828280000000000002D28282828000000000000002D2D000000002D000000002D2D0000000000000000000000000000000000000000000000000000000000000000F5000000000000000000000000002800282828280000280028282828000000
310
280028282828000028002828282828002828002828282800000000000000002D2D0000000000000000002D2D0000000000000000002D2D00000000000028280028282828000028002828282800002828002828282800002D000000282828280028280000000028282828002828000000000028282800002800000028002828
310
282800000028002828282800002D0000002828282800002800000000282828280000280000000000282828280028000000000000002D2D0000002D00000000002D2D0000000000000000000000000000000000000000000000000000000000000000F5000000000000000000000000002828282D2D000000282828002D0000
310
00002828282D2D000000002828002D000028282828282D2D0000000000000000002D2D0000000000000000002D2D0000000000000000002D2D000000000000002828282D2D0000002828282D2D000000002828282D2D00002D0000000000002D282828000000000000002D282828000000000000002D2D2828000000002828
310
28002D000000002828282D2D00002D0000000000002D2D2828000000000000002D2D2828000000000000002D2D282800000000000000002D2D0000002D00000000002D2D0000000000000000000000000000000000000000000000000000000000000000F5000000000000000000000000000000002D2D000000000000002D
310
000000000000002D2D000000000000002D000000000000002D2D0000000000000000002D2D0000000000000000002D2D0000000000000000002D2D000000000000000000002D2D0000000000002D2D000000000000002D2D00002D0000000000002D2D0000000000000000002D2D0000000000000000002D2D000000000000
310
000000002D000000000000002D2D00002D0000000000002D2D0000000000000000002D2D0000000000000000002D2D000000000000000000002D2D00002D0000000000002D2D0000000000000000000000000000000000000000000000000000000000000000F5000000000000000000000000000000002D2D000000000000
310
002D000000000000002D2D000000000000002D000000000000002D2D0000000000000000002D2D0000000000000000002D2D0000000000000000002D2D000000000000000000002D2D0000000000002D2D000000000000002D2D002D000000000000002D2D0000000000000000002D2D0000000000000000002D2D00000000
310
0000000000002D000000000000002D2D002D000000000000002D2D0000000000000000002D2D0000000000000000002D2D000000000000000000002D2D002D000000000000002D2D0000000000000000000000000000000000000000000000000000000000000000F5000000000000000000000000000000002D2D00000000
310
0000002D000000000000002D2D000000000000002D000000280000002D2D0000000000000000002D2D0000000028000000002D2D0000000000000000002D2D000000000000000000002D2D0000000000002D2D000000280000002D2D2D00000028000000002D2D0000000000000000002D2D0000000028000000002D2D0000
310
00000000000000002D000000280000002D2D2D00000028000000002D2D0000000028000000002D2D0000000000000000002D2D000000000000000000002D2D2D00000028000000002D2D0000000000000000000000000000000000000000000000000000000000000000F5000000000000000000000000000000002D2D2D2D
310
2D2D2D2D2D2D2D2D2D2D2D2D2D2D2D2D2D2D2D2D2D2D2D2D2D2D282D2D2D2D2D2D2D2D2D2D2D2D2D2D2D2D2D2D2D2D2D2D2D2D2D2D2D2D2D2D2D2D2D2D2D2D2D2D000000000000000000002D2D2D2D2D2D2D2D2D2D2D2D2D282D2D2D2D2D2D2D2D2D282D2D2D2D2D2D2D2D2D2D2D2D2D2D2D2D2D2D2D2D2D2D2D2D2D2D2D2D
310
000000000000000000002D2D2D2D282D2D2D2D2D2D2D2D2D282D2D2D2D2D2D2D2D2D2D2D2D2D2D2D2D2D2D2D2D2D2D2D2D2D2D2D2D000000000000000000002D2D2D2D2D2D282D2D2D2D2D2D0000000000000000000000000000000000000000000000000000000000000000F5000000000000000000000000000000002D2D
310
2D2D2D2D2D2D2D2D2D2D2D2D2D2D2D2D2D2D2D2D2D2D2D2D2D2D2D2D282D2D2D2D2D2D2D2D2D2D2D2D2D2D2D2D2D2D2D2D2D2D2D2D2D2D2D2D2D2D2D2D2D2D2D2D2D2D000000000000000000002D2D2D2D2D2D2D2D2D2D2D2D2D282D2D2D2D2D2D2D2D2D282D2D2D2D2D2D2D2D2D2D2D2D2D2D2D2D2D2D2D2D2D2D2D2D2D2D
310
2D2D000000000000000000002D2D2D2D282D2D2D2D2D2D2D2D2D282D2D2D2D2D2D2D2D2D2D2D2D2D2D2D2D2D2D2D2D2D2D2D2D2D2D2D2D000000000000000000002D2D2D2D2D2D282D2D2D2D2D2D0000000000000000000000000000000000000000000000000000000000000000F500000000000000000000000000000000
310
00000000000000000000000000000000000000000000000000000000002828280000000000000000000000000000000000002828280000000000000000000000000000000000000000000000000000000000000000000000000000282828000000000000002828280000000000000000000000000000000000000028282800
310
00000000000000000000000000000000002828280000000000000028282800000000000000002828280000000000000000000000000000000000000000000000000000000000000028282800000000000000000000000000000000000000000000000000000000000000000000000000F50000000000000000000000000000
310
00000000000000000000000000000000000000000000000000000000000000282828280000000000000000000000000000000000282828000000000000000000000000000000000000000000000000000000000000000000000000000028282800000000000000282828000000000000000000000000000000000000002828
310
280000000000000000000000000000000000002828280000000000000028282800000000000000002828280000000000000000000000000000000000000000000000000000000000000028282800000000000000000000000000000000000000000000000000000000000000000000000000F5000000000000000000000000
310
00000000000000000000000000000000000000000000000000000000000000000028282800000000000000000000000000000000000028282800000000000000000000000000000000000000000000000000000000000000000000000000002828280000000000000028282800000000000000000000000000000000000000
310
2828280000000000000000000000000000000000002828280000000000000028282800000000000000002828280000000000000000000000000000000000000000000000000000000000000028282800000000000000000000000000000000000000000000000000000000000000000000000000F500000000000000000000
310
00000000000000000000000000000000000000000000000000000000000000000000000000000000000000000000000000000000000000000000000000000000000000000000000000000000000000000000000000000000000000000000000000000000000000000000000000000000000000000000000000000000000000
310
00000000000000000000000000000000000000000000000000000000000000000000000000000000000000000000000000000000000000000000000000000000000000000000000000000000000000000000000000000000000000000000000000000000000000000000000000000000000000000000F50000000000000000
310
00000000000000000000000000000000000000000000000000000000000000000000000000000000000000000000000000000000000000000000000000000000000000000000000000000000000000000000000000000000000000000000000000000000000000000000000000000000000000000000000000000000000000
310
000000000000000000000000000000000000000000000000000000000000000000000000000000000000000000000000000000000000000000000000000000000000000000000000000000000000000000000000000000000000000000000000000000000000000000000000000000000000000000000000F5000000000000
310
00000000000000000000000000000000000000000000000000000000000000000000000000000000280000000000000000000000000000000000000000280000000000000000000000000000000000000000000000000000000000000000000000000000000000000000000000000000000000000000000000000000000000
310
0000000000000000000000000000000000000000000000000000000000000000000000000000000000000000000000000000000000000000000000000000000000000000000000000000000000000000000000000000000000000000000000000000000000000000000000000000000000000000000000000000F500000000
310
00000000000000000000000000000000000000000000000000000000000000000000000000000000002828280000000000000000000000000000000000002828280000000000000000000000000000000000000000000000000000000000000000000000000000000000000000000000000000000000000000000000000000
310
00000000000000000000000000000000000000002828280000000000000028282800000000000000000000000000000000000000000000000000000000000000000000000000000000000000000000000000000000000000000000000000000000000000000000000000000000000000000000000000000000000000F50000
310
00000000000000000000000000000000000000000000000000000000000000000000000000000000000000280028000000000000000000000000000000000000280028000000000000000000000000000000000000000000000000000000000000000000000000000000000000000000000000000000000000000000000000
310
000000000000000000000000000000000000000000282828280000000000000028280028000000000000000000000000000000000000000000000000000000000000000000000000000000000000000000000000000000000000000000000000000000000000000000000000000000000000000000000000000000000000F5
310
00000000000000000000000000000000000000000000000000000000000000000000000000000000000000000028282800000000000000000000000000000000000028282800000000000000000000000000000000000000000000000000000000000000000000000000000000000000000000000000000000000000000000
310
00000000000000000000000000000000000000000000002828282800000000000000282828280000000000000000000000000000000000000000000000000000000000000000000000000000000000000000000000000000000000000000000000000000000000000000000000000000000000000000000000000000000000
310
00F50000000000000000002D2D2D2D2D2D2D2D2D2D2D2D2D2D2D2D2D2D2D2D2D2D2D2D2D2D2D2D2D2D2D2D2D2D2D2D2D282D2D2D2D2D2D2D2D2D2D2D2D2D2D2D2D2D2D2D2D282D2D2D2D2D2D2D2D2D2D2D2D2D2D2D2D2D2D2D2D2D2D2D2D2D2D2D2D2D2D2D2D2D2D2D2D2D2D2D2D2D2D2D2D2D2D002D2D2D2D2D2D002D2D2D
310
2D2D2D2D2D2D2D2D2D2D2D2D2D2D2D2D2D2D2D2D2D2D2D2D2D2D2D282D2D2D2D2D2D2D2D2D2D2D2D2D2D2D2D2D2D2D2D2D2D2D2D2D2D2D2D2D2D2D2D2D2D2D2D2D2D2D2D2D2D002D2D2D2D2D2D002D2D2D2D2D2D2D2D2D2D2D2D2D2D2D2D2D2D2D2D2D2D2D2D00000000000000000000000000000000000000000000000000
310
000000F5000000000000000000000000000000002D2D2D2D2D2D2D2D2D2D2D2D2D2D2D2D2D2D2D2D2D2D2D2D2D2D2D2D2D2D282D2D2D2D2D2D2D2D2D2D2D2D2D2D2D2D2D2D2D2D282D2D2D2D2D2D2D2D2D2D2D2D2D2D2D2D2D0000000000000000000000000000000000000000000000000000000000000000000000000000
310
0000000000000000000000002D2D0000000000000000002D2D2D2D2D2D282D2D2D2D2D2D2D2D2D2D2D2D2D2D2D2D000000000000000000000000000000000000000000000000000000000000000000000000000000000000000000000000000000000000000000000000000000000000000000000000000000000000000000
310
0000000000F5000000000000000000000000000000002D2D000000000000002D000000000000002D2D000000000000002D000000280000002D2D0000000000000000002D2D0000000028000000002D2D0000000000000000002D2D000000000000000000000000000000000000000000000000000000000000000000000000
310
00000000000000000000000000002D002D00000000000000002D000000282828000000002D000000002800000000002D00000000000000000000000000000000000000000000000000000000000000000000000000000000000000000000000000000000000000000000000000000000000000000000000000000000000000
310
00000000000000F5000000000000000000000000000000002D2D000000000000002D000000000000002D2D000000000000002D000000000000002D2D0000000000000000002D2D0000000000000000002D2D0000000000000000002D2D00000000000000000000000000000000000000000000000000000000000000000000
310
000000000000000000000000000000002D00002D000000000000002D000000000000000000002D000000000000000000002D0000000000000000000000000000000000000000000000000000000000000000000000000000000000000000000000000000000000000000000000000000000000000000000000000000000000
310
000000000000000000F5000000000000000000000000000000002D2D000000000000002D000000000000002D2D000000000000002D000000000000002D2D0000000000000000002D2D0000000000000000002D2D0000000000000000002D2D0000000000000000000000000000000000000000000000000000000000000000
310
0000000000000000000000000000000000002D0000002D0000000000002D000000000000000000002D000000000000000000002D000000000000000000000000000000000000000000000000000000000000000000000000000000000000000000000000000000000000000000000000000000000000000000000000000000
310
0000000000000000000000F5000000000000000000000000000000002D2D000000000000002D000000000000002D2D000000000000002D000000000000002D2D0000000000000000002D2D0000000000000000002D2D0000000000000000002D2D000000000000000000000000000000000000000000000000000000000000
310
00000000000000000000000000000000002828002D0000002D2D00000000002D000000000000000000002D000000000000000000002D00000000000000000000000000000000000000000000000000000000000000000000000000000000000000000000000000000000000000000000000000000000000000000000000000
310
00000000000000000000000000F5000000000000000000000000000000002D2D000000000000002D000000000000002D2D000000000000002D000000000000002D2D0000000000000000002D2D0000000028000000002D2D0000000000000000002D2D00000000000000000000000000000000000000000000000000000000
310
000000000000000000000000000000000000282828282D00000000002D000000002D000000000000000000002D000000000000000000002D0000000000000000000000000000000000000000000000000000000000000000000000000000000000000000000000000000000000000000000000000000000000000000000000
310
000000000000000000000000000000F5000000000000000000000000000000002D2D000000000000002D000000000000002D2D000000000000002D000000000000002D2D2D2D2D2D2D2D2D2D2D2D2D2D2D2D2D282D2D2D2D2D2D2D2D2D2D2D2D2D2D2D2D2D0000000000000000000000000000000000000000000000000000
310
0000000000000000000000000000000000000000280028282828000000002D000000002D000000000000000000002D000000000000000000002D000000000000000000000000000000000000000000000000000000000000000000000000000000000000000000000000000000000000000000000000000000000000000000
310
0000000000000000000000000000000000F5000000000000000000000000000000002D2D000000000000002D000000000000002D2D000000000000002D000000000000002D2D2D2D2D2D2D2D2D28282D28282D2D2D282D2D2D2D2D2D2D2D2D2D2D2D2D2D2D2D2D000000000000000000000000000000000000000000000000
310
00000000000000000000000000000000000000000000002828002D0000000000002D0000002D000000000000000000002D000000000000000000002D00000000000000000000000000000000000000000000000000000000000000000000000000000000000000000000000000000000000000000000000000000000000000
310
00000000000000000000000000000000000000F5000000000000000000000000000000002D2D000000000000002D000000000000002D2D000000000000002D000000000000002D2D0000000000000000002D2D0000002828280000002D2D0000000000000000002D2D00000000000000000000000000000000000000000000
310
000000000000000000000000000000000000000000000000000000002D000000000000002D00002D000000000000000000002D000000000000000000002D0000000000000000000000000000000000000000000000000000000000000000000000000000000000000000000000000000000000000000000000000000000000
310
000000000000000000000000000000000000000000F5000000000000000000000000000000002D2D000000000000002D000000000000002D2D000000000000002D000000000000002D2D0000000000000000002D2D0000002800280000002D2D0000000000000000002D2D0000000000000000000000000000000000000028
310
2828000000000000000000000000000000000000000000000028280000002D000000000000002D00002D000000000000000000002D000000000000000000002D000000000000000000000000000000000000000000000000000000000000000000000000000000000000000000000000000000000000000000000000000000
310
0000000000000000000000000000000000000000000000F5000000000000000000000000002828002D2D000000002828002D000000002828282D2D000000002828002D000000002828282D2D0000000000000000002D2D0000002828280000002D2D0000000000000000002D2D000000000000000000000000000000000000
310
00282828000000000000000000000000000000000000000000002828002800002D00000000000000002D002D000000000000000000002D000000000000000000002D00000000000000000000000000000000000000000000000000000000000000000000000000000000000000000000000000000000000000000000000000
310
00000000000000000000000000000000000000000000000000F5000000000000000000000000282800282828280000282828282828000000282828282828000028282828282800000028282828282800000000000000002D2D0000000000000000002D2D0000000000000000002D2D00000000000000000000000000000000
310
000000282828000000000000000000000000000000000000000000002828282800002D0000000000000000002D2D000000000000000000002D000000000000000000002D0000000000000000000000000000000000000000000000000000000000000000000000000000000000000000000000000000000000000000000000
310
000000000000000000000000000000000000000000000000000000F5000000000000000000000000282800282D2D000000280028282D000000002800282D2D000000282828282D000000002800282D2D0000000000000000002D2D0000000000000000002D2D0000000000000000002D2D2828000000000000000000000000
310
00002D2D2D2D282D2D2D2D2D2D2D2D2D2D2D2D2D2D2D2D2D2D2D2D2D2D2D2D28282D2D2D2D0000000000000000002D2D000000000000000000002D000000000000000000002D000000000000000000000000000000000000000000000000000000000000000000000000000000000000000000000000000000000000000000
310
0000000000000000000000000000000000000000000000000000000000F5000000000000000000000000002828002D2D000000002828002D000000002828282D2D000000002828002D000000002828282D2D0000000000000000002D2D0028000000000000002D2D0028000000000000002D2D002828000000000000000000
310
000000002D2D2D2D282D2D2D2D2D2D2D2D2D2D2D2D2D2D2D2D2D2D2D2D2D2D2D2D2D282D2D2D2D00000000000000002D002D000000000000000000002D282800000000000000002D28282800000000000000000000000000000000000000000000000000000000000000000000000000000000000000000000000000000000
310
00000000000000000000000000000000000000000000000000000000000000F5000000000000000000000000000000002D2D000000000000002D000000000000002D2D000000000000002D000000000000002D2D0000000000000000002D2D2828280000000000002D2D2828280000000000002D2D28282800000000000000
310
0000000000002D000028280000002D2D000000000000002D000000000000002D2D000000280000002D00000000000000002D002D282828000000000000002D282828000000000000002D2828280000000000000000000000000000000000000000000000000000000000000000000000000000000000000000000000000000
310
000000000000000000000000000000000000000000000000000000000000000000F5000000000000000000000000000000002D2D000000000000002D000000000000002D2D000000000000002D000000000000002D2D0000000000000000282828280028000000000028282828002800000000002828282800280000000000
310
00000000000000002D000000000000002D2D000000000000002D000000000000002D2D000000000000002D000000000000002D28282828282800000000002828282828280000000000282828282828000000000000000000000000000000000000000000000000000000000000000000000000000000000000000000000000
310
0000000000000000000000000000000000000000000000000000000000000000000000F5000000000000000000000000000000002D2D000000000000002D000000000000002D2D000000000000002D000000000000002D2D0000000000000000002D2D2828280000000000002D2D2828280000000000002D2D282828000000
310
000000000000000000002D000000000000002D2D000000000000002D000000000000002D2D000000000000002D00000000002D2D0000002D282828000000000000002D282828000000000000002D28282800000000000000000000000000000000000000000000000000000000000000000000000000000000000000000000
310
00000000000000000000000000000000000000000000000000000000000000000000000000F5000000000000000000000000000000002D2D000000000000002D000000000000002D2D000000000000002D000000000000002D2D0000000000000000002D2D0000000000000000002D2D0000000000000000002D2D00000000
310
0000000000000000282828002D000000002828282D2D000000282828282D000000002828282D2D000000282828282D00000000002D000000002D000000000000000000002D000000000000000000002D0000000000000000000000000000000000000000000000000000000000000000000000000000000000000000000000
310
000000000000000000000000000000000000000000000000000000000000000000000000000000F5000000000000000000000000000000002D2D000000000000002D000000000000002D2D000000000000002D000000000000002D2D0000000000000000002D2D0000000000000000002D2D0000000000000000002D2D0000
310
00000000000000000000280028282828000000280028282828000028002828282800000028002828282800002800282828280000002D00000000002D000000000000000000002D000000000000000000002D000000000000000000000000000000000000000000000000000000000000000000000000000000000000000000
310
0000000000000000000000000000000000000000000000000000000000000000000000000000000000F5000000000000000000000000000000002D2D000000000000002D000000000000002D2D000000000000002D000000000000002D2D0000000000000000002D2D0000000000000000002D2D0000000000000000002D2D
310
000000000000000000000000282828002D000000002828282D2D000000282828002D000000002828282D2D000000002828002D0000002D0000000000002D000000000000000000002D000000000000000000002D00000000000000000000000000000000000000000000000000000000000000000000000000000000000000
310
00000000000000000000000000000000000000000000000000000000000000000000000000000000000000F5000000000000000000000000000000002D2D000000000000002D000000000000002D2D000000000000002D000000000000002D2D0000000000000000002D2D0000000000000000002D2D000000000000000000
310
2D2D000000000000000000000000000000002D000000000000002D2D000000000000002D000000000000002D2D000000000000002D00002D000000000000002D000000000000000000002D000000000000000000002D0000000000000000000000000000000000000000000000000000000000000000000000000000000000
310
000000000000000000000000000000000000000000000000000000000000000000000000000000000000000000F5000000000000000000000000000000002D2D000000000000002D000000000000002D2D000000000000002D000000000000002D2D0000000000000000002D2D0000000000000000002D2D00000000000000
310
00002D2D000000000000000000000000000000002D000000000000002D2D000000000000002D000000000000002D2D000000000000002D002D00000000000000002D000000000000000000002D000000000000000000002D000000000000000000000000000000000000000000000000000000000000000000000000000000
310
0000000000000000000000000000000000000000000000000000000000000000000000000000000000000000000000F5000000000000000000000000000000002D2D000000000000002D000000000000002D2D000000000000002D000000280000002D2D0000000000000000002D2D0000000028000000002D2D0000000000
310
000000002D2D000000000000000000000000000000002D000000000000002D2D000000000000002D000000000000002D2D000000280000002D002D00002800000000002D000000000000000000002D000000002800000000002D00000000000000000000000000000000000000000000000000000000000000000000000000
310
00000000000000000000000000000000000000000000000000000000000000000000000000000000000000000000000000F5000000000000000000000000000000002D2D2D2D2D2D2D2D2D2D2D2D2D2D2D2D2D2D2D2D2D2D2D2D2D2D2D2D2D2D282D2D2D2D2D2D2D2D2D2D2D2D2D2D2D2D2D2D2D2D282D2D2D2D2D2D2D2D2D
310
2D2D2D2D2D2D2D2D000000000000000000000000000000002D2D2D2D2D2D2D2D2D2D2D2D2D2D2D2D2D2D2D2D2D2D2D2D2D2D2D2D2D2D282D2D2D2D2D2D2D2D282D2D2D2D2D2D2D2D2D2D2D2D2D2D2D2D2D2D2D2D2D2D2D2D2D2D2D2D0000000000000000000000000000000000000000000000000000000000000000000000
310
000000000000000000000000000000000000000000000000000000000000000000000000000000000000000000000000000000F5000000000000000000000000000000002D2D2D2D2D2D2D2D2D2D2D2D2D2D2D2D2D2D2D2D2D2D2D2D2D2D2D2D2D2D282D2D2D2D2D2D2D2D2D2D2D2D2D2D2D2D2D2D2D2D282D2D2D2D2D2D2D
310
2D2D2D2D2D2D2D2D2D2D000000000000000000000000000000002D2D2D2D2D2D2D2D2D2D2D2D2D2D2D2D2D2D2D2D2D2D2D2D2D2D2D2D2D2D282D2D2D2D2D2D2D2D282D2D2D2D2D2D2D2D2D2D2D2D2D2D2D2D2D2D2D2D2D2D2D2D2D2D2D2D000000000000000000000000000000000000000000000000000000000000000000
310
0000000000000000000000000000000000000000000000000000000000000000000000000000000000000000000000000000000000F500000000000000000000000000000000000000000000000000000000000000000000000000000000000000000028282800000000000000000000000000000000000028282800000000
310
00000000000000000000000000000000000000000000000000000000000000000000000000000000000000000000000000000000000000000028282800000000000028282828000000000000000000000000000000000000282828000000000000000000000000000000000000000000000000000000000000000000000000
310
00000000000000000000000000000000000000000000000000000000000000000000000000000000000000000000000000000000000000F50000000000000000000000000000000000000000000000000000000000000000000000000000000000000000002828280000000000000000000000000000000000002828280000
310
00000000000000000000000000000000000000000000000000000000000000000000000000000000000000000000000000000000000000000000282828280000000000002828282800000000000000000000000000000000000028282828000000000000000000000000000000000000000000000000000000000000000000
310
000000000000000000000000000000000000000000000000000000000000000000000000000000000000000000000000000000000000000000F5000000000000000000000000000000000000000000000000000000000000000000000000000000000000000000282828000000000000000000000000000000000000282828
310
00000000000000000000000000000000000000000000000000000000000000000000000000000000000000000000000000000000000000000000000000282828000000000000282828280000000000000000000000000000000000002828280000000000000000000000000000000000000000000000000000000000000000
310
0000000000000000000000000000000000000000000000000000000000000000000000000000000000000000000000000000000000000000000000F500000000000000000000000000000000000000000000000000000000000000000000000000000000000000000000000000000000000000000000000000000000000000
310
00000000000000000000000000000000000000000000000000000000000000000000000000000000000000000000000000000000000000000000000000000000000000000000000000000000000000000000000000000000000000000000000000000000000000000000000000000000000000000000000000000000000000
310
0000000000000000000000000000000000000000000000000000000000000000000000000000000000000000000000000000
  0
XRECORD
  5
1B6D1
102
{ACAD_REACTORS
330
8F
102
}
330
8F
100
AcDbXrecord
280
     1
102
MATERIAL
148
0.0
149
0.0
149
0.0
 93
        0
 94
      127
282
     0
 72
     0
 77
     0
171
     0
175
     0
179
     0
273
     0
  0
XRECORD
  5
91
102
{ACAD_REACTORS
330
8F
102
}
330
8F
100
AcDbXrecord
280
     1
270
     1
271
     1
  0
XRECORD
  5
90
102
{ACAD_REACTORS
330
8F
102
}
330
8F
100
AcDbXrecord
280
     1
270
     1
271
     1
  0
XRECORD
  5
94
102
{ACAD_REACTORS
330
8F
102
}
330
8F
100
AcDbXrecord
280
     1
270
     1
271
     1
  0
XRECORD
  5
93
102
{ACAD_REACTORS
330
8F
102
}
330
8F
100
AcDbXrecord
280
     1
270
     1
271
     1
  0
XRECORD
  5
95
102
{ACAD_REACTORS
330
8F
102
}
330
8F
100
AcDbXrecord
280
     1
270
     1
271
     1
  0
XRECORD
  5
92
102
{ACAD_REACTORS
330
8F
102
}
330
8F
100
AcDbXrecord
280
     1
270
     1
271
     1
  0
XRECORD
  5
1B6D0
102
{ACAD_REACTORS
330
87
102
}
330
87
100
AcDbXrecord
280
     1
102
MATERIAL
148
0.0
149
0.0
149
0.0
 93
        0
 94
      127
282
     0
 72
     0
 77
     0
171
     0
175
     0
179
     0
273
     0
  0
XRECORD
  5
89
102
{ACAD_REACTORS
330
87
102
}
330
87
100
AcDbXrecord
280
     1
270
     1
271
     1
  0
XRECORD
  5
88
102
{ACAD_REACTORS
330
87
102
}
330
87
100
AcDbXrecord
280
     1
270
     1
271
     1
  0
XRECORD
  5
8C
102
{ACAD_REACTORS
330
87
102
}
330
87
100
AcDbXrecord
280
     1
270
     1
271
     1
  0
XRECORD
  5
8B
102
{ACAD_REACTORS
330
87
102
}
330
87
100
AcDbXrecord
280
     1
270
     1
271
     1
  0
XRECORD
  5
8D
102
{ACAD_REACTORS
330
87
102
}
330
87
100
AcDbXrecord
280
     1
270
     1
271
     1
  0
XRECORD
  5
8A
102
{ACAD_REACTORS
330
87
102
}
330
87
100
AcDbXrecord
280
     1
270
     1
271
     1
  0
XRECORD
  5
1B6D2
102
{ACAD_REACTORS
330
97
102
}
330
97
100
AcDbXrecord
280
     1
102
MATERIAL
148
0.0
149
0.0
149
0.0
 93
        0
 94
      127
282
     0
 72
     0
 77
     0
171
     0
175
     0
179
     0
273
     0
  0
XRECORD
  5
99
102
{ACAD_REACTORS
330
97
102
}
330
97
100
AcDbXrecord
280
     1
270
     1
271
     1
  0
XRECORD
  5
98
102
{ACAD_REACTORS
330
97
102
}
330
97
100
AcDbXrecord
280
     1
270
     1
271
     1
  0
XRECORD
  5
9C
102
{ACAD_REACTORS
330
97
102
}
330
97
100
AcDbXrecord
280
     1
270
     1
271
     1
  0
XRECORD
  5
9B
102
{ACAD_REACTORS
330
97
102
}
330
97
100
AcDbXrecord
280
     1
270
     1
271
     1
  0
XRECORD
  5
9D
102
{ACAD_REACTORS
330
97
102
}
330
97
100
AcDbXrecord
280
     1
270
     1
271
     1
  0
XRECORD
  5
9A
102
{ACAD_REACTORS
330
97
102
}
330
97
100
AcDbXrecord
280
     1
270
     1
271
     1
  0
CELLSTYLEMAP
  5
1B6C2
102
{ACAD_REACTORS
330
2458
102
}
330
2458
100
AcDbCellStyleMap
 90
        3
300
CELLSTYLE
  1
TABLEFORMAT_BEGIN
 90
        5
170
     1
 91
        0
 92
    32768
 62
   257
 93
        1
300
CONTENTFORMAT
  1
CONTENTFORMAT_BEGIN
 90
        0
 91
        0
 92
      512
 93
        0
300

 40
0.0
140
1.0
 94
        5
 62
     0
340
11
144
0.25
309
CONTENTFORMAT_END
171
     1
301
MARGIN
  1
CELLMARGIN_BEGIN
 40
0.06
 40
0.06
 40
0.06
 40
0.06
 40
0.18
 40
0.18
309
CELLMARGIN_END
 94
        6
 95
        1
302
GRIDFORMAT
  1
GRIDFORMAT_BEGIN
 90
        0
 91
        1
 62
     0
 92
       -2
340
0
 93
        0
 40
0.045
309
GRIDFORMAT_END
 95
        2
302
GRIDFORMAT
  1
GRIDFORMAT_BEGIN
 90
        0
 91
        1
 62
     0
 92
       -2
340
0
 93
        0
 40
0.045
309
GRIDFORMAT_END
 95
        4
302
GRIDFORMAT
  1
GRIDFORMAT_BEGIN
 90
        0
 91
        1
 62
     0
 92
       -2
340
0
 93
        0
 40
0.045
309
GRIDFORMAT_END
 95
        8
302
GRIDFORMAT
  1
GRIDFORMAT_BEGIN
 90
        0
 91
        1
 62
     0
 92
       -2
340
0
 93
        0
 40
0.045
309
GRIDFORMAT_END
 95
       16
302
GRIDFORMAT
  1
GRIDFORMAT_BEGIN
 90
        0
 91
        1
 62
     0
 92
       -2
340
0
 93
        0
 40
0.045
309
GRIDFORMAT_END
 95
       32
302
GRIDFORMAT
  1
GRIDFORMAT_BEGIN
 90
        0
 91
        1
 62
     0
 92
       -2
340
0
 93
        0
 40
0.045
309
GRIDFORMAT_END
309
TABLEFORMAT_END
  1
CELLSTYLE_BEGIN
 90
        1
 91
        1
300
_TITLE
309
CELLSTYLE_END
300
CELLSTYLE
  1
TABLEFORMAT_BEGIN
 90
        5
170
     1
 91
        0
 92
        0
 62
   257
 93
        1
300
CONTENTFORMAT
  1
CONTENTFORMAT_BEGIN
 90
        0
 91
        0
 92
      512
 93
        0
300

 40
0.0
140
1.0
 94
        5
 62
     0
340
11
144
0.18
309
CONTENTFORMAT_END
171
     1
301
MARGIN
  1
CELLMARGIN_BEGIN
 40
0.06
 40
0.06
 40
0.06
 40
0.06
 40
0.18
 40
0.18
309
CELLMARGIN_END
 94
        6
 95
        1
302
GRIDFORMAT
  1
GRIDFORMAT_BEGIN
 90
        0
 91
        1
 62
     0
 92
       -2
340
0
 93
        0
 40
0.045
309
GRIDFORMAT_END
 95
        2
302
GRIDFORMAT
  1
GRIDFORMAT_BEGIN
 90
        0
 91
        1
 62
     0
 92
       -2
340
0
 93
        0
 40
0.045
309
GRIDFORMAT_END
 95
        4
302
GRIDFORMAT
  1
GRIDFORMAT_BEGIN
 90
        0
 91
        1
 62
     0
 92
       -2
340
0
 93
        0
 40
0.045
309
GRIDFORMAT_END
 95
        8
302
GRIDFORMAT
  1
GRIDFORMAT_BEGIN
 90
        0
 91
        1
 62
     0
 92
       -2
340
0
 93
        0
 40
0.045
309
GRIDFORMAT_END
 95
       16
302
GRIDFORMAT
  1
GRIDFORMAT_BEGIN
 90
        0
 91
        1
 62
     0
 92
       -2
340
0
 93
        0
 40
0.045
309
GRIDFORMAT_END
 95
       32
302
GRIDFORMAT
  1
GRIDFORMAT_BEGIN
 90
        0
 91
        1
 62
     0
 92
       -2
340
0
 93
        0
 40
0.045
309
GRIDFORMAT_END
309
TABLEFORMAT_END
  1
CELLSTYLE_BEGIN
 90
        2
 91
        1
300
_HEADER
309
CELLSTYLE_END
300
CELLSTYLE
  1
TABLEFORMAT_BEGIN
 90
        5
170
     1
 91
        0
 92
        0
 62
   257
 93
        1
300
CONTENTFORMAT
  1
CONTENTFORMAT_BEGIN
 90
        0
 91
        0
 92
      512
 93
        0
300

 40
0.0
140
1.0
 94
        2
 62
     0
340
11
144
0.18
309
CONTENTFORMAT_END
171
     1
301
MARGIN
  1
CELLMARGIN_BEGIN
 40
0.06
 40
0.06
 40
0.06
 40
0.06
 40
0.18
 40
0.18
309
CELLMARGIN_END
 94
        6
 95
        1
302
GRIDFORMAT
  1
GRIDFORMAT_BEGIN
 90
        0
 91
        1
 62
     0
 92
       -2
340
0
 93
        0
 40
0.045
309
GRIDFORMAT_END
 95
        2
302
GRIDFORMAT
  1
GRIDFORMAT_BEGIN
 90
        0
 91
        1
 62
     0
 92
       -2
340
0
 93
        0
 40
0.045
309
GRIDFORMAT_END
 95
        4
302
GRIDFORMAT
  1
GRIDFORMAT_BEGIN
 90
        0
 91
        1
 62
     0
 92
       -2
340
0
 93
        0
 40
0.045
309
GRIDFORMAT_END
 95
        8
302
GRIDFORMAT
  1
GRIDFORMAT_BEGIN
 90
        0
 91
        1
 62
     0
 92
       -2
340
0
 93
        0
 40
0.045
309
GRIDFORMAT_END
 95
       16
302
GRIDFORMAT
  1
GRIDFORMAT_BEGIN
 90
        0
 91
        1
 62
     0
 92
       -2
340
0
 93
        0
 40
0.045
309
GRIDFORMAT_END
 95
       32
302
GRIDFORMAT
  1
GRIDFORMAT_BEGIN
 90
        0
 91
        1
 62
     0
 92
       -2
340
0
 93
        0
 40
0.045
309
GRIDFORMAT_END
309
TABLEFORMAT_END
  1
CELLSTYLE_BEGIN
 90
        3
 91
        2
300
_DATA
309
CELLSTYLE_END
  0
XRECORD
  5
1B6F3
102
{ACAD_REACTORS
330
2458
102
}
330
2458
100
AcDbXrecord
280
     1
102
ACAD_ROUNDTRIP_PRE2007_TABLESTYLE
 90
      512
 91
        0
  1

 92
      512
 93
        0
  2

 94
      512
 95
        0
  3

  0
XRECORD
  5
1B6DE
102
{ACAD_REACTORS
330
1B6DD
102
}
330
1B6DD
100
AcDbXrecord
280
     1
102
RTVSPropertyOp0
 70
     1
102
RTVSPropertyOp1
 70
     1
102
RTVSPropertyOp2
 70
     1
102
RTVSPropertyOp3
 70
     1
102
RTVSPropertyOp4
 70
     1
102
RTVSPropertyOp5
 70
     1
102
RTVSPropertyOp6
 70
     1
102
RTVSPropertyOp7
 70
     1
102
RTVSPropertyOp8
 70
     1
102
RTVSPropertyOp9
 70
     1
102
RTVSPropertyOp10
 70
     1
102
RTVSPropertyOp11
 70
     1
102
RTVSPropertyOp12
 70
     1
102
RTVSPropertyOp13
 70
     1
102
RTVSPropertyOp14
 70
     1
102
RTVSPropertyOp15
 70
     1
102
RTVSPropertyOp16
 70
     1
102
RTVSPropertyOp17
 70
     1
102
RTVSPropertyOp18
 70
     1
102
RTVSPropertyOp19
 70
     1
102
RTVSPropertyOp20
 70
     1
102
RTVSPropertyOp21
 70
     1
102
RTVSPropertyOp22
 70
     1
102
RTVSPropertyOp23
 70
     1
102
RTVSPropertyOp24
 70
     1
102
RTVSPropertyOp25
 70
     1
102
RTVSPropertyOp26
 70
     1
102
RTVSPropertyOp27
 70
     1
102
RTVSPropertyOp28
 70
     1
102
RTVSPropertyOp29
 70
     1
102
RTVSPropertyOp30
 70
     1
102
RTVSPropertyOp31
 70
     1
102
RTVSPropertyOp32
 70
     1
  0
XRECORD
  5
1B6E2
102
{ACAD_REACTORS
330
1B6E1
102
}
330
1B6E1
100
AcDbXrecord
280
     1
102
RTVSPropertyOp0
 70
     1
102
RTVSPropertyOp1
 70
     1
102
RTVSPropertyOp2
 70
     1
102
RTVSPropertyOp3
 70
     1
102
RTVSPropertyOp4
 70
     1
102
RTVSPropertyOp5
 70
     1
102
RTVSPropertyOp6
 70
     1
102
RTVSPropertyOp7
 70
     1
102
RTVSPropertyOp8
 70
     1
102
RTVSPropertyOp9
 70
     1
102
RTVSPropertyOp10
 70
     1
102
RTVSPropertyOp11
 70
     1
102
RTVSPropertyOp12
 70
     1
102
RTVSPropertyOp13
 70
     1
102
RTVSPropertyOp14
 70
     1
102
RTVSPropertyOp15
 70
     1
102
RTVSPropertyOp16
 70
     1
102
RTVSPropertyOp17
 70
     1
102
RTVSPropertyOp18
 70
     1
102
RTVSPropertyOp19
 70
     1
102
RTVSPropertyOp20
 70
     1
102
RTVSPropertyOp21
 70
     1
102
RTVSPropertyOp22
 70
     1
102
RTVSPropertyOp23
 70
     1
102
RTVSPropertyOp24
 70
     1
102
RTVSPropertyOp25
 70
     1
102
RTVSPropertyOp26
 70
     1
102
RTVSPropertyOp27
 70
     1
102
RTVSPropertyOp28
 70
     1
102
RTVSPropertyOp29
 70
     1
102
RTVSPropertyOp30
 70
     1
102
RTVSPropertyOp31
 70
     1
102
RTVSPropertyOp32
 70
     1
  0
XRECORD
  5
1B6E0
102
{ACAD_REACTORS
330
1B6DF
102
}
330
1B6DF
100
AcDbXrecord
280
     1
102
RTVSPropertyOp0
 70
     1
102
RTVSPropertyOp1
 70
     1
102
RTVSPropertyOp2
 70
     1
102
RTVSPropertyOp3
 70
     1
102
RTVSPropertyOp4
 70
     1
102
RTVSPropertyOp5
 70
     1
102
RTVSPropertyOp6
 70
     1
102
RTVSPropertyOp7
 70
     1
102
RTVSPropertyOp8
 70
     1
102
RTVSPropertyOp9
 70
     1
102
RTVSPropertyOp10
 70
     1
102
RTVSPropertyOp11
 70
     1
102
RTVSPropertyOp12
 70
     1
102
RTVSPropertyOp13
 70
     1
102
RTVSPropertyOp14
 70
     1
102
RTVSPropertyOp15
 70
     1
102
RTVSPropertyOp16
 70
     1
102
RTVSPropertyOp17
 70
     1
102
RTVSPropertyOp18
 70
     1
102
RTVSPropertyOp19
 70
     1
102
RTVSPropertyOp20
 70
     1
102
RTVSPropertyOp21
 70
     1
102
RTVSPropertyOp22
 70
     1
102
RTVSPropertyOp23
 70
     1
102
RTVSPropertyOp24
 70
     1
102
RTVSPropertyOp25
 70
     1
102
RTVSPropertyOp26
 70
     1
102
RTVSPropertyOp27
 70
     1
102
RTVSPropertyOp28
 70
     1
102
RTVSPropertyOp29
 70
     1
102
RTVSPropertyOp30
 70
     1
102
RTVSPropertyOp31
 70
     1
102
RTVSPropertyOp32
 70
     1
  0
XRECORD
  5
1B6DC
102
{ACAD_REACTORS
330
1B6DB
102
}
330
1B6DB
100
AcDbXrecord
280
     1
102
RTVSPropertyOp0
 70
     1
102
RTVSPropertyOp1
 70
     1
102
RTVSPropertyOp2
 70
     1
102
RTVSPropertyOp3
 70
     1
102
RTVSPropertyOp4
 70
     1
102
RTVSPropertyOp5
 70
     1
102
RTVSPropertyOp6
 70
     1
102
RTVSPropertyOp7
 70
     1
102
RTVSPropertyOp8
 70
     1
102
RTVSPropertyOp9
 70
     1
102
RTVSPropertyOp10
 70
     1
102
RTVSPropertyOp11
 70
     1
102
RTVSPropertyOp12
 70
     1
102
RTVSPropertyOp13
 70
     1
102
RTVSPropertyOp14
 70
     1
102
RTVSPropertyOp15
 70
     1
102
RTVSPropertyOp16
 70
     1
102
RTVSPropertyOp17
 70
     1
102
RTVSPropertyOp18
 70
     1
102
RTVSPropertyOp19
 70
     1
102
RTVSPropertyOp20
 70
     1
102
RTVSPropertyOp21
 70
     1
102
RTVSPropertyOp22
 70
     1
102
RTVSPropertyOp23
 70
     1
102
RTVSPropertyOp24
 70
     1
102
RTVSPropertyOp25
 70
     1
102
RTVSPropertyOp26
 70
     1
102
RTVSPropertyOp27
 70
     1
102
RTVSPropertyOp28
 70
     1
102
RTVSPropertyOp29
 70
     1
102
RTVSPropertyOp30
 70
     1
102
RTVSPropertyOp31
 70
     1
102
RTVSPropertyOp32
 70
     1
  0
XRECORD
  5
1B6EA
102
{ACAD_REACTORS
330
1B6E9
102
}
330
1B6E9
100
AcDbXrecord
280
     1
102
RTVSPropertyOp0
 70
     1
102
RTVSPropertyOp1
 70
     1
102
RTVSPropertyOp2
 70
     1
102
RTVSPropertyOp3
 70
     1
102
RTVSPropertyOp4
 70
     1
102
RTVSPropertyOp5
 70
     1
102
RTVSPropertyOp6
 70
     1
102
RTVSPropertyOp7
 70
     1
102
RTVSPropertyOp8
 70
     1
102
RTVSPropertyOp9
 70
     1
102
RTVSPropertyOp10
 70
     1
102
RTVSPropertyOp11
 70
     1
102
RTVSPropertyOp12
 70
     1
102
RTVSPropertyOp13
 70
     1
102
RTVSPropertyOp14
 70
     1
102
RTVSPropertyOp15
 70
     1
102
RTVSPropertyOp16
 70
     1
102
RTVSPropertyOp17
 70
     1
102
RTVSPropertyOp18
 70
     1
102
RTVSPropertyOp19
 70
     1
102
RTVSPropertyOp20
 70
     1
102
RTVSPropertyOp21
 70
     1
102
RTVSPropertyOp22
 70
     1
102
RTVSPropertyOp23
 70
     1
102
RTVSPropertyOp24
 70
     1
102
RTVSPropertyOp25
 70
     1
102
RTVSPropertyOp26
 70
     1
102
RTVSPropertyOp27
 70
     1
102
RTVSPropertyOp28
 70
     1
102
RTVSPropertyOp29
 70
     1
102
RTVSPropertyOp30
 70
     1
102
RTVSPropertyOp31
 70
     1
102
RTVSPropertyOp32
 70
     1
  0
XRECORD
  5
1B6F2
102
{ACAD_REACTORS
330
1B6F1
102
}
330
1B6F1
100
AcDbXrecord
280
     1
102
RTVSPropertyOp0
 70
     1
102
RTVSPropertyOp1
 70
     1
102
RTVSPropertyOp2
 70
     1
102
RTVSPropertyOp3
 70
     1
102
RTVSPropertyOp4
 70
     1
102
RTVSPropertyOp5
 70
     1
102
RTVSPropertyOp6
 70
     1
102
RTVSPropertyOp7
 70
     1
102
RTVSPropertyOp8
 70
     1
102
RTVSPropertyOp9
 70
     1
102
RTVSPropertyOp10
 70
     1
102
RTVSPropertyOp11
 70
     1
102
RTVSPropertyOp12
 70
     1
102
RTVSPropertyOp13
 70
     1
102
RTVSPropertyOp14
 70
     1
102
RTVSPropertyOp15
 70
     1
102
RTVSPropertyOp16
 70
     1
102
RTVSPropertyOp17
 70
     1
102
RTVSPropertyOp18
 70
     1
102
RTVSPropertyOp19
 70
     1
102
RTVSPropertyOp20
 70
     1
102
RTVSPropertyOp21
 70
     1
102
RTVSPropertyOp22
 70
     1
102
RTVSPropertyOp23
 70
     1
102
RTVSPropertyOp24
 70
     1
102
RTVSPropertyOp25
 70
     1
102
RTVSPropertyOp26
 70
     1
102
RTVSPropertyOp27
 70
     1
102
RTVSPropertyOp28
 70
     1
102
RTVSPropertyOp29
 70
     1
102
RTVSPropertyOp30
 70
     1
102
RTVSPropertyOp31
 70
     1
102
RTVSPropertyOp32
 70
     1
  0
XRECORD
  5
1B6E4
102
{ACAD_REACTORS
330
1B6E3
102
}
330
1B6E3
100
AcDbXrecord
280
     1
102
RTVSPropertyOp0
 70
     1
102
RTVSPropertyOp1
 70
     1
102
RTVSPropertyOp2
 70
     1
102
RTVSPropertyOp3
 70
     1
102
RTVSPropertyOp4
 70
     1
102
RTVSPropertyOp5
 70
     1
102
RTVSPropertyOp6
 70
     1
102
RTVSPropertyOp7
 70
     1
102
RTVSPropertyOp8
 70
     1
102
RTVSPropertyOp9
 70
     1
102
RTVSPropertyOp10
 70
     1
102
RTVSPropertyOp11
 70
     1
102
RTVSPropertyOp12
 70
     1
102
RTVSPropertyOp13
 70
     1
102
RTVSPropertyOp14
 70
     1
102
RTVSPropertyOp15
 70
     1
102
RTVSPropertyOp16
 70
     1
102
RTVSPropertyOp17
 70
     1
102
RTVSPropertyOp18
 70
     1
102
RTVSPropertyOp19
 70
     1
102
RTVSPropertyOp20
 70
     1
102
RTVSPropertyOp21
 70
     1
102
RTVSPropertyOp22
 70
     1
102
RTVSPropertyOp23
 70
     1
102
RTVSPropertyOp24
 70
     1
102
RTVSPropertyOp25
 70
     1
102
RTVSPropertyOp26
 70
     1
102
RTVSPropertyOp27
 70
     1
102
RTVSPropertyOp28
 70
     1
102
RTVSPropertyOp29
 70
     1
102
RTVSPropertyOp30
 70
     1
102
RTVSPropertyOp31
 70
     1
102
RTVSPropertyOp32
 70
     1
  0
XRECORD
  5
1B6E8
102
{ACAD_REACTORS
330
1B6E7
102
}
330
1B6E7
100
AcDbXrecord
280
     1
102
RTVSPropertyOp0
 70
     1
102
RTVSPropertyOp1
 70
     1
102
RTVSPropertyOp2
 70
     1
102
RTVSPropertyOp3
 70
     1
102
RTVSPropertyOp4
 70
     1
102
RTVSPropertyOp5
 70
     1
102
RTVSPropertyOp6
 70
     1
102
RTVSPropertyOp7
 70
     1
102
RTVSPropertyOp8
 70
     1
102
RTVSPropertyOp9
 70
     1
102
RTVSPropertyOp10
 70
     1
102
RTVSPropertyOp11
 70
     1
102
RTVSPropertyOp12
 70
     1
102
RTVSPropertyOp13
 70
     1
102
RTVSPropertyOp14
 70
     1
102
RTVSPropertyOp15
 70
     1
102
RTVSPropertyOp16
 70
     1
102
RTVSPropertyOp17
 70
     1
102
RTVSPropertyOp18
 70
     1
102
RTVSPropertyOp19
 70
     1
102
RTVSPropertyOp20
 70
     1
102
RTVSPropertyOp21
 70
     1
102
RTVSPropertyOp22
 70
     1
102
RTVSPropertyOp23
 70
     1
102
RTVSPropertyOp24
 70
     1
102
RTVSPropertyOp25
 70
     1
102
RTVSPropertyOp26
 70
     1
102
RTVSPropertyOp27
 70
     1
102
RTVSPropertyOp28
 70
     1
102
RTVSPropertyOp29
 70
     1
102
RTVSPropertyOp30
 70
     1
102
RTVSPropertyOp31
 70
     1
102
RTVSPropertyOp32
 70
     1
  0
XRECORD
  5
1B707
102
{ACAD_REACTORS
330
1B706
102
}
330
1B706
100
AcDbXrecord
280
     1
102
RTVSPropertyOp0
 70
     0
102
RTVSPropertyOp1
 70
     0
102
RTVSPropertyOp2
 70
     0
102
RTVSPropertyOp3
 70
     0
102
RTVSPropertyOp4
 70
     0
102
RTVSPropertyOp5
 70
     0
102
RTVSPropertyOp6
 70
     0
102
RTVSPropertyOp7
 70
     0
102
RTVSPropertyOp8
 70
     0
102
RTVSPropertyOp9
 70
     0
102
RTVSPropertyOp10
 70
     0
102
RTVSPropertyOp11
 70
     0
102
RTVSPropertyOp12
 70
     0
102
RTVSPropertyOp13
 70
     0
102
RTVSPropertyOp14
 70
     2
102
RTVSPropertyOp15
 70
     0
102
RTVSPropertyOp16
 70
     0
102
RTVSPropertyOp17
 70
     0
102
RTVSPropertyOp18
 70
     0
102
RTVSPropertyOp19
 70
     0
102
RTVSPropertyOp20
 70
     0
102
RTVSPropertyOp21
 70
     0
102
RTVSPropertyOp22
 70
     0
102
RTVSPropertyOp23
 70
     0
102
RTVSPropertyOp24
 70
     0
102
RTVSPropertyOp25
 70
     0
102
RTVSPropertyOp26
 70
     0
102
RTVSPropertyOp27
 70
     0
102
RTVSPropertyOp28
 70
     1
102
RTVSPropertyOp29
 70
     1
102
RTVSPropertyOp30
 70
     1
102
RTVSPropertyOp31
 70
     1
102
RTVSPropertyOp32
 70
     1
  0
XRECORD
  5
1B6F0
102
{ACAD_REACTORS
330
1B6EF
102
}
330
1B6EF
100
AcDbXrecord
280
     1
102
RTVSPropertyOp0
 70
     1
102
RTVSPropertyOp1
 70
     1
102
RTVSPropertyOp2
 70
     1
102
RTVSPropertyOp3
 70
     1
102
RTVSPropertyOp4
 70
     1
102
RTVSPropertyOp5
 70
     1
102
RTVSPropertyOp6
 70
     1
102
RTVSPropertyOp7
 70
     1
102
RTVSPropertyOp8
 70
     1
102
RTVSPropertyOp9
 70
     1
102
RTVSPropertyOp10
 70
     1
102
RTVSPropertyOp11
 70
     1
102
RTVSPropertyOp12
 70
     1
102
RTVSPropertyOp13
 70
     1
102
RTVSPropertyOp14
 70
     1
102
RTVSPropertyOp15
 70
     1
102
RTVSPropertyOp16
 70
     1
102
RTVSPropertyOp17
 70
     1
102
RTVSPropertyOp18
 70
     1
102
RTVSPropertyOp19
 70
     1
102
RTVSPropertyOp20
 70
     1
102
RTVSPropertyOp21
 70
     1
102
RTVSPropertyOp22
 70
     1
102
RTVSPropertyOp23
 70
     1
102
RTVSPropertyOp24
 70
     1
102
RTVSPropertyOp25
 70
     1
102
RTVSPropertyOp26
 70
     1
102
RTVSPropertyOp27
 70
     1
102
RTVSPropertyOp28
 70
     1
102
RTVSPropertyOp29
 70
     1
102
RTVSPropertyOp30
 70
     1
102
RTVSPropertyOp31
 70
     1
102
RTVSPropertyOp32
 70
     1
  0
XRECORD
  5
1B6D4
102
{ACAD_REACTORS
330
1B6D3
102
}
330
1B6D3
100
AcDbXrecord
280
     1
102
RTVSPropertyOp0
 70
     1
102
RTVSPropertyOp1
 70
     1
102
RTVSPropertyOp2
 70
     1
102
RTVSPropertyOp3
 70
     1
102
RTVSPropertyOp4
 70
     1
102
RTVSPropertyOp5
 70
     1
102
RTVSPropertyOp6
 70
     1
102
RTVSPropertyOp7
 70
     1
102
RTVSPropertyOp8
 70
     1
102
RTVSPropertyOp9
 70
     1
102
RTVSPropertyOp10
 70
     1
102
RTVSPropertyOp11
 70
     1
102
RTVSPropertyOp12
 70
     1
102
RTVSPropertyOp13
 70
     1
102
RTVSPropertyOp14
 70
     1
102
RTVSPropertyOp15
 70
     1
102
RTVSPropertyOp16
 70
     1
102
RTVSPropertyOp17
 70
     1
102
RTVSPropertyOp18
 70
     1
102
RTVSPropertyOp19
 70
     1
102
RTVSPropertyOp20
 70
     1
102
RTVSPropertyOp21
 70
     1
102
RTVSPropertyOp22
 70
     1
102
RTVSPropertyOp23
 70
     1
102
RTVSPropertyOp24
 70
     1
102
RTVSPropertyOp25
 70
     1
102
RTVSPropertyOp26
 70
     1
102
RTVSPropertyOp27
 70
     1
102
RTVSPropertyOp28
 70
     1
102
RTVSPropertyOp29
 70
     1
102
RTVSPropertyOp30
 70
     1
102
RTVSPropertyOp31
 70
     1
102
RTVSPropertyOp32
 70
     1
  0
XRECORD
  5
1B6D6
102
{ACAD_REACTORS
330
1B6D5
102
}
330
1B6D5
100
AcDbXrecord
280
     1
102
RTVSPropertyOp0
 70
     1
102
RTVSPropertyOp1
 70
     1
102
RTVSPropertyOp2
 70
     1
102
RTVSPropertyOp3
 70
     1
102
RTVSPropertyOp4
 70
     1
102
RTVSPropertyOp5
 70
     1
102
RTVSPropertyOp6
 70
     1
102
RTVSPropertyOp7
 70
     1
102
RTVSPropertyOp8
 70
     1
102
RTVSPropertyOp9
 70
     1
102
RTVSPropertyOp10
 70
     1
102
RTVSPropertyOp11
 70
     1
102
RTVSPropertyOp12
 70
     1
102
RTVSPropertyOp13
 70
     1
102
RTVSPropertyOp14
 70
     1
102
RTVSPropertyOp15
 70
     1
102
RTVSPropertyOp16
 70
     1
102
RTVSPropertyOp17
 70
     1
102
RTVSPropertyOp18
 70
     1
102
RTVSPropertyOp19
 70
     1
102
RTVSPropertyOp20
 70
     1
102
RTVSPropertyOp21
 70
     1
102
RTVSPropertyOp22
 70
     1
102
RTVSPropertyOp23
 70
     1
102
RTVSPropertyOp24
 70
     1
102
RTVSPropertyOp25
 70
     1
102
RTVSPropertyOp26
 70
     1
102
RTVSPropertyOp27
 70
     1
102
RTVSPropertyOp28
 70
     1
102
RTVSPropertyOp29
 70
     1
102
RTVSPropertyOp30
 70
     1
102
RTVSPropertyOp31
 70
     1
102
RTVSPropertyOp32
 70
     1
  0
XRECORD
  5
1B6D8
102
{ACAD_REACTORS
330
1B6D7
102
}
330
1B6D7
100
AcDbXrecord
280
     1
102
RTVSPropertyOp0
 70
     1
102
RTVSPropertyOp1
 70
     1
102
RTVSPropertyOp2
 70
     1
102
RTVSPropertyOp3
 70
     1
102
RTVSPropertyOp4
 70
     1
102
RTVSPropertyOp5
 70
     1
102
RTVSPropertyOp6
 70
     1
102
RTVSPropertyOp7
 70
     1
102
RTVSPropertyOp8
 70
     1
102
RTVSPropertyOp9
 70
     1
102
RTVSPropertyOp10
 70
     1
102
RTVSPropertyOp11
 70
     1
102
RTVSPropertyOp12
 70
     1
102
RTVSPropertyOp13
 70
     1
102
RTVSPropertyOp14
 70
     1
102
RTVSPropertyOp15
 70
     1
102
RTVSPropertyOp16
 70
     1
102
RTVSPropertyOp17
 70
     1
102
RTVSPropertyOp18
 70
     1
102
RTVSPropertyOp19
 70
     1
102
RTVSPropertyOp20
 70
     1
102
RTVSPropertyOp21
 70
     1
102
RTVSPropertyOp22
 70
     1
102
RTVSPropertyOp23
 70
     1
102
RTVSPropertyOp24
 70
     1
102
RTVSPropertyOp25
 70
     1
102
RTVSPropertyOp26
 70
     1
102
RTVSPropertyOp27
 70
     1
102
RTVSPropertyOp28
 70
     1
102
RTVSPropertyOp29
 70
     1
102
RTVSPropertyOp30
 70
     1
102
RTVSPropertyOp31
 70
     1
102
RTVSPropertyOp32
 70
     1
  0
XRECORD
  5
1B6DA
102
{ACAD_REACTORS
330
1B6D9
102
}
330
1B6D9
100
AcDbXrecord
280
     1
102
RTVSPropertyOp0
 70
     1
102
RTVSPropertyOp1
 70
     1
102
RTVSPropertyOp2
 70
     1
102
RTVSPropertyOp3
 70
     1
102
RTVSPropertyOp4
 70
     1
102
RTVSPropertyOp5
 70
     1
102
RTVSPropertyOp6
 70
     1
102
RTVSPropertyOp7
 70
     1
102
RTVSPropertyOp8
 70
     1
102
RTVSPropertyOp9
 70
     1
102
RTVSPropertyOp10
 70
     1
102
RTVSPropertyOp11
 70
     1
102
RTVSPropertyOp12
 70
     1
102
RTVSPropertyOp13
 70
     1
102
RTVSPropertyOp14
 70
     1
102
RTVSPropertyOp15
 70
     1
102
RTVSPropertyOp16
 70
     1
102
RTVSPropertyOp17
 70
     1
102
RTVSPropertyOp18
 70
     1
102
RTVSPropertyOp19
 70
     1
102
RTVSPropertyOp20
 70
     1
102
RTVSPropertyOp21
 70
     1
102
RTVSPropertyOp22
 70
     1
102
RTVSPropertyOp23
 70
     1
102
RTVSPropertyOp24
 70
     1
102
RTVSPropertyOp25
 70
     1
102
RTVSPropertyOp26
 70
     1
102
RTVSPropertyOp27
 70
     1
102
RTVSPropertyOp28
 70
     1
102
RTVSPropertyOp29
 70
     1
102
RTVSPropertyOp30
 70
     1
102
RTVSPropertyOp31
 70
     1
102
RTVSPropertyOp32
 70
     1
  0
XRECORD
  5
1B6F7
102
{ACAD_REACTORS
330
1B6F6
102
}
330
1B6F6
100
AcDbXrecord
280
     1
102
RTVSPropertyOp0
 70
     1
102
RTVSPropertyOp1
 70
     1
102
RTVSPropertyOp2
 70
     1
102
RTVSPropertyOp3
 70
     1
102
RTVSPropertyOp4
 70
     1
102
RTVSPropertyOp5
 70
     1
102
RTVSPropertyOp6
 70
     1
102
RTVSPropertyOp7
 70
     1
102
RTVSPropertyOp8
 70
     1
102
RTVSPropertyOp9
 70
     1
102
RTVSPropertyOp10
 70
     1
102
RTVSPropertyOp11
 70
     1
102
RTVSPropertyOp12
 70
     1
102
RTVSPropertyOp13
 70
     1
102
RTVSPropertyOp14
 70
     1
102
RTVSPropertyOp15
 70
     1
102
RTVSPropertyOp16
 70
     1
102
RTVSPropertyOp17
 70
     1
102
RTVSPropertyOp18
 70
     1
102
RTVSPropertyOp19
 70
     1
102
RTVSPropertyOp20
 70
     1
102
RTVSPropertyOp21
 70
     1
102
RTVSPropertyOp22
 70
     1
102
RTVSPropertyOp23
 70
     1
102
RTVSPropertyOp24
 70
     1
102
RTVSPropertyOp25
 70
     1
102
RTVSPropertyOp26
 70
     1
102
RTVSPropertyOp27
 70
     1
102
RTVSPropertyOp28
 70
     1
102
RTVSPropertyOp29
 70
     1
102
RTVSPropertyOp30
 70
     1
102
RTVSPropertyOp31
 70
     1
102
RTVSPropertyOp32
 70
     1
  0
XRECORD
  5
1B703
102
{ACAD_REACTORS
330
1B702
102
}
330
1B702
100
AcDbXrecord
280
     1
102
RTVSPropertyOp0
 70
     0
102
RTVSPropertyOp1
 70
     0
102
RTVSPropertyOp2
 70
     0
102
RTVSPropertyOp3
 70
     0
102
RTVSPropertyOp4
 70
     0
102
RTVSPropertyOp5
 70
     0
102
RTVSPropertyOp6
 70
     0
102
RTVSPropertyOp7
 70
     0
102
RTVSPropertyOp8
 70
     0
102
RTVSPropertyOp9
 70
     0
102
RTVSPropertyOp10
 70
     0
102
RTVSPropertyOp11
 70
     0
102
RTVSPropertyOp12
 70
     0
102
RTVSPropertyOp13
 70
     0
102
RTVSPropertyOp14
 70
     2
102
RTVSPropertyOp15
 70
     0
102
RTVSPropertyOp16
 70
     0
102
RTVSPropertyOp17
 70
     0
102
RTVSPropertyOp18
 70
     0
102
RTVSPropertyOp19
 70
     0
102
RTVSPropertyOp20
 70
     0
102
RTVSPropertyOp21
 70
     0
102
RTVSPropertyOp22
 70
     0
102
RTVSPropertyOp23
 70
     0
102
RTVSPropertyOp24
 70
     0
102
RTVSPropertyOp25
 70
     0
102
RTVSPropertyOp26
 70
     0
102
RTVSPropertyOp27
 70
     0
102
RTVSPropertyOp28
 70
     1
102
RTVSPropertyOp29
 70
     1
102
RTVSPropertyOp30
 70
     1
102
RTVSPropertyOp31
 70
     1
102
RTVSPropertyOp32
 70
     1
  0
XRECORD
  5
1B6EE
102
{ACAD_REACTORS
330
1B6ED
102
}
330
1B6ED
100
AcDbXrecord
280
     1
102
RTVSPropertyOp0
 70
     1
102
RTVSPropertyOp1
 70
     1
102
RTVSPropertyOp2
 70
     1
102
RTVSPropertyOp3
 70
     1
102
RTVSPropertyOp4
 70
     1
102
RTVSPropertyOp5
 70
     1
102
RTVSPropertyOp6
 70
     1
102
RTVSPropertyOp7
 70
     1
102
RTVSPropertyOp8
 70
     1
102
RTVSPropertyOp9
 70
     1
102
RTVSPropertyOp10
 70
     1
102
RTVSPropertyOp11
 70
     1
102
RTVSPropertyOp12
 70
     1
102
RTVSPropertyOp13
 70
     1
102
RTVSPropertyOp14
 70
     1
102
RTVSPropertyOp15
 70
     1
102
RTVSPropertyOp16
 70
     1
102
RTVSPropertyOp17
 70
     1
102
RTVSPropertyOp18
 70
     1
102
RTVSPropertyOp19
 70
     1
102
RTVSPropertyOp20
 70
     1
102
RTVSPropertyOp21
 70
     1
102
RTVSPropertyOp22
 70
     1
102
RTVSPropertyOp23
 70
     1
102
RTVSPropertyOp24
 70
     1
102
RTVSPropertyOp25
 70
     1
102
RTVSPropertyOp26
 70
     1
102
RTVSPropertyOp27
 70
     1
102
RTVSPropertyOp28
 70
     1
102
RTVSPropertyOp29
 70
     1
102
RTVSPropertyOp30
 70
     1
102
RTVSPropertyOp31
 70
     1
102
RTVSPropertyOp32
 70
     1
  0
XRECORD
  5
1B705
102
{ACAD_REACTORS
330
1B704
102
}
330
1B704
100
AcDbXrecord
280
     1
102
RTVSPropertyOp0
 70
     0
102
RTVSPropertyOp1
 70
     0
102
RTVSPropertyOp2
 70
     0
102
RTVSPropertyOp3
 70
     0
102
RTVSPropertyOp4
 70
     0
102
RTVSPropertyOp5
 70
     0
102
RTVSPropertyOp6
 70
     0
102
RTVSPropertyOp7
 70
     0
102
RTVSPropertyOp8
 70
     0
102
RTVSPropertyOp9
 70
     0
102
RTVSPropertyOp10
 70
     0
102
RTVSPropertyOp11
 70
     0
102
RTVSPropertyOp12
 70
     0
102
RTVSPropertyOp13
 70
     0
102
RTVSPropertyOp14
 70
     2
102
RTVSPropertyOp15
 70
     0
102
RTVSPropertyOp16
 70
     0
102
RTVSPropertyOp17
 70
     0
102
RTVSPropertyOp18
 70
     0
102
RTVSPropertyOp19
 70
     0
102
RTVSPropertyOp20
 70
     0
102
RTVSPropertyOp21
 70
     0
102
RTVSPropertyOp22
 70
     0
102
RTVSPropertyOp23
 70
     0
102
RTVSPropertyOp24
 70
     0
102
RTVSPropertyOp25
 70
     0
102
RTVSPropertyOp26
 70
     0
102
RTVSPropertyOp27
 70
     0
102
RTVSPropertyOp28
 70
     1
102
RTVSPropertyOp29
 70
     1
102
RTVSPropertyOp30
 70
     1
102
RTVSPropertyOp31
 70
     1
102
RTVSPropertyOp32
 70
     1
  0
XRECORD
  5
1B6E6
102
{ACAD_REACTORS
330
1B6E5
102
}
330
1B6E5
100
AcDbXrecord
280
     1
102
RTVSPropertyOp0
 70
     1
102
RTVSPropertyOp1
 70
     1
102
RTVSPropertyOp2
 70
     1
102
RTVSPropertyOp3
 70
     1
102
RTVSPropertyOp4
 70
     1
102
RTVSPropertyOp5
 70
     1
102
RTVSPropertyOp6
 70
     1
102
RTVSPropertyOp7
 70
     1
102
RTVSPropertyOp8
 70
     1
102
RTVSPropertyOp9
 70
     1
102
RTVSPropertyOp10
 70
     1
102
RTVSPropertyOp11
 70
     1
102
RTVSPropertyOp12
 70
     1
102
RTVSPropertyOp13
 70
     1
102
RTVSPropertyOp14
 70
     1
102
RTVSPropertyOp15
 70
     1
102
RTVSPropertyOp16
 70
     1
102
RTVSPropertyOp17
 70
     1
102
RTVSPropertyOp18
 70
     1
102
RTVSPropertyOp19
 70
     1
102
RTVSPropertyOp20
 70
     1
102
RTVSPropertyOp21
 70
     1
102
RTVSPropertyOp22
 70
     1
102
RTVSPropertyOp23
 70
     1
102
RTVSPropertyOp24
 70
     1
102
RTVSPropertyOp25
 70
     1
102
RTVSPropertyOp26
 70
     1
102
RTVSPropertyOp27
 70
     1
102
RTVSPropertyOp28
 70
     1
102
RTVSPropertyOp29
 70
     1
102
RTVSPropertyOp30
 70
     1
102
RTVSPropertyOp31
 70
     1
102
RTVSPropertyOp32
 70
     1
  0
XRECORD
  5
1B701
102
{ACAD_REACTORS
330
1B700
102
}
330
1B700
100
AcDbXrecord
280
     1
102
RTVSPropertyOp0
 70
     1
102
RTVSPropertyOp1
 70
     1
102
RTVSPropertyOp2
 70
     1
102
RTVSPropertyOp3
 70
     1
102
RTVSPropertyOp4
 70
     1
102
RTVSPropertyOp5
 70
     1
102
RTVSPropertyOp6
 70
     1
102
RTVSPropertyOp7
 70
     1
102
RTVSPropertyOp8
 70
     1
102
RTVSPropertyOp9
 70
     1
102
RTVSPropertyOp10
 70
     1
102
RTVSPropertyOp11
 70
     1
102
RTVSPropertyOp12
 70
     1
102
RTVSPropertyOp13
 70
     1
102
RTVSPropertyOp14
 70
     1
102
RTVSPropertyOp15
 70
     1
102
RTVSPropertyOp16
 70
     1
102
RTVSPropertyOp17
 70
     1
102
RTVSPropertyOp18
 70
     1
102
RTVSPropertyOp19
 70
     1
102
RTVSPropertyOp20
 70
     1
102
RTVSPropertyOp21
 70
     1
102
RTVSPropertyOp22
 70
     1
102
RTVSPropertyOp23
 70
     1
102
RTVSPropertyOp24
 70
     1
102
RTVSPropertyOp25
 70
     1
102
RTVSPropertyOp26
 70
     1
102
RTVSPropertyOp27
 70
     1
102
RTVSPropertyOp28
 70
     1
102
RTVSPropertyOp29
 70
     1
102
RTVSPropertyOp30
 70
     1
102
RTVSPropertyOp31
 70
     1
102
RTVSPropertyOp32
 70
     1
  0
XRECORD
  5
1B6FF
102
{ACAD_REACTORS
330
1B6FE
102
}
330
1B6FE
100
AcDbXrecord
280
     1
102
RTVSPropertyOp0
 70
     1
102
RTVSPropertyOp1
 70
     1
102
RTVSPropertyOp2
 70
     1
102
RTVSPropertyOp3
 70
     1
102
RTVSPropertyOp4
 70
     1
102
RTVSPropertyOp5
 70
     1
102
RTVSPropertyOp6
 70
     1
102
RTVSPropertyOp7
 70
     1
102
RTVSPropertyOp8
 70
     1
102
RTVSPropertyOp9
 70
     1
102
RTVSPropertyOp10
 70
     1
102
RTVSPropertyOp11
 70
     1
102
RTVSPropertyOp12
 70
     1
102
RTVSPropertyOp13
 70
     1
102
RTVSPropertyOp14
 70
     1
102
RTVSPropertyOp15
 70
     1
102
RTVSPropertyOp16
 70
     1
102
RTVSPropertyOp17
 70
     1
102
RTVSPropertyOp18
 70
     1
102
RTVSPropertyOp19
 70
     1
102
RTVSPropertyOp20
 70
     1
102
RTVSPropertyOp21
 70
     1
102
RTVSPropertyOp22
 70
     1
102
RTVSPropertyOp23
 70
     1
102
RTVSPropertyOp24
 70
     1
102
RTVSPropertyOp25
 70
     1
102
RTVSPropertyOp26
 70
     1
102
RTVSPropertyOp27
 70
     1
102
RTVSPropertyOp28
 70
     1
102
RTVSPropertyOp29
 70
     1
102
RTVSPropertyOp30
 70
     1
102
RTVSPropertyOp31
 70
     1
102
RTVSPropertyOp32
 70
     1
  0
XRECORD
  5
1B6F9
102
{ACAD_REACTORS
330
1B6F8
102
}
330
1B6F8
100
AcDbXrecord
280
     1
102
RTVSPropertyOp0
 70
     1
102
RTVSPropertyOp1
 70
     1
102
RTVSPropertyOp2
 70
     1
102
RTVSPropertyOp3
 70
     1
102
RTVSPropertyOp4
 70
     1
102
RTVSPropertyOp5
 70
     1
102
RTVSPropertyOp6
 70
     1
102
RTVSPropertyOp7
 70
     1
102
RTVSPropertyOp8
 70
     1
102
RTVSPropertyOp9
 70
     1
102
RTVSPropertyOp10
 70
     1
102
RTVSPropertyOp11
 70
     1
102
RTVSPropertyOp12
 70
     1
102
RTVSPropertyOp13
 70
     1
102
RTVSPropertyOp14
 70
     1
102
RTVSPropertyOp15
 70
     1
102
RTVSPropertyOp16
 70
     1
102
RTVSPropertyOp17
 70
     1
102
RTVSPropertyOp18
 70
     1
102
RTVSPropertyOp19
 70
     1
102
RTVSPropertyOp20
 70
     1
102
RTVSPropertyOp21
 70
     1
102
RTVSPropertyOp22
 70
     1
102
RTVSPropertyOp23
 70
     1
102
RTVSPropertyOp24
 70
     1
102
RTVSPropertyOp25
 70
     1
102
RTVSPropertyOp26
 70
     1
102
RTVSPropertyOp27
 70
     1
102
RTVSPropertyOp28
 70
     1
102
RTVSPropertyOp29
 70
     1
102
RTVSPropertyOp30
 70
     1
102
RTVSPropertyOp31
 70
     1
102
RTVSPropertyOp32
 70
     1
  0
XRECORD
  5
1B6FB
102
{ACAD_REACTORS
330
1B6FA
102
}
330
1B6FA
100
AcDbXrecord
280
     1
102
RTVSPropertyOp0
 70
     1
102
RTVSPropertyOp1
 70
     1
102
RTVSPropertyOp2
 70
     1
102
RTVSPropertyOp3
 70
     1
102
RTVSPropertyOp4
 70
     1
102
RTVSPropertyOp5
 70
     1
102
RTVSPropertyOp6
 70
     1
102
RTVSPropertyOp7
 70
     1
102
RTVSPropertyOp8
 70
     1
102
RTVSPropertyOp9
 70
     1
102
RTVSPropertyOp10
 70
     1
102
RTVSPropertyOp11
 70
     1
102
RTVSPropertyOp12
 70
     1
102
RTVSPropertyOp13
 70
     1
102
RTVSPropertyOp14
 70
     1
102
RTVSPropertyOp15
 70
     1
102
RTVSPropertyOp16
 70
     1
102
RTVSPropertyOp17
 70
     1
102
RTVSPropertyOp18
 70
     1
102
RTVSPropertyOp19
 70
     1
102
RTVSPropertyOp20
 70
     1
102
RTVSPropertyOp21
 70
     1
102
RTVSPropertyOp22
 70
     1
102
RTVSPropertyOp23
 70
     1
102
RTVSPropertyOp24
 70
     1
102
RTVSPropertyOp25
 70
     1
102
RTVSPropertyOp26
 70
     1
102
RTVSPropertyOp27
 70
     1
102
RTVSPropertyOp28
 70
     1
102
RTVSPropertyOp29
 70
     1
102
RTVSPropertyOp30
 70
     1
102
RTVSPropertyOp31
 70
     1
102
RTVSPropertyOp32
 70
     1
  0
XRECORD
  5
1B6EC
102
{ACAD_REACTORS
330
1B6EB
102
}
330
1B6EB
100
AcDbXrecord
280
     1
102
RTVSPropertyOp0
 70
     1
102
RTVSPropertyOp1
 70
     1
102
RTVSPropertyOp2
 70
     1
102
RTVSPropertyOp3
 70
     1
102
RTVSPropertyOp4
 70
     1
102
RTVSPropertyOp5
 70
     1
102
RTVSPropertyOp6
 70
     1
102
RTVSPropertyOp7
 70
     1
102
RTVSPropertyOp8
 70
     1
102
RTVSPropertyOp9
 70
     1
102
RTVSPropertyOp10
 70
     1
102
RTVSPropertyOp11
 70
     1
102
RTVSPropertyOp12
 70
     1
102
RTVSPropertyOp13
 70
     1
102
RTVSPropertyOp14
 70
     1
102
RTVSPropertyOp15
 70
     1
102
RTVSPropertyOp16
 70
     1
102
RTVSPropertyOp17
 70
     1
102
RTVSPropertyOp18
 70
     1
102
RTVSPropertyOp19
 70
     1
102
RTVSPropertyOp20
 70
     1
102
RTVSPropertyOp21
 70
     1
102
RTVSPropertyOp22
 70
     1
102
RTVSPropertyOp23
 70
     1
102
RTVSPropertyOp24
 70
     1
102
RTVSPropertyOp25
 70
     1
102
RTVSPropertyOp26
 70
     1
102
RTVSPropertyOp27
 70
     1
102
RTVSPropertyOp28
 70
     1
102
RTVSPropertyOp29
 70
     1
102
RTVSPropertyOp30
 70
     1
102
RTVSPropertyOp31
 70
     1
102
RTVSPropertyOp32
 70
     1
  0
XRECORD
  5
1B6F5
102
{ACAD_REACTORS
330
1B6F4
102
}
330
1B6F4
100
AcDbXrecord
280
     1
102
RTVSPropertyOp0
 70
     1
102
RTVSPropertyOp1
 70
     1
102
RTVSPropertyOp2
 70
     1
102
RTVSPropertyOp3
 70
     1
102
RTVSPropertyOp4
 70
     1
102
RTVSPropertyOp5
 70
     1
102
RTVSPropertyOp6
 70
     1
102
RTVSPropertyOp7
 70
     1
102
RTVSPropertyOp8
 70
     1
102
RTVSPropertyOp9
 70
     1
102
RTVSPropertyOp10
 70
     1
102
RTVSPropertyOp11
 70
     1
102
RTVSPropertyOp12
 70
     1
102
RTVSPropertyOp13
 70
     1
102
RTVSPropertyOp14
 70
     1
102
RTVSPropertyOp15
 70
     1
102
RTVSPropertyOp16
 70
     1
102
RTVSPropertyOp17
 70
     1
102
RTVSPropertyOp18
 70
     1
102
RTVSPropertyOp19
 70
     1
102
RTVSPropertyOp20
 70
     1
102
RTVSPropertyOp21
 70
     1
102
RTVSPropertyOp22
 70
     1
102
RTVSPropertyOp23
 70
     1
102
RTVSPropertyOp24
 70
     1
102
RTVSPropertyOp25
 70
     1
102
RTVSPropertyOp26
 70
     1
102
RTVSPropertyOp27
 70
     1
102
RTVSPropertyOp28
 70
     1
102
RTVSPropertyOp29
 70
     1
102
RTVSPropertyOp30
 70
     1
102
RTVSPropertyOp31
 70
     1
102
RTVSPropertyOp32
 70
     1
  0
XRECORD
  5
1B6FD
102
{ACAD_REACTORS
330
1B6FC
102
}
330
1B6FC
100
AcDbXrecord
280
     1
102
RTVSPropertyOp0
 70
     1
102
RTVSPropertyOp1
 70
     1
102
RTVSPropertyOp2
 70
     1
102
RTVSPropertyOp3
 70
     1
102
RTVSPropertyOp4
 70
     1
102
RTVSPropertyOp5
 70
     1
102
RTVSPropertyOp6
 70
     1
102
RTVSPropertyOp7
 70
     1
102
RTVSPropertyOp8
 70
     1
102
RTVSPropertyOp9
 70
     1
102
RTVSPropertyOp10
 70
     1
102
RTVSPropertyOp11
 70
     1
102
RTVSPropertyOp12
 70
     1
102
RTVSPropertyOp13
 70
     1
102
RTVSPropertyOp14
 70
     1
102
RTVSPropertyOp15
 70
     1
102
RTVSPropertyOp16
 70
     1
102
RTVSPropertyOp17
 70
     1
102
RTVSPropertyOp18
 70
     1
102
RTVSPropertyOp19
 70
     1
102
RTVSPropertyOp20
 70
     1
102
RTVSPropertyOp21
 70
     1
102
RTVSPropertyOp22
 70
     1
102
RTVSPropertyOp23
 70
     1
102
RTVSPropertyOp24
 70
     1
102
RTVSPropertyOp25
 70
     1
102
RTVSPropertyOp26
 70
     1
102
RTVSPropertyOp27
 70
     1
102
RTVSPropertyOp28
 70
     1
102
RTVSPropertyOp29
 70
     1
102
RTVSPropertyOp30
 70
     1
102
RTVSPropertyOp31
 70
     1
102
RTVSPropertyOp32
 70
     1
  0
ENDSEC
  0
EOF
